  0
SECTION
  2
HEADER
  9
$ACADVER
  1
AC1015
  9
$ACADMAINTVER
 70
     6
  9
$DWGCODEPAGE
  3
ANSI_932
  9
$INSBASE
 10
0.0
 20
0.0
 30
0.0
  9
$EXTMIN
 10
-94.8993410679274
 20
-23.3894643871077
 30
0.0
  9
$EXTMAX
 10
62.3834230620597
 20
92.309345864551
 30
0.0
  9
$LIMMIN
 10
0.0
 20
0.0
  9
$LIMMAX
 10
12.0
 20
9.0
  9
$ORTHOMODE
 70
     0
  9
$REGENMODE
 70
     1
  9
$FILLMODE
 70
     1
  9
$QTEXTMODE
 70
     0
  9
$MIRRTEXT
 70
     1
  9
$LTSCALE
 40
1.0
  9
$ATTMODE
 70
     1
  9
$TEXTSIZE
 40
0.2
  9
$TRACEWID
 40
0.05
  9
$TEXTSTYLE
  7
Standard
  9
$CLAYER
  8
0
  9
$CELTYPE
  6
ByLayer
  9
$CECOLOR
 62
   256
  9
$CELTSCALE
 40
1.0
  9
$DISPSILH
 70
     0
  9
$DIMSCALE
 40
1.0
  9
$DIMASZ
 40
0.18
  9
$DIMEXO
 40
0.0625
  9
$DIMDLI
 40
0.38
  9
$DIMRND
 40
0.0
  9
$DIMDLE
 40
0.0
  9
$DIMEXE
 40
0.18
  9
$DIMTP
 40
0.0
  9
$DIMTM
 40
0.0
  9
$DIMTXT
 40
0.18
  9
$DIMCEN
 40
0.09
  9
$DIMTSZ
 40
0.0
  9
$DIMTOL
 70
     0
  9
$DIMLIM
 70
     0
  9
$DIMTIH
 70
     1
  9
$DIMTOH
 70
     1
  9
$DIMSE1
 70
     0
  9
$DIMSE2
 70
     0
  9
$DIMTAD
 70
     0
  9
$DIMZIN
 70
     0
  9
$DIMBLK
  1

  9
$DIMASO
 70
     1
  9
$DIMSHO
 70
     1
  9
$DIMPOST
  1

  9
$DIMAPOST
  1

  9
$DIMALT
 70
     0
  9
$DIMALTD
 70
     2
  9
$DIMALTF
 40
25.4
  9
$DIMLFAC
 40
1.0
  9
$DIMTOFL
 70
     0
  9
$DIMTVP
 40
0.0
  9
$DIMTIX
 70
     0
  9
$DIMSOXD
 70
     0
  9
$DIMSAH
 70
     0
  9
$DIMBLK1
  1

  9
$DIMBLK2
  1

  9
$DIMSTYLE
  2
Standard
  9
$DIMCLRD
 70
     0
  9
$DIMCLRE
 70
     0
  9
$DIMCLRT
 70
     0
  9
$DIMTFAC
 40
1.0
  9
$DIMGAP
 40
0.09
  9
$DIMJUST
 70
     0
  9
$DIMSD1
 70
     0
  9
$DIMSD2
 70
     0
  9
$DIMTOLJ
 70
     1
  9
$DIMTZIN
 70
     0
  9
$DIMALTZ
 70
     0
  9
$DIMALTTZ
 70
     0
  9
$DIMUPT
 70
     0
  9
$DIMDEC
 70
     4
  9
$DIMTDEC
 70
     4
  9
$DIMALTU
 70
     2
  9
$DIMALTTD
 70
     2
  9
$DIMTXSTY
  7
Standard
  9
$DIMAUNIT
 70
     0
  9
$DIMADEC
 70
     0
  9
$DIMALTRND
 40
0.0
  9
$DIMAZIN
 70
     0
  9
$DIMDSEP
 70
    46
  9
$DIMATFIT
 70
     3
  9
$DIMFRAC
 70
     0
  9
$DIMLDRBLK
  1

  9
$DIMLUNIT
 70
     2
  9
$DIMLWD
 70
    -2
  9
$DIMLWE
 70
    -2
  9
$DIMTMOVE
 70
     0
  9
$LUNITS
 70
     2
  9
$LUPREC
 70
     4
  9
$SKETCHINC
 40
0.1
  9
$FILLETRAD
 40
0.5
  9
$AUNITS
 70
     0
  9
$AUPREC
 70
     0
  9
$MENU
  1
.
  9
$ELEVATION
 40
0.0
  9
$PELEVATION
 40
0.0
  9
$THICKNESS
 40
0.0
  9
$LIMCHECK
 70
     0
  9
$CHAMFERA
 40
0.0
  9
$CHAMFERB
 40
0.0
  9
$CHAMFERC
 40
0.0
  9
$CHAMFERD
 40
0.0
  9
$SKPOLY
 70
     0
  9
$TDCREATE
 40
2458080.571462847
  9
$TDUCREATE
 40
2458080.196462847
  9
$TDUPDATE
 40
2458080.571464479
  9
$TDUUPDATE
 40
2458080.196464479
  9
$TDINDWG
 40
0.0000000116
  9
$TDUSRTIMER
 40
0.0000000116
  9
$USRTIMER
 70
     1
  9
$ANGBASE
 50
0.0
  9
$ANGDIR
 70
     0
  9
$PDMODE
 70
     0
  9
$PDSIZE
 40
0.0
  9
$PLINEWID
 40
0.0
  9
$SPLFRAME
 70
     0
  9
$SPLINETYPE
 70
     6
  9
$SPLINESEGS
 70
     8
  9
$HANDSEED
  5
436
  9
$SURFTAB1
 70
     6
  9
$SURFTAB2
 70
     6
  9
$SURFTYPE
 70
     6
  9
$SURFU
 70
     6
  9
$SURFV
 70
     6
  9
$UCSBASE
  2

  9
$UCSNAME
  2

  9
$UCSORG
 10
0.0
 20
0.0
 30
0.0
  9
$UCSXDIR
 10
1.0
 20
0.0
 30
0.0
  9
$UCSYDIR
 10
0.0
 20
1.0
 30
0.0
  9
$UCSORTHOREF
  2

  9
$UCSORTHOVIEW
 70
     0
  9
$UCSORGTOP
 10
0.0
 20
0.0
 30
0.0
  9
$UCSORGBOTTOM
 10
0.0
 20
0.0
 30
0.0
  9
$UCSORGLEFT
 10
0.0
 20
0.0
 30
0.0
  9
$UCSORGRIGHT
 10
0.0
 20
0.0
 30
0.0
  9
$UCSORGFRONT
 10
0.0
 20
0.0
 30
0.0
  9
$UCSORGBACK
 10
0.0
 20
0.0
 30
0.0
  9
$PUCSBASE
  2

  9
$PUCSNAME
  2

  9
$PUCSORG
 10
0.0
 20
0.0
 30
0.0
  9
$PUCSXDIR
 10
1.0
 20
0.0
 30
0.0
  9
$PUCSYDIR
 10
0.0
 20
1.0
 30
0.0
  9
$PUCSORTHOREF
  2

  9
$PUCSORTHOVIEW
 70
     0
  9
$PUCSORGTOP
 10
0.0
 20
0.0
 30
0.0
  9
$PUCSORGBOTTOM
 10
0.0
 20
0.0
 30
0.0
  9
$PUCSORGLEFT
 10
0.0
 20
0.0
 30
0.0
  9
$PUCSORGRIGHT
 10
0.0
 20
0.0
 30
0.0
  9
$PUCSORGFRONT
 10
0.0
 20
0.0
 30
0.0
  9
$PUCSORGBACK
 10
0.0
 20
0.0
 30
0.0
  9
$USERI1
 70
     0
  9
$USERI2
 70
     0
  9
$USERI3
 70
     0
  9
$USERI4
 70
     0
  9
$USERI5
 70
     0
  9
$USERR1
 40
19.0
  9
$USERR2
 40
0.0
  9
$USERR3
 40
0.0
  9
$USERR4
 40
0.0
  9
$USERR5
 40
0.0
  9
$WORLDVIEW
 70
     1
  9
$SHADEDGE
 70
     3
  9
$SHADEDIF
 70
    70
  9
$TILEMODE
 70
     1
  9
$MAXACTVP
 70
    64
  9
$PINSBASE
 10
0.0
 20
0.0
 30
0.0
  9
$PLIMCHECK
 70
     0
  9
$PEXTMIN
 10
1.00000000000000E+20
 20
1.00000000000000E+20
 30
1.00000000000000E+20
  9
$PEXTMAX
 10
-1.00000000000000E+20
 20
-1.00000000000000E+20
 30
-1.00000000000000E+20
  9
$PLIMMIN
 10
0.0
 20
0.0
  9
$PLIMMAX
 10
12.0
 20
9.0
  9
$UNITMODE
 70
     0
  9
$VISRETAIN
 70
     1
  9
$PLINEGEN
 70
     0
  9
$PSLTSCALE
 70
     1
  9
$TREEDEPTH
 70
  3020
  9
$CMLSTYLE
  2
Standard
  9
$CMLJUST
 70
     0
  9
$CMLSCALE
 40
1.0
  9
$PROXYGRAPHICS
 70
     1
  9
$MEASUREMENT
 70
     1
  9
$CELWEIGHT
370
    -1
  9
$ENDCAPS
280
     0
  9
$JOINSTYLE
280
     0
  9
$LWDISPLAY
290
     0
  9
$INSUNITS
 70
     4
  9
$HYPERLINKBASE
  1

  9
$STYLESHEET
  1

  9
$XEDIT
290
     1
  9
$CEPSNTYPE
380
     0
  9
$PSTYLEMODE
290
     1
  9
$FINGERPRINTGUID
  2
{1A8B19EB-B406-44B0-917E-32CC89157E4D}
  9
$VERSIONGUID
  2
{FAEB1C32-E019-11D5-929B-00C0DF256EC4}
  9
$EXTNAMES
290
     1
  9
$PSVPSCALE
 40
0.0
  9
$OLESTARTUP
290
     0
  0
ENDSEC
  0
SECTION
  2
CLASSES
  0
CLASS
  1
ACDBDICTIONARYWDFLT
  2
AcDbDictionaryWithDefault
  3
ObjectDBX Classes
 90
        0
280
     0
281
     0
  0
CLASS
  1
VISUALSTYLE
  2
AcDbVisualStyle
  3
ObjectDBX Classes
 90
     4095
280
     0
281
     0
  0
CLASS
  1
MATERIAL
  2
AcDbMaterial
  3
ObjectDBX Classes
 90
     1153
280
     0
281
     0
  0
CLASS
  1
SCALE
  2
AcDbScale
  3
ObjectDBX Classes
 90
     1153
280
     0
281
     0
  0
CLASS
  1
SUN
  2
AcDbSun
  3
SCENEOE
 90
     1153
280
     0
281
     0
  0
CLASS
  1
DICTIONARYVAR
  2
AcDbDictionaryVar
  3
ObjectDBX Classes
 90
        0
280
     0
281
     0
  0
CLASS
  1
ACDBPLACEHOLDER
  2
AcDbPlaceHolder
  3
ObjectDBX Classes
 90
        0
280
     0
281
     0
  0
CLASS
  1
LAYOUT
  2
AcDbLayout
  3
ObjectDBX Classes
 90
        0
280
     0
281
     0
  0
ENDSEC
  0
SECTION
  2
TABLES
  0
TABLE
  2
VPORT
  5
8
330
0
100
AcDbSymbolTable
 70
     1
  0
VPORT
  5
29
330
8
100
AcDbSymbolTableRecord
100
AcDbViewportTableRecord
  2
*Active
 70
     0
 10
0.0
 20
0.0
 11
1.0
 21
1.0
 12
-16.25795900293385
 22
34.45994073872166
 13
0.0
 23
0.0
 14
0.5
 24
0.5
 15
0.5
 25
0.5
 16
0.0
 26
0.0
 36
1.0
 17
0.0
 27
0.0
 37
0.0
 40
127.2686912768246
 41
1.60267857142857
 42
50.0
 43
0.0
 44
0.0
 50
0.0
 51
0.0
 71
     0
 72
   100
 73
     1
 74
     3
 75
     0
 76
     0
 77
     0
 78
     0
281
     0
 65
     1
110
0.0
120
0.0
130
0.0
111
1.0
121
0.0
131
0.0
112
0.0
122
1.0
132
0.0
 79
     0
146
0.0
  0
ENDTAB
  0
TABLE
  2
LTYPE
  5
5
330
0
100
AcDbSymbolTable
 70
     8
  0
LTYPE
  5
14
330
5
100
AcDbSymbolTableRecord
100
AcDbLinetypeTableRecord
  2
ByBlock
 70
     0
  3

 72
    65
 73
     0
 40
0.0
  0
LTYPE
  5
15
330
5
100
AcDbSymbolTableRecord
100
AcDbLinetypeTableRecord
  2
ByLayer
 70
     0
  3

 72
    65
 73
     0
 40
0.0
  0
LTYPE
  5
16
330
5
100
AcDbSymbolTableRecord
100
AcDbLinetypeTableRecord
  2
Continuous
 70
     0
  3
Solid line
 72
    65
 73
     0
 40
0.0
  0
LTYPE
  5
6A
330
5
100
AcDbSymbolTableRecord
100
AcDbLinetypeTableRecord
  2
DASHED
 70
     0
  3
Dashed
 72
    65
 73
     2
 40
15.0
 49
7.0
 74
     0
 49
-8.0
 74
     0
  0
LTYPE
  5
6B
330
5
100
AcDbSymbolTableRecord
100
AcDbLinetypeTableRecord
  2
DOTTED
 70
     0
  3
Dotted
 72
    65
 73
     2
 40
1.0
 49
0.0
 74
     0
 49
-1.0
 74
     0
  0
LTYPE
  5
6C
330
5
100
AcDbSymbolTableRecord
100
AcDbLinetypeTableRecord
  2
DOT_CENTER
 70
     0
  3
Dot_Center
 72
    65
 73
     4
 40
14.0
 49
12.0
 74
     0
 49
-1.0
 74
     0
 49
0.0
 74
     0
 49
-1.0
 74
     0
  0
LTYPE
  5
6D
330
5
100
AcDbSymbolTableRecord
100
AcDbLinetypeTableRecord
  2
LONG_DASHED
 70
     0
  3
Long_Dashed
 72
    65
 73
     2
 40
15.0
 49
10.0
 74
     0
 49
-5.0
 74
     0
  0
LTYPE
  5
6E
330
5
100
AcDbSymbolTableRecord
100
AcDbLinetypeTableRecord
  2
DASH_CENTER
 70
     0
  3
Dash_Center
 72
    65
 73
     4
 40
14.0
 49
11.0
 74
     0
 49
-1.0
 74
     0
 49
1.0
 74
     0
 49
-1.0
 74
     0
  0
LTYPE
  5
6F
330
5
100
AcDbSymbolTableRecord
100
AcDbLinetypeTableRecord
  2
PHANTOM
 70
     0
  3
Phantom
 72
    65
 73
     6
 40
13.0
 49
10.0
 74
     0
 49
-1.0
 74
     0
 49
0.0
 74
     0
 49
-1.0
 74
     0
 49
0.0
 74
     0
 49
-1.0
 74
     0
  0
LTYPE
  5
70
330
5
100
AcDbSymbolTableRecord
100
AcDbLinetypeTableRecord
  2
CENTER_DASH_DASH
 70
     0
  3
Center_Dash_Dash
 72
    65
 73
     6
 40
14.0
 49
9.0
 74
     0
 49
-1.0
 74
     0
 49
1.0
 74
     0
 49
-1.0
 74
     0
 49
1.0
 74
     0
 49
-1.0
 74
     0
  0
ENDTAB
  0
TABLE
  2
LAYER
  5
2
330
0
100
AcDbSymbolTable
 70
     2
  0
LAYER
  5
10
330
2
100
AcDbSymbolTableRecord
100
AcDbLayerTableRecord
  2
0
 70
     0
 62
     7
  6
Continuous
370
    -3
390
F
  0
LAYER
  5
71
330
2
100
AcDbSymbolTableRecord
100
AcDbLayerTableRecord
  2
1
 70
     0
 62
     7
  6
Continuous
370
    -3
390
F
  0
ENDTAB
  0
TABLE
  2
STYLE
  5
3
330
0
100
AcDbSymbolTable
 70
     1
  0
STYLE
  5
11
330
3
100
AcDbSymbolTableRecord
100
AcDbTextStyleTableRecord
  2
Standard
 70
     0
 40
0.0
 41
1.0
 50
0.0
 71
     0
 42
0.2
  3
txt
  4

  0
ENDTAB
  0
TABLE
  2
VIEW
  5
6
330
0
100
AcDbSymbolTable
 70
     0
  0
ENDTAB
  0
TABLE
  2
UCS
  5
7
330
0
100
AcDbSymbolTable
 70
     0
  0
ENDTAB
  0
TABLE
  2
APPID
  5
9
330
0
100
AcDbSymbolTable
 70
     1
  0
APPID
  5
12
330
9
100
AcDbSymbolTableRecord
100
AcDbRegAppTableRecord
  2
ACAD
 70
     0
  0
ENDTAB
  0
TABLE
  2
DIMSTYLE
  5
A
330
0
100
AcDbSymbolTable
 70
     1
100
AcDbDimStyleTable
  0
DIMSTYLE
105
27
330
A
100
AcDbSymbolTableRecord
100
AcDbDimStyleTableRecord
  2
Standard
 70
     0
178
     0
340
11
  0
ENDTAB
  0
TABLE
  2
BLOCK_RECORD
  5
1
330
0
100
AcDbSymbolTable
 70
     1
  0
BLOCK_RECORD
  5
1F
330
1
100
AcDbSymbolTableRecord
100
AcDbBlockTableRecord
  2
*Model_Space
340
22
  0
BLOCK_RECORD
  5
1B
330
1
100
AcDbSymbolTableRecord
100
AcDbBlockTableRecord
  2
*Paper_Space
340
1E
  0
BLOCK_RECORD
  5
23
330
1
100
AcDbSymbolTableRecord
100
AcDbBlockTableRecord
  2
*Paper_Space0
340
26
  0
ENDTAB
  0
ENDSEC
  0
SECTION
  2
BLOCKS
  0
BLOCK
  5
20
330
1F
100
AcDbEntity
  8
0
100
AcDbBlockBegin
  2
*Model_Space
 70
     0
 10
0.0
 20
0.0
 30
0.0
  3
*Model_Space
  1
*Model_Space
  0
ENDBLK
  5
21
330
1F
100
AcDbEntity
  8
0
100
AcDbBlockEnd
  0
BLOCK
  5
1C
330
1B
100
AcDbEntity
 67
     1
  8
0
100
AcDbBlockBegin
  2
*Paper_Space
 70
     0
 10
0.0
 20
0.0
 30
0.0
  3
*Paper_Space
  1
*Paper_Space
  0
ENDBLK
  5
1D
330
1B
100
AcDbEntity
 67
     1
  8
0
100
AcDbBlockEnd
  0
BLOCK
  5
24
330
23
100
AcDbEntity
  8
0
100
AcDbBlockBegin
  2
*Paper_Space0
 70
     0
 10
0.0
 20
0.0
 30
0.0
  3
*Paper_Space0
  1
*Paper_Space0
  0
ENDBLK
  5
25
330
23
100
AcDbEntity
  8
0
100
AcDbBlockEnd
  0
ENDSEC
  0
SECTION
  2
ENTITIES
  0
LINE
  5
72
330
1F
100
AcDbEntity
  8
1
  6
Continuous
 62
     3
100
AcDbLine
 10
-26.1339745962156
 20
-11.25
 30
0.0
 11
-11.1547005383793
 21
-11.25
 31
0.0
  0
LINE
  5
73
330
1F
100
AcDbEntity
  8
1
  6
Continuous
 62
     3
100
AcDbLine
 10
-27.0
 20
-9.75
 30
0.0
 11
-26.1339745962156
 21
-11.25
 31
0.0
  0
LINE
  5
74
330
1F
100
AcDbEntity
  8
1
  6
Continuous
 62
     3
100
AcDbLine
 10
-26.1339745962156
 20
11.25
 30
0.0
 11
-13.7824231565609
 21
11.25
 31
0.0
  0
LINE
  5
75
330
1F
100
AcDbEntity
  8
1
  6
Continuous
 62
     3
100
AcDbLine
 10
-27.0
 20
9.75
 30
0.0
 11
-26.1339745962156
 21
11.25
 31
0.0
  0
LINE
  5
76
330
1F
100
AcDbEntity
  8
1
  6
Continuous
 62
     3
100
AcDbLine
 10
-11.1078208870854
 20
18.6218693434052
 30
0.0
 11
-11.7973308532782
 21
13.0062613131897
 31
0.0
  0
LINE
  5
77
330
1F
100
AcDbEntity
  8
1
  6
Continuous
 62
     3
100
AcDbLine
 10
13.4447656140778
 20
14.0
 30
0.0
 11
14.5
 21
14.0
 31
0.0
  0
LINE
  5
78
330
1F
100
AcDbEntity
  8
1
  6
Continuous
 62
     3
100
AcDbLine
 10
11.1078208870853
 20
18.6218693434052
 30
0.0
 11
11.4596733107952
 21
15.7562613131897
 31
0.0
  0
LINE
  5
79
330
1F
100
AcDbEntity
  8
1
  6
Continuous
 62
     3
100
AcDbLine
 10
10.115274735444
 20
19.5
 30
0.0
 11
-10.1152747354441
 21
19.5
 31
0.0
  0
LINE
  5
7A
330
1F
100
AcDbEntity
  8
1
  6
Continuous
 62
     3
100
AcDbLine
 10
-9.42264973081042
 20
-12.25
 30
0.0
 11
-9.07886600696925
 21
-12.8454508765081
 31
0.0
  0
LINE
  5
7B
330
1F
100
AcDbEntity
  8
1
  6
Continuous
 62
     3
100
AcDbLine
 10
4.0
 20
-14.0
 30
0.0
 11
-8.68147683007098
 21
-13.0941802264235
 31
0.0
  0
LINE
  5
7C
330
1F
100
AcDbEntity
  8
1
  6
Continuous
 62
     3
100
AcDbLine
 10
14.5
 20
-14.0
 30
0.0
 11
4.0
 21
-14.0
 31
0.0
  0
LINE
  5
7D
330
1F
100
AcDbEntity
  8
1
  6
Continuous
 62
     3
100
AcDbLine
 10
-27.0
 20
-9.75
 30
0.0
 11
-27.0
 21
9.75
 31
0.0
  0
LINE
  5
7E
330
1F
100
AcDbEntity
  8
1
  6
DOT_CENTER
 62
     3
100
AcDbLine
 10
0.0
 20
-15.618709670698
 30
0.0
 11
0.0
 21
30.8805870790502
 31
0.0
  0
LINE
  5
7F
330
1F
100
AcDbEntity
  8
1
  6
Continuous
 62
     3
100
AcDbLine
 10
7.5
 20
26.0773502691896
 30
0.0
 11
7.5
 21
29.9226497308104
 31
0.0
  0
LINE
  5
80
330
1F
100
AcDbEntity
  8
1
  6
Continuous
 62
     3
100
AcDbLine
 10
7.5
 20
29.9226497308104
 30
0.0
 11
6.5
 21
30.5
 31
0.0
  0
LINE
  5
81
330
1F
100
AcDbEntity
  8
1
  6
Continuous
 62
     3
100
AcDbLine
 10
6.5
 20
25.5
 30
0.0
 11
7.5
 21
26.0773502691896
 31
0.0
  0
LINE
  5
82
330
1F
100
AcDbEntity
  8
1
  6
Continuous
 62
     3
100
AcDbLine
 10
-7.50000000000004
 20
29.9226497308104
 30
0.0
 11
-7.50000000000004
 21
26.0773502691896
 31
0.0
  0
LINE
  5
83
330
1F
100
AcDbEntity
  8
1
  6
Continuous
 62
     3
100
AcDbLine
 10
-6.50000000000004
 20
30.5
 30
0.0
 11
-7.50000000000004
 21
29.9226497308104
 31
0.0
  0
LINE
  5
84
330
1F
100
AcDbEntity
  8
1
  6
Continuous
 62
     3
100
AcDbLine
 10
-7.50000000000004
 20
26.0773502691896
 30
0.0
 11
-6.50000000000004
 21
25.5
 31
0.0
  0
LINE
  5
85
330
1F
100
AcDbEntity
  8
1
  6
Continuous
 62
     3
100
AcDbLine
 10
6.5
 20
30.5
 30
0.0
 11
-6.50000000000004
 21
30.5
 31
0.0
  0
LINE
  5
86
330
1F
100
AcDbEntity
  8
1
  6
Continuous
 62
     3
100
AcDbLine
 10
7.69999999999999
 20
23.5
 30
0.0
 11
7.69999999999999
 21
25.5
 31
0.0
  0
LINE
  5
87
330
1F
100
AcDbEntity
  8
1
  6
Continuous
 62
     3
100
AcDbLine
 10
7.69999999999999
 20
25.5
 30
0.0
 11
1.73205080756888
 21
25.5
 31
0.0
  0
LINE
  5
88
330
1F
100
AcDbEntity
  8
1
  6
Continuous
 62
     3
100
AcDbLine
 10
-7.70000000000003
 20
25.5
 30
0.0
 11
-7.70000000000003
 21
23.5
 31
0.0
  0
LINE
  5
89
330
1F
100
AcDbEntity
  8
1
  6
Continuous
 62
     3
100
AcDbLine
 10
15.6720362555808
 20
21.8601533619009
 30
0.0
 11
22.680979980008
 21
34.0
 31
0.0
  0
LINE
  5
8A
330
1F
100
AcDbEntity
  8
1
  6
Continuous
 62
     3
100
AcDbLine
 10
19.2168783648703
 20
37.0
 30
0.0
 11
15.2009618943234
 21
30.0442286340601
 31
0.0
  0
LINE
  5
8B
330
1F
100
AcDbEntity
  8
1
  6
Continuous
 62
     3
100
AcDbLine
 10
15.0
 20
29.2942286340601
 30
0.0
 11
15.0
 21
28.6961524227066
 31
0.0
  0
LINE
  5
8C
330
1F
100
AcDbEntity
  8
1
  6
Continuous
 62
     3
100
AcDbLine
 10
15.0
 20
28.6961524227066
 30
0.0
 11
12.1443375672974
 21
23.75
 31
0.0
  0
LINE
  5
8D
330
1F
100
AcDbEntity
  8
1
  6
Continuous
 62
     3
100
AcDbLine
 10
15.0
 20
28.6961524227066
 30
0.0
 11
15.0
 21
21.6961524227066
 31
0.0
  0
LINE
  5
8E
330
1F
100
AcDbEntity
  8
1
  6
Continuous
 62
     3
100
AcDbLine
 10
15.0
 20
21.6961524227066
 30
0.0
 11
14.4537386440559
 21
20.75
 31
0.0
  0
LINE
  5
8F
330
1F
100
AcDbEntity
  8
1
  6
Continuous
 62
     3
100
AcDbLine
 10
14.0207259421637
 20
20.5
 30
0.0
 11
-12.36493283554129
 21
20.5
 31
0.0
  0
LINE
  5
90
330
1F
100
AcDbEntity
  8
1
  6
Continuous
 62
     3
100
AcDbLine
 10
-12.3649328355413
 20
23.5
 30
0.0
 11
0.0
 21
23.5
 31
0.0
  0
LINE
  5
91
330
1F
100
AcDbEntity
  8
1
  6
Continuous
 62
     3
100
AcDbLine
 10
-12.3649328355413
 20
23.5
 30
0.0
 11
-12.36493283554129
 21
20.5
 31
0.0
  0
LINE
  5
92
330
1F
100
AcDbEntity
  8
1
  6
Continuous
 62
     3
100
AcDbLine
 10
9.39602572871229
 20
23.5
 30
0.0
 11
11.7113248654051
 21
23.5
 31
0.0
  0
LINE
  5
93
330
1F
100
AcDbEntity
  8
1
  6
Continuous
 62
     3
100
AcDbLine
 10
8.0
 20
19.5
 30
0.0
 11
8.0
 21
20.5
 31
0.0
  0
LINE
  5
94
330
1F
100
AcDbEntity
  8
1
  6
Continuous
 62
     3
100
AcDbLine
 10
23.0
 20
-14.0
 30
0.0
 11
23.0
 21
-12.25
 31
0.0
  0
LINE
  5
95
330
1F
100
AcDbEntity
  8
1
  6
Continuous
 62
     3
100
AcDbLine
 10
24.0
 20
-11.25
 30
0.0
 11
28.1339745962155
 21
-11.25
 31
0.0
  0
LINE
  5
96
330
1F
100
AcDbEntity
  8
1
  6
Continuous
 62
     3
100
AcDbLine
 10
23.0
 20
12.25
 30
0.0
 11
23.0
 21
14.0
 31
0.0
  0
LINE
  5
97
330
1F
100
AcDbEntity
  8
1
  6
Continuous
 62
     3
100
AcDbLine
 10
22.0
 20
15.0
 30
0.0
 11
15.5
 21
15.0
 31
0.0
  0
LINE
  5
98
330
1F
100
AcDbEntity
  8
1
  6
Continuous
 62
     3
100
AcDbLine
 10
29.0
 20
9.75
 30
0.0
 11
28.1339745962155
 21
11.25
 31
0.0
  0
LINE
  5
99
330
1F
100
AcDbEntity
  8
1
  6
Continuous
 62
     3
100
AcDbLine
 10
28.1339745962155
 20
11.25
 30
0.0
 11
24.0
 21
11.25
 31
0.0
  0
LINE
  5
9A
330
1F
100
AcDbEntity
  8
1
  6
Continuous
 62
     3
100
AcDbLine
 10
29.0
 20
-9.75
 30
0.0
 11
28.1339745962155
 21
-11.25
 31
0.0
  0
LINE
  5
9B
330
1F
100
AcDbEntity
  8
1
  6
Continuous
 62
     3
100
AcDbLine
 10
29.0
 20
-9.75
 30
0.0
 11
29.0
 21
9.75
 31
0.0
  0
LINE
  5
9C
330
1F
100
AcDbEntity
  8
1
  6
DOT_CENTER
 62
     3
100
AcDbLine
 10
0.0
 20
43.886546517754
 30
0.0
 11
0.0
 21
46.668282022821
 31
0.0
  0
LINE
  5
9D
330
1F
100
AcDbEntity
  8
1
  6
Continuous
 62
     3
100
AcDbLine
 10
3.75407620402399
 20
45.0
 30
0.0
 11
-3.754076204024
 21
45.0
 31
0.0
  0
LINE
  5
9E
330
1F
100
AcDbEntity
  8
1
  6
Continuous
 62
     3
100
AcDbLine
 10
3.75407620402399
 20
45.5000000000001
 30
0.0
 11
-3.754076204024
 21
45.5000000000001
 31
0.0
  0
LINE
  5
9F
330
1F
100
AcDbEntity
  8
1
  6
Continuous
 62
     3
100
AcDbLine
 10
-92.6240276905795
 20
0.2867433814497
 30
0.0
 11
-92.6240276905795
 21
-0.28674338144972
 31
0.0
  0
LINE
  5
A0
330
1F
100
AcDbEntity
  8
1
  6
Continuous
 62
     3
100
AcDbLine
 10
-58.4900530943639
 20
20.5
 30
0.0
 11
-58.4900530943639
 21
23.5
 31
0.0
  0
LINE
  5
A1
330
1F
100
AcDbEntity
  8
1
  6
Continuous
 62
     3
100
AcDbLine
 10
-74.4900530943639
 20
20.5
 30
0.0
 11
-63.4900530943639
 21
20.5
 31
0.0
  0
LINE
  5
A2
330
1F
100
AcDbEntity
  8
1
  6
Continuous
 62
     3
100
AcDbLine
 10
-74.4900530943639
 20
23.5
 30
0.0
 11
-66.4900530943639
 21
23.5
 31
0.0
  0
LINE
  5
A3
330
1F
100
AcDbEntity
  8
1
  6
Continuous
 62
     3
100
AcDbLine
 10
-58.7900530943639
 20
25.5
 30
0.0
 11
-60.9900530943639
 21
25.5
 31
0.0
  0
LINE
  5
A4
330
1F
100
AcDbEntity
  8
1
  6
Continuous
 62
     3
100
AcDbLine
 10
-58.4900530943639
 20
19.5
 30
0.0
 11
-58.4900530943639
 21
20.5
 31
0.0
  0
LINE
  5
A5
330
1F
100
AcDbEntity
  8
1
  6
Continuous
 62
     3
100
AcDbLine
 10
-74.4900530943639
 20
20.5
 30
0.0
 11
-74.4900530943639
 21
19.5
 31
0.0
  0
LINE
  5
A6
330
1F
100
AcDbEntity
  8
1
  6
Continuous
 62
     3
100
AcDbLine
 10
-74.4900530943639
 20
23.5
 30
0.0
 11
-74.4900530943639
 21
20.5
 31
0.0
  0
LINE
  5
A7
330
1F
100
AcDbEntity
  8
1
  6
Continuous
 62
     3
100
AcDbLine
 10
-74.1900530943639
 20
25.5
 30
0.0
 11
-74.1900530943639
 21
23.5
 31
0.0
  0
LINE
  5
A8
330
1F
100
AcDbEntity
  8
1
  6
Continuous
 62
     3
100
AcDbLine
 10
-58.7900530943639
 20
23.5
 30
0.0
 11
-58.7900530943639
 21
25.5
 31
0.0
  0
LINE
  5
A9
330
1F
100
AcDbEntity
  8
1
  6
Continuous
 62
     3
100
AcDbLine
 10
-85.2873839476421
 20
13.0062613131897
 30
0.0
 11
-84.7056948685346
 21
17.7437386868103
 31
0.0
  0
LINE
  5
AA
330
1F
100
AcDbEntity
  8
1
  6
Continuous
 62
     3
100
AcDbLine
 10
-85.9472361544933
 20
11.752088558422
 30
0.0
 11
-74.645178171548
 21
7.74960869821717
 31
0.0
  0
LINE
  5
AB
330
1F
100
AcDbEntity
  8
1
  6
Continuous
 62
     3
100
AcDbLine
 10
-77.6447536327431
 20
-11.25
 30
0.0
 11
-73.1904303824023
 21
-11.25
 31
0.0
  0
LINE
  5
AC
330
1F
100
AcDbEntity
  8
1
  6
Continuous
 62
     3
100
AcDbLine
 10
-48.3563429294808
 20
0.0
 30
0.0
 11
-53.3958728679404
 21
0.0
 31
0.0
  0
LINE
  5
AD
330
1F
100
AcDbEntity
  8
1
  6
Continuous
 62
     3
100
AcDbLine
 10
-48.2744113201932
 20
17.7437386868103
 30
0.0
 11
-46.3712506261982
 21
2.24373868681027
 31
0.0
  0
LINE
  5
AE
330
1F
100
AcDbEntity
  8
1
  6
Continuous
 62
     3
100
AcDbLine
 10
-82.720602565252
 20
19.5
 30
0.0
 11
-81.4900530943639
 21
19.5
 31
0.0
  0
LINE
  5
AF
330
1F
100
AcDbEntity
  8
1
  6
Continuous
 62
     3
100
AcDbLine
 10
-83.4900530943639
 20
-11.25
 30
0.0
 11
-77.6447536327431
 21
-11.25
 31
0.0
  0
LINE
  5
B0
330
1F
100
AcDbEntity
  8
1
  6
Continuous
 62
     3
100
AcDbLine
 10
-92.6240276905795
 20
-7.7496086982172
 30
0.0
 11
-92.6240276905795
 21
-8.15512507718401
 31
0.0
  0
LINE
  5
B1
330
1F
100
AcDbEntity
  8
1
  6
Continuous
 62
     3
100
AcDbLine
 10
-92.6240276905795
 20
7.74960869821717
 30
0.0
 11
-92.6240276905795
 21
8.15512507718398
 31
0.0
  0
LINE
  5
B2
330
1F
100
AcDbEntity
  8
1
  6
Continuous
 62
     3
100
AcDbLine
 10
-83.4900530943639
 20
-8.15512507718401
 30
0.0
 11
-83.4900530943639
 21
-11.25
 31
0.0
  0
LINE
  5
B3
330
1F
100
AcDbEntity
  8
1
  6
Continuous
 62
     3
100
AcDbLine
 10
-83.4900530943639
 20
8.15512507718398
 30
0.0
 11
-83.4900530943639
 21
10.881908479197
 31
0.0
  0
LINE
  5
B4
330
1F
100
AcDbEntity
  8
1
  6
Continuous
 62
     3
100
AcDbLine
 10
-83.4900530943639
 20
0.2867433814497
 30
0.0
 11
-83.4900530943639
 21
7.74960869821717
 31
0.0
  0
LINE
  5
B5
330
1F
100
AcDbEntity
  8
1
  6
Continuous
 62
     3
100
AcDbLine
 10
-83.4900530943639
 20
-7.7496086982172
 30
0.0
 11
-83.4900530943639
 21
-0.28674338144972
 31
0.0
  0
LINE
  5
B6
330
1F
100
AcDbEntity
  8
1
  6
Continuous
 62
     3
100
AcDbLine
 10
-92.6240276905795
 20
-8.15512507718401
 30
0.0
 11
-83.4900530943639
 21
-8.15512507718401
 31
0.0
  0
LINE
  5
B7
330
1F
100
AcDbEntity
  8
1
  6
Continuous
 62
     3
100
AcDbLine
 10
-92.6240276905795
 20
-7.7496086982172
 30
0.0
 11
-83.4900530943639
 21
-7.7496086982172
 31
0.0
  0
LINE
  5
B8
330
1F
100
AcDbEntity
  8
1
  6
Continuous
 62
     3
100
AcDbLine
 10
-92.6240276905795
 20
-0.28674338144972
 30
0.0
 11
-83.4900530943639
 21
-0.28674338144972
 31
0.0
  0
LINE
  5
B9
330
1F
100
AcDbEntity
  8
1
  6
Continuous
 62
     3
100
AcDbLine
 10
-92.6240276905795
 20
0.2867433814497
 30
0.0
 11
-83.4900530943639
 21
0.2867433814497
 31
0.0
  0
LINE
  5
BA
330
1F
100
AcDbEntity
  8
1
  6
Continuous
 62
     3
100
AcDbLine
 10
-92.6240276905795
 20
7.74960869821717
 30
0.0
 11
-83.4900530943639
 21
7.74960869821717
 31
0.0
  0
LINE
  5
BB
330
1F
100
AcDbEntity
  8
1
  6
Continuous
 62
     3
100
AcDbLine
 10
-92.6240276905795
 20
8.15512507718398
 30
0.0
 11
-83.4900530943639
 21
8.15512507718398
 31
0.0
  0
LINE
  5
BC
330
1F
100
AcDbEntity
  8
1
  6
Continuous
 62
     3
100
AcDbLine
 10
-93.4900530943639
 20
-9.75
 30
0.0
 11
-93.4900530943639
 21
9.75
 31
0.0
  0
LINE
  5
BD
330
1F
100
AcDbEntity
  8
1
  6
Continuous
 62
     3
100
AcDbLine
 10
-93.4900530943639
 20
9.75
 30
0.0
 11
-92.6240276905795
 21
11.25
 31
0.0
  0
LINE
  5
BE
330
1F
100
AcDbEntity
  8
1
  6
Continuous
 62
     3
100
AcDbLine
 10
-92.6240276905795
 20
11.25
 30
0.0
 11
-87.2724762509247
 21
11.25
 31
0.0
  0
LINE
  5
BF
330
1F
100
AcDbEntity
  8
1
  6
Continuous
 62
     3
100
AcDbLine
 10
-93.4900530943639
 20
-9.75
 30
0.0
 11
-92.6240276905795
 21
-11.25
 31
0.0
  0
LINE
  5
C0
330
1F
100
AcDbEntity
  8
1
  6
Continuous
 62
     3
100
AcDbLine
 10
-92.6240276905795
 20
-11.25
 30
0.0
 11
-83.4900530943639
 21
-11.25
 31
0.0
  0
LINE
  5
C1
330
1F
100
AcDbEntity
  8
1
  6
DOT_CENTER
 62
     3
100
AcDbLine
 10
-66.4900530943639
 20
-15.618709670698
 30
0.0
 11
-66.4900530943639
 21
39.55739578031179
 31
0.0
  0
LINE
  5
C2
330
1F
100
AcDbEntity
  8
1
  6
Continuous
 62
     3
100
AcDbLine
 10
-66.7767964758136
 20
-11.246345105553
 30
0.0
 11
-74.2396617925811
 21
-8.15512507718401
 31
0.0
  0
LINE
  5
C3
330
1F
100
AcDbEntity
  8
1
  6
Continuous
 62
     3
100
AcDbLine
 10
-74.645178171548
 20
-7.7496086982172
 30
0.0
 11
-77.7363981999169
 21
-0.28674338144972
 31
0.0
  0
LINE
  5
C4
330
1F
100
AcDbEntity
  8
1
  6
Continuous
 62
     3
100
AcDbLine
 10
-77.7363981999169
 20
0.2867433814497
 30
0.0
 11
-74.645178171548
 21
7.74960869821717
 31
0.0
  0
LINE
  5
C5
330
1F
100
AcDbEntity
  8
1
  6
Continuous
 62
     3
100
AcDbLine
 10
-74.2396617925811
 20
8.15512507718398
 30
0.0
 11
-66.7767964758136
 21
11.246345105553
 31
0.0
  0
LINE
  5
C6
330
1F
100
AcDbEntity
  8
1
  6
Continuous
 62
     3
100
AcDbLine
 10
-58.7404443961467
 20
-8.15512507718401
 30
0.0
 11
-66.2033097129142
 21
-11.246345105553
 31
0.0
  0
LINE
  5
C7
330
1F
100
AcDbEntity
  8
1
  6
Continuous
 62
     3
100
AcDbLine
 10
-55.2437079888109
 20
-0.28674338144972
 30
0.0
 11
-58.3349280171798
 21
-7.7496086982172
 31
0.0
  0
LINE
  5
C8
330
1F
100
AcDbEntity
  8
1
  6
Continuous
 62
     3
100
AcDbLine
 10
-58.3349280171798
 20
7.74960869821717
 30
0.0
 11
-55.243707988811
 21
0.2867433814497
 31
0.0
  0
LINE
  5
C9
330
1F
100
AcDbEntity
  8
1
  6
Continuous
 62
     3
100
AcDbLine
 10
-66.2033097129142
 20
11.246345105553
 30
0.0
 11
-58.7404443961467
 21
8.15512507718398
 31
0.0
  0
LINE
  5
CA
330
1F
100
AcDbEntity
  8
1
  6
Continuous
 62
     3
100
AcDbLine
 10
-75.4900530943639
 20
19.5
 30
0.0
 11
-50.2595036234758
 21
19.5
 31
0.0
  0
LINE
  5
CB
330
1F
100
AcDbEntity
  8
1
  6
Continuous
 62
     3
100
AcDbLine
 10
-81.4900530943639
 20
19.5
 30
0.0
 11
-75.4900530943639
 21
19.5
 31
0.0
  0
LINE
  5
CC
330
1F
100
AcDbEntity
  8
1
  6
DOT_CENTER
 62
     3
100
AcDbLine
 10
-78.4900530943639
 20
16.5546178103211
 30
0.0
 11
-78.4900530943639
 21
25.0920914745401
 31
0.0
  0
LINE
  5
CD
330
1F
100
AcDbEntity
  8
1
  6
Continuous
 62
     3
100
AcDbLine
 10
-74.4900530943639
 20
23.5
 30
0.0
 11
-75.9900530943639
 21
23.5
 31
0.0
  0
LINE
  5
CE
330
1F
100
AcDbEntity
  8
1
  6
Continuous
 62
     3
100
AcDbLine
 10
-74.4900530943639
 20
20.5
 30
0.0
 11
-75.4900530943639
 21
20.5
 31
0.0
  0
LINE
  5
CF
330
1F
100
AcDbEntity
  8
1
  6
Continuous
 62
     3
100
AcDbLine
 10
-75.4900530943639
 20
20.5
 30
0.0
 11
-75.4900530943639
 21
19.5
 31
0.0
  0
LINE
  5
D0
330
1F
100
AcDbEntity
  8
1
  6
Continuous
 62
     3
100
AcDbLine
 10
-63.4900530943639
 20
20.5
 30
0.0
 11
-63.4900530943639
 21
23.5
 31
0.0
  0
LINE
  5
D1
330
1F
100
AcDbEntity
  8
1
  6
Continuous
 62
     3
100
AcDbLine
 10
-63.4900530943639
 20
20.5
 30
0.0
 11
-58.4900530943639
 21
20.5
 31
0.0
  0
LINE
  5
D2
330
1F
100
AcDbEntity
  8
1
  6
Continuous
 62
     3
100
AcDbLine
 10
-63.4900530943639
 20
23.5
 30
0.0
 11
-58.4900530943639
 21
23.5
 31
0.0
  0
LINE
  5
D3
330
1F
100
AcDbEntity
  8
1
  6
Continuous
 62
     3
100
AcDbLine
 10
-58.5280986155549
 20
29.1310147198057
 30
0.0
 11
-59.1880515681645
 21
36.6743114854953
 31
0.0
  0
LINE
  5
D4
330
1F
100
AcDbEntity
  8
1
  6
Continuous
 62
     3
100
AcDbLine
 10
-61.180440964348
 20
38.5
 30
0.0
 11
-71.7996652243798
 21
38.5
 31
0.0
  0
LINE
  5
D5
330
1F
100
AcDbEntity
  8
1
  6
Continuous
 62
     3
100
AcDbLine
 10
-73.7920546205633
 20
36.6743114854953
 30
0.0
 11
-74.4520075731729
 21
29.1310147198057
 31
0.0
  0
LINE
  5
D6
330
1F
100
AcDbEntity
  8
1
  6
Continuous
 62
     3
100
AcDbLine
 10
-58.4900530943639
 20
23.5
 30
0.0
 11
-58.9446575253035
 21
28.6961524227066
 31
0.0
  0
LINE
  5
D7
330
1F
100
AcDbEntity
  8
1
  6
Continuous
 62
     3
100
AcDbLine
 10
-74.4900530943639
 20
23.5
 30
0.0
 11
-74.0354486634243
 21
28.6961524227066
 31
0.0
  0
LINE
  5
D8
330
1F
100
AcDbEntity
  8
1
  6
Continuous
 62
     3
100
AcDbLine
 10
-58.9446575253035
 20
28.6961524227066
 30
0.0
 11
-59.9900530943639
 21
28.6961524227066
 31
0.0
  0
LINE
  5
D9
330
1F
100
AcDbEntity
  8
1
  6
Continuous
 62
     3
100
AcDbLine
 10
-59.9900530943639
 20
28.6961524227066
 30
0.0
 11
-59.9900530943639
 21
29.9226497308104
 31
0.0
  0
LINE
  5
DA
330
1F
100
AcDbEntity
  8
1
  6
Continuous
 62
     3
100
AcDbLine
 10
-74.0354486634243
 20
28.6961524227066
 30
0.0
 11
-72.9900530943639
 21
28.6961524227066
 31
0.0
  0
LINE
  5
DB
330
1F
100
AcDbEntity
  8
1
  6
Continuous
 62
     3
100
AcDbLine
 10
-72.9900530943639
 20
28.6961524227066
 30
0.0
 11
-72.9900530943639
 21
29.9226497308104
 31
0.0
  0
LINE
  5
DC
330
1F
100
AcDbEntity
  8
1
  6
Continuous
 62
     3
100
AcDbLine
 10
-74.0535296939362
 20
28.6961524227066
 30
0.0
 11
-74.0354486634243
 21
28.6961524227066
 31
0.0
  0
LINE
  5
DD
330
1F
100
AcDbEntity
  8
1
  6
Continuous
 62
     3
100
AcDbLine
 10
-58.9446575253035
 20
28.6961524227066
 30
0.0
 11
-58.9265764947916
 21
28.6961524227066
 31
0.0
  0
LINE
  5
DE
330
1F
100
AcDbEntity
  8
1
  6
Continuous
 62
     3
100
AcDbLine
 10
-81.4900530943639
 20
23.0
 30
0.0
 11
-81.4900530943639
 21
19.5
 31
0.0
  0
LINE
  5
DF
330
1F
100
AcDbEntity
  8
1
  6
Continuous
 62
     3
100
AcDbLine
 10
-81.4900530943639
 20
23.0
 30
0.0
 11
-75.4900530943639
 21
23.0
 31
0.0
  0
LINE
  5
E0
330
1F
100
AcDbEntity
  8
1
  6
Continuous
 62
     3
100
AcDbLine
 10
-75.4900530943639
 20
23.0
 30
0.0
 11
-75.4900530943639
 21
20.5
 31
0.0
  0
LINE
  5
E1
330
1F
100
AcDbEntity
  8
1
  6
Continuous
 62
     3
100
AcDbLine
 10
-75.4900530943639
 20
23.0
 30
0.0
 11
-75.9900530943639
 21
23.5
 31
0.0
  0
LINE
  5
E2
330
1F
100
AcDbEntity
  8
1
  6
Continuous
 62
     3
100
AcDbLine
 10
-75.9900530943639
 20
23.5
 30
0.0
 11
-80.9900530943639
 21
23.5
 31
0.0
  0
LINE
  5
E3
330
1F
100
AcDbEntity
  8
1
  6
Continuous
 62
     3
100
AcDbLine
 10
-81.4900530943639
 20
23.0
 30
0.0
 11
-80.9900530943639
 21
23.5
 31
0.0
  0
LINE
  5
E4
330
1F
100
AcDbEntity
  8
1
  6
Continuous
 62
     3
100
AcDbLine
 10
-4.0
 20
63.5
 30
0.0
 11
-3.3455334597473
 21
63.375
 31
0.0
  0
LINE
  5
E5
330
1F
100
AcDbEntity
  8
1
  6
Continuous
 62
     3
100
AcDbLine
 10
-3.2475952641916
 20
63.625
 30
0.0
 11
-4.0
 21
63.5
 31
0.0
  0
LINE
  5
E6
330
1F
100
AcDbEntity
  8
1
  6
Continuous
 62
     3
100
AcDbLine
 10
-3.2475952641916
 20
63.625
 30
0.0
 11
-0.125
 21
63.625
 31
0.0
  0
LINE
  5
E7
330
1F
100
AcDbEntity
  8
1
  6
Continuous
 62
     3
100
AcDbLine
 10
0.125
 20
63.375
 30
0.0
 11
-3.2475952641916
 21
63.375
 31
0.0
  0
LINE
  5
E8
330
1F
100
AcDbEntity
  8
1
  6
Continuous
 62
     3
100
AcDbLine
 10
0.125
 20
66.0
 30
0.0
 11
0.125
 21
63.375
 31
0.0
  0
LINE
  5
E9
330
1F
100
AcDbEntity
  8
1
  6
Continuous
 62
     3
100
AcDbLine
 10
-0.125
 20
63.625
 30
0.0
 11
-0.125
 21
66.0
 31
0.0
  0
LINE
  5
EA
330
1F
100
AcDbEntity
  8
1
  6
DOT_CENTER
 62
     3
100
AcDbLine
 10
25.8051388756487
 20
63.5
 30
0.0
 11
-28.3710650887575
 21
63.5
 31
0.0
  0
LINE
  5
EB
330
1F
100
AcDbEntity
  8
1
  6
Continuous
 62
     3
100
AcDbLine
 10
14.5055427241864
 20
56.8385247360477
 30
0.0
 11
14.8267854785222
 21
56.9883226925214
 31
0.0
  0
LINE
  5
EC
330
1F
100
AcDbEntity
  8
1
  6
Continuous
 62
     3
100
AcDbLine
 10
15.2519919085711
 20
70.0741040555662
 30
0.0
 11
57.507361410747
 21
68.5246699946857
 31
0.0
  0
LINE
  5
ED
330
1F
100
AcDbEntity
  8
1
  6
Continuous
 62
     3
100
AcDbLine
 10
11.6350671644587
 20
71.5
 30
0.0
 11
14.5055427241864
 21
70.1614752639523
 31
0.0
  0
LINE
  5
EE
330
1F
100
AcDbEntity
  8
1
  6
Continuous
 62
     3
100
AcDbLine
 10
-0.28674338144971
 20
89.6339745962156
 30
0.0
 11
0.2867433814497
 21
89.6339745962156
 31
0.0
  0
LINE
  5
EF
330
1F
100
AcDbEntity
  8
1
  6
Continuous
 62
     3
100
AcDbLine
 10
28.1339745962155
 20
55.7503913017828
 30
0.0
 11
28.1339745962155
 21
55.344874922816
 31
0.0
  0
LINE
  5
F0
330
1F
100
AcDbEntity
  8
1
  6
Continuous
 62
     3
100
AcDbLine
 10
28.1339745962155
 20
71.6551250771841
 30
0.0
 11
28.1339745962155
 21
71.2496086982172
 31
0.0
  0
LINE
  5
F1
330
1F
100
AcDbEntity
  8
1
  6
Continuous
 62
     3
100
AcDbLine
 10
9.3262825093434
 20
55.5
 30
0.0
 11
6.10330775598869
 21
46.6449496416858
 31
0.0
  0
LINE
  5
F2
330
1F
100
AcDbEntity
  8
1
  6
Continuous
 62
     3
100
AcDbLine
 10
8.7941936231054
 20
55.5
 30
0.0
 11
5.6334614455958
 21
46.8159597133487
 31
0.0
  0
LINE
  5
F3
330
1F
100
AcDbEntity
  8
1
  6
Continuous
 62
     3
100
AcDbLine
 10
-8.68147683007098
 20
50.4058197735765
 30
0.0
 11
-7.4255480550666
 21
50.4058197735765
 31
0.0
  0
LINE
  5
F4
330
1F
100
AcDbEntity
  8
1
  6
Continuous
 62
     3
100
AcDbLine
 10
7.1904996845191
 20
49.5
 30
0.0
 11
14.5
 21
49.5
 31
0.0
  0
LINE
  5
F5
330
1F
100
AcDbEntity
  8
1
  6
Continuous
 62
     3
100
AcDbLine
 10
14.5
 20
56.7227614456283
 30
0.0
 11
14.5
 21
49.5
 31
0.0
  0
LINE
  5
F6
330
1F
100
AcDbEntity
  8
1
  6
Continuous
 62
     3
100
AcDbLine
 10
14.5
 20
77.5
 30
0.0
 11
14.5
 21
70.2772385543717
 31
0.0
  0
LINE
  5
F7
330
1F
100
AcDbEntity
  8
1
  6
Continuous
 62
     3
100
AcDbLine
 10
13.4447656140778
 20
77.5
 30
0.0
 11
13.25
 21
77.5
 31
0.0
  0
LINE
  5
F8
330
1F
100
AcDbEntity
  8
1
  6
Continuous
 62
     3
100
AcDbLine
 10
-11.25
 20
80.5
 30
0.0
 11
-11.25
 21
76.75
 31
0.0
  0
LINE
  5
F9
330
1F
100
AcDbEntity
  8
1
  6
Continuous
 62
     3
100
AcDbLine
 10
6.04536405150189
 20
80.5
 30
0.0
 11
7.7496086982172
 21
80.5
 31
0.0
  0
LINE
  5
FA
330
1F
100
AcDbEntity
  8
1
  6
Continuous
 62
     3
100
AcDbLine
 10
-7.7496086982172
 20
89.6339745962156
 30
0.0
 11
-8.15512507718404
 21
89.6339745962156
 31
0.0
  0
LINE
  5
FB
330
1F
100
AcDbEntity
  8
1
  6
Continuous
 62
     3
100
AcDbLine
 10
7.7496086982172
 20
89.6339745962156
 30
0.0
 11
8.155125077184
 21
89.6339745962156
 31
0.0
  0
LINE
  5
FC
330
1F
100
AcDbEntity
  8
1
  6
Continuous
 62
     3
100
AcDbLine
 10
-8.15512507718404
 20
80.5
 30
0.0
 11
-11.25
 21
80.5
 31
0.0
  0
LINE
  5
FD
330
1F
100
AcDbEntity
  8
1
  6
Continuous
 62
     3
100
AcDbLine
 10
11.25
 20
80.5000000000001
 30
0.0
 11
11.25
 21
79.5
 31
0.0
  0
LINE
  5
FE
330
1F
100
AcDbEntity
  8
1
  6
Continuous
 62
     3
100
AcDbLine
 10
8.155125077184
 20
80.5
 30
0.0
 11
11.25
 21
80.5000000000001
 31
0.0
  0
LINE
  5
FF
330
1F
100
AcDbEntity
  8
1
  6
Continuous
 62
     3
100
AcDbLine
 10
-7.7496086982172
 20
80.5
 30
0.0
 11
-6.04536405150188
 21
80.5
 31
0.0
  0
LINE
  5
100
330
1F
100
AcDbEntity
  8
1
  6
Continuous
 62
     3
100
AcDbLine
 10
-8.15512507718404
 20
89.6339745962156
 30
0.0
 11
-8.15512507718404
 21
80.5
 31
0.0
  0
LINE
  5
101
330
1F
100
AcDbEntity
  8
1
  6
Continuous
 62
     3
100
AcDbLine
 10
-7.7496086982172
 20
89.6339745962156
 30
0.0
 11
-7.7496086982172
 21
80.5
 31
0.0
  0
LINE
  5
102
330
1F
100
AcDbEntity
  8
1
  6
Continuous
 62
     3
100
AcDbLine
 10
-0.28674338144971
 20
89.6339745962156
 30
0.0
 11
-0.28674338144971
 21
82.0
 31
0.0
  0
LINE
  5
103
330
1F
100
AcDbEntity
  8
1
  6
Continuous
 62
     3
100
AcDbLine
 10
0.2867433814497
 20
89.6339745962156
 30
0.0
 11
0.2867433814497
 21
82.0
 31
0.0
  0
LINE
  5
104
330
1F
100
AcDbEntity
  8
1
  6
Continuous
 62
     3
100
AcDbLine
 10
7.7496086982172
 20
89.6339745962156
 30
0.0
 11
7.7496086982172
 21
80.5
 31
0.0
  0
LINE
  5
105
330
1F
100
AcDbEntity
  8
1
  6
Continuous
 62
     3
100
AcDbLine
 10
8.155125077184
 20
89.6339745962156
 30
0.0
 11
8.155125077184
 21
80.5
 31
0.0
  0
LINE
  5
106
330
1F
100
AcDbEntity
  8
1
  6
Continuous
 62
     3
100
AcDbLine
 10
-9.75
 20
90.5
 30
0.0
 11
9.75
 21
90.5
 31
0.0
  0
LINE
  5
107
330
1F
100
AcDbEntity
  8
1
  6
Continuous
 62
     3
100
AcDbLine
 10
9.75
 20
90.5
 30
0.0
 11
11.25
 21
89.6339745962156
 31
0.0
  0
LINE
  5
108
330
1F
100
AcDbEntity
  8
1
  6
Continuous
 62
     3
100
AcDbLine
 10
11.25
 20
89.6339745962156
 30
0.0
 11
11.25
 21
80.5000000000001
 31
0.0
  0
LINE
  5
109
330
1F
100
AcDbEntity
  8
1
  6
Continuous
 62
     3
100
AcDbLine
 10
-9.75
 20
90.5
 30
0.0
 11
-11.25
 21
89.6339745962156
 31
0.0
  0
LINE
  5
10A
330
1F
100
AcDbEntity
  8
1
  6
Continuous
 62
     3
100
AcDbLine
 10
-11.25
 20
89.6339745962156
 30
0.0
 11
-11.25
 21
80.5
 31
0.0
  0
LINE
  5
10B
330
1F
100
AcDbEntity
  8
1
  6
Continuous
 62
     3
100
AcDbLine
 10
-26.1339745962156
 20
55.7503913017828
 30
0.0
 11
-26.1339745962156
 21
55.344874922816
 31
0.0
  0
LINE
  5
10C
330
1F
100
AcDbEntity
  8
1
  6
Continuous
 62
     3
100
AcDbLine
 10
-26.1339745962156
 20
71.2496086982172
 30
0.0
 11
-26.1339745962156
 21
71.6551250771841
 31
0.0
  0
LINE
  5
10D
330
1F
100
AcDbEntity
  8
1
  6
Continuous
 62
     3
100
AcDbLine
 10
-17.0
 20
52.25
 30
0.0
 11
-11.1547005383793
 21
52.25
 31
0.0
  0
LINE
  5
10E
330
1F
100
AcDbEntity
  8
1
  6
Continuous
 62
     3
100
AcDbLine
 10
-17.0
 20
55.344874922816
 30
0.0
 11
-17.0
 21
52.25
 31
0.0
  0
LINE
  5
10F
330
1F
100
AcDbEntity
  8
1
  6
Continuous
 62
     3
100
AcDbLine
 10
-17.0
 20
74.75
 30
0.0
 11
-13.25
 21
74.75
 31
0.0
  0
LINE
  5
110
330
1F
100
AcDbEntity
  8
1
  6
Continuous
 62
     3
100
AcDbLine
 10
-17.0
 20
71.6551250771841
 30
0.0
 11
-17.0
 21
74.75
 31
0.0
  0
LINE
  5
111
330
1F
100
AcDbEntity
  8
1
  6
Continuous
 62
     3
100
AcDbLine
 10
-17.0
 20
63.7867433814497
 30
0.0
 11
-17.0
 21
71.2496086982172
 31
0.0
  0
LINE
  5
112
330
1F
100
AcDbEntity
  8
1
  6
Continuous
 62
     3
100
AcDbLine
 10
-17.0
 20
55.7503913017828
 30
0.0
 11
-17.0
 21
63.2132566185503
 31
0.0
  0
LINE
  5
113
330
1F
100
AcDbEntity
  8
1
  6
Continuous
 62
     3
100
AcDbLine
 10
-26.1339745962156
 20
55.344874922816
 30
0.0
 11
-17.0
 21
55.344874922816
 31
0.0
  0
LINE
  5
114
330
1F
100
AcDbEntity
  8
1
  6
Continuous
 62
     3
100
AcDbLine
 10
-26.1339745962156
 20
55.7503913017828
 30
0.0
 11
-17.0
 21
55.7503913017828
 31
0.0
  0
LINE
  5
115
330
1F
100
AcDbEntity
  8
1
  6
Continuous
 62
     3
100
AcDbLine
 10
-26.1339745962156
 20
63.2132566185503
 30
0.0
 11
-17.0
 21
63.2132566185503
 31
0.0
  0
LINE
  5
116
330
1F
100
AcDbEntity
  8
1
  6
Continuous
 62
     3
100
AcDbLine
 10
-26.1339745962156
 20
63.7867433814497
 30
0.0
 11
-17.0
 21
63.7867433814497
 31
0.0
  0
LINE
  5
117
330
1F
100
AcDbEntity
  8
1
  6
Continuous
 62
     3
100
AcDbLine
 10
-26.1339745962156
 20
71.2496086982172
 30
0.0
 11
-17.0
 21
71.2496086982172
 31
0.0
  0
LINE
  5
118
330
1F
100
AcDbEntity
  8
1
  6
Continuous
 62
     3
100
AcDbLine
 10
-26.1339745962156
 20
71.6551250771841
 30
0.0
 11
-17.0
 21
71.6551250771841
 31
0.0
  0
LINE
  5
119
330
1F
100
AcDbEntity
  8
1
  6
Continuous
 62
     3
100
AcDbLine
 10
-6.10330775598874
 20
46.6449496416858
 30
0.0
 11
-9.32628250934337
 21
55.5
 31
0.0
  0
LINE
  5
11A
330
1F
100
AcDbEntity
  8
1
  6
Continuous
 62
     3
100
AcDbLine
 10
6.10330775598869
 20
80.3550503583142
 30
0.0
 11
9.14957942198009
 21
71.9854877424787
 31
0.0
  0
LINE
  5
11B
330
1F
100
AcDbEntity
  8
1
  6
Continuous
 62
     3
100
AcDbLine
 10
-3.754076204024
 20
82.0
 30
0.0
 11
3.75407620402399
 21
82.0
 31
0.0
  0
LINE
  5
11C
330
1F
100
AcDbEntity
  8
1
  6
Continuous
 62
     3
100
AcDbLine
 10
-10.8064651390379
 20
67.4332316482452
 30
0.0
 11
-6.10330775598874
 21
80.3550503583142
 31
0.0
  0
LINE
  5
11D
330
1F
100
AcDbEntity
  8
1
  6
Continuous
 62
     3
100
AcDbLine
 10
-5.63346144559578
 20
46.8159597133487
 30
0.0
 11
-8.79419362310539
 21
55.5
 31
0.0
  0
LINE
  5
11E
330
1F
100
AcDbEntity
  8
1
  6
Continuous
 62
     3
100
AcDbLine
 10
5.6334614455958
 20
80.1840402866514
 30
0.0
 11
8.3130008294293
 21
72.8220663350294
 31
0.0
  0
LINE
  5
11F
330
1F
100
AcDbEntity
  8
1
  6
Continuous
 62
     3
100
AcDbLine
 10
-3.754076204024
 20
81.5
 30
0.0
 11
3.75407620402399
 21
81.5
 31
0.0
  0
LINE
  5
120
330
1F
100
AcDbEntity
  8
1
  6
Continuous
 62
     3
100
AcDbLine
 10
-10.336618828645
 20
67.2622215765824
 30
0.0
 11
-5.63346144559578
 21
80.1840402866514
 31
0.0
  0
LINE
  5
121
330
1F
100
AcDbEntity
  8
1
  6
Continuous
 62
     3
100
AcDbLine
 10
20.0
 20
48.5
 30
0.0
 11
15.5
 21
48.5
 31
0.0
  0
LINE
  5
122
330
1F
100
AcDbEntity
  8
1
  6
Continuous
 62
     3
100
AcDbLine
 10
13.4447656140778
 20
77.5
 30
0.0
 11
14.5
 21
77.5
 31
0.0
  0
LINE
  5
123
330
1F
100
AcDbEntity
  8
1
  6
Continuous
 62
     3
100
AcDbLine
 10
15.5
 20
78.5
 30
0.0
 11
20.0
 21
78.5
 31
0.0
  0
LINE
  5
124
330
1F
100
AcDbEntity
  8
1
  6
Continuous
 62
     3
100
AcDbLine
 10
-27.0
 20
53.75
 30
0.0
 11
-27.0
 21
73.25
 31
0.0
  0
LINE
  5
125
330
1F
100
AcDbEntity
  8
1
  6
Continuous
 62
     3
100
AcDbLine
 10
-9.42264973081042
 20
51.25
 30
0.0
 11
-9.07886600696925
 21
50.6545491234919
 31
0.0
  0
LINE
  5
126
330
1F
100
AcDbEntity
  8
1
  6
Continuous
 62
     3
100
AcDbLine
 10
-27.0
 20
73.25
 30
0.0
 11
-26.1339745962156
 21
74.75
 31
0.0
  0
LINE
  5
127
330
1F
100
AcDbEntity
  8
1
  6
Continuous
 62
     3
100
AcDbLine
 10
-26.1339745962156
 20
74.75
 30
0.0
 11
-17.0
 21
74.75
 31
0.0
  0
LINE
  5
128
330
1F
100
AcDbEntity
  8
1
  6
Continuous
 62
     3
100
AcDbLine
 10
-27.0
 20
53.75
 30
0.0
 11
-26.1339745962156
 21
52.25
 31
0.0
  0
LINE
  5
129
330
1F
100
AcDbEntity
  8
1
  6
Continuous
 62
     3
100
AcDbLine
 10
-26.1339745962156
 20
52.25
 30
0.0
 11
-17.0
 21
52.25
 31
0.0
  0
LINE
  5
12A
330
1F
100
AcDbEntity
  8
1
  6
Continuous
 62
     3
100
AcDbLine
 10
-3.12249899919921
 20
61.0
 30
0.0
 11
3.1224989991992
 21
61.0
 31
0.0
  0
LINE
  5
12B
330
1F
100
AcDbEntity
  8
1
  6
Continuous
 62
     3
100
AcDbLine
 10
7.50555349946519
 20
63.5
 30
0.0
 11
3.75277674973259
 21
70.0
 31
0.0
  0
LINE
  5
12C
330
1F
100
AcDbEntity
  8
1
  6
Continuous
 62
     3
100
AcDbLine
 10
3.75277674973259
 20
57.0
 30
0.0
 11
7.50555349946519
 21
63.5
 31
0.0
  0
LINE
  5
12D
330
1F
100
AcDbEntity
  8
1
  6
Continuous
 62
     3
100
AcDbLine
 10
-3.7527767497326
 20
57.0
 30
0.0
 11
3.75277674973259
 21
57.0
 31
0.0
  0
LINE
  5
12E
330
1F
100
AcDbEntity
  8
1
  6
Continuous
 62
     3
100
AcDbLine
 10
-7.50555349946514
 20
63.5
 30
0.0
 11
-3.7527767497326
 21
57.0
 31
0.0
  0
LINE
  5
12F
330
1F
100
AcDbEntity
  8
1
  6
Continuous
 62
     3
100
AcDbLine
 10
-3.7527767497326
 20
70.0
 30
0.0
 11
-7.50555349946514
 21
63.5
 31
0.0
  0
LINE
  5
130
102
{ACAD_REACTORS
330
3E7
102
}
330
1F
100
AcDbEntity
  8
1
  6
Continuous
 62
     3
100
AcDbLine
 10
28.1200160000001
 20
62.5
 30
0.0
 11
28.1200160000001
 21
64.0
 31
0.0
  0
LINE
  5
131
102
{ACAD_REACTORS
330
3E7
102
}
330
1F
100
AcDbEntity
  8
1
  6
Continuous
 62
     3
100
AcDbLine
 10
24.8715789032495
 20
61.5
 30
0.0
 11
26.1200160000001
 21
61.5
 31
0.0
  0
LINE
  5
132
102
{ACAD_REACTORS
330
3E7
102
}
330
1F
100
AcDbEntity
  8
1
  6
Continuous
 62
     3
100
AcDbLine
 10
27.1200160000001
 20
64.0
 30
0.0
 11
27.1200160000001
 21
62.5
 31
0.0
  0
LINE
  5
133
102
{ACAD_REACTORS
330
3E7
102
}
330
1F
100
AcDbEntity
  8
1
  6
Continuous
 62
     3
100
AcDbLine
 10
27.1200160000001
 20
64.0
 30
0.0
 11
26.6200160000001
 21
64.0
 31
0.0
  0
LINE
  5
134
102
{ACAD_REACTORS
330
3E7
102
}
330
1F
100
AcDbEntity
  8
1
  6
Continuous
 62
     3
100
AcDbLine
 10
28.6200160000001
 20
64.0
 30
0.0
 11
28.1200160000001
 21
64.0
 31
0.0
  0
LINE
  5
135
102
{ACAD_REACTORS
330
3E7
102
}
330
1F
100
AcDbEntity
  8
1
  6
Continuous
 62
     3
100
AcDbLine
 10
24.8715789032495
 20
60.5
 30
0.0
 11
26.1200160000001
 21
60.5
 31
0.0
  0
LINE
  5
136
102
{ACAD_REACTORS
330
3E7
102
}
330
1F
100
AcDbEntity
  8
1
  6
Continuous
 62
     3
100
AcDbLine
 10
24.8715789032495
 20
60.0
 30
0.0
 11
24.8715789032495
 21
60.5
 31
0.0
  0
LINE
  5
137
102
{ACAD_REACTORS
330
3E7
102
}
330
1F
100
AcDbEntity
  8
1
  6
Continuous
 62
     3
100
AcDbLine
 10
24.8715789032495
 20
61.5
 30
0.0
 11
24.8715789032495
 21
62.0
 31
0.0
  0
LINE
  5
138
102
{ACAD_REACTORS
330
3E7
102
}
330
1F
100
AcDbEntity
  8
1
  6
Continuous
 62
     3
100
AcDbLine
 10
21.8715789032495
 20
61.0
 30
0.0
 11
24.8715789032495
 21
60.0
 31
0.0
  0
LINE
  5
139
102
{ACAD_REACTORS
330
3E7
102
}
330
1F
100
AcDbEntity
  8
1
  6
Continuous
 62
     3
100
AcDbLine
 10
21.8715789032495
 20
61.0
 30
0.0
 11
24.8715789032495
 21
62.0
 31
0.0
  0
LINE
  5
13A
102
{ACAD_REACTORS
330
3E7
102
}
330
1F
100
AcDbEntity
  8
1
  6
Continuous
 62
     3
100
AcDbLine
 10
27.6200160000001
 20
67.0
 30
0.0
 11
28.6200160000001
 21
64.0
 31
0.0
  0
LINE
  5
13B
102
{ACAD_REACTORS
330
3E7
102
}
330
1F
100
AcDbEntity
  8
1
  6
Continuous
 62
     3
100
AcDbLine
 10
26.6200160000001
 20
64.0
 30
0.0
 11
27.6200160000001
 21
67.0
 31
0.0
  0
LINE
  5
13C
330
1F
100
AcDbEntity
  8
1
  6
Continuous
 62
     3
100
AcDbLine
 10
23.0
 20
51.25
 30
0.0
 11
23.0
 21
57.2100025037249
 31
0.0
  0
LINE
  5
13D
330
1F
100
AcDbEntity
  8
1
  6
Continuous
 62
     3
100
AcDbLine
 10
20.0
 20
57.0999974975588
 30
0.0
 11
20.0
 21
48.5
 31
0.0
  0
LINE
  5
13E
330
1F
100
AcDbEntity
  8
1
  6
Continuous
 62
     3
100
AcDbLine
 10
20.0
 20
48.5
 30
0.0
 11
22.0
 21
48.5
 31
0.0
  0
LINE
  5
13F
330
1F
100
AcDbEntity
  8
1
  6
Continuous
 62
     3
100
AcDbLine
 10
23.0
 20
49.5
 30
0.0
 11
23.0
 21
51.25
 31
0.0
  0
LINE
  5
140
330
1F
100
AcDbEntity
  8
1
  6
Continuous
 62
     3
100
AcDbLine
 10
24.0
 20
52.25
 30
0.0
 11
28.1339745962155
 21
52.25
 31
0.0
  0
LINE
  5
141
330
1F
100
AcDbEntity
  8
1
  6
Continuous
 62
     3
100
AcDbLine
 10
29.0
 20
53.75
 30
0.0
 11
28.1339745962155
 21
52.25
 31
0.0
  0
LINE
  5
142
330
1F
100
AcDbEntity
  8
1
  6
Continuous
 62
     3
100
AcDbLine
 10
29.0
 20
53.75
 30
0.0
 11
29.0
 21
57.4300125160573
 31
0.0
  0
LINE
  5
143
330
1F
100
AcDbEntity
  8
1
  6
Continuous
 62
     3
100
AcDbLine
 10
23.0
 20
75.75
 30
0.0
 11
23.0
 21
69.7845945248012
 31
0.0
  0
LINE
  5
144
330
1F
100
AcDbEntity
  8
1
  6
Continuous
 62
     3
100
AcDbLine
 10
20.0
 20
69.9000025024413
 30
0.0
 11
20.0
 21
78.5
 31
0.0
  0
LINE
  5
145
330
1F
100
AcDbEntity
  8
1
  6
Continuous
 62
     3
100
AcDbLine
 10
29.0
 20
69.5699874839427
 30
0.0
 11
29.0
 21
73.25
 31
0.0
  0
LINE
  5
146
330
1F
100
AcDbEntity
  8
1
  6
Continuous
 62
     3
100
AcDbLine
 10
23.0
 20
75.75
 30
0.0
 11
23.0
 21
77.5
 31
0.0
  0
LINE
  5
147
330
1F
100
AcDbEntity
  8
1
  6
Continuous
 62
     3
100
AcDbLine
 10
22.0
 20
78.5
 30
0.0
 11
20.0
 21
78.5
 31
0.0
  0
LINE
  5
148
330
1F
100
AcDbEntity
  8
1
  6
Continuous
 62
     3
100
AcDbLine
 10
29.0
 20
73.25
 30
0.0
 11
28.1339745962155
 21
74.75
 31
0.0
  0
LINE
  5
149
330
1F
100
AcDbEntity
  8
1
  6
Continuous
 62
     3
100
AcDbLine
 10
28.1339745962155
 20
74.75
 30
0.0
 11
24.0
 21
74.75
 31
0.0
  0
LINE
  5
14A
102
{ACAD_REACTORS
330
3EB
102
}
330
1F
100
AcDbEntity
  8
1
  6
Continuous
 62
     3
100
AcDbLine
 10
34.8350160000001
 20
61.6266666666667
 30
0.0
 11
36.2400160000001
 21
61.6266666666667
 31
0.0
  0
LINE
  5
14B
102
{ACAD_REACTORS
330
3EF
102
}
330
1F
100
AcDbEntity
  8
1
  6
Continuous
 62
     3
100
AcDbLine
 10
32.7275160000001
 20
61.6266666666667
 30
0.0
 11
34.1325160000001
 21
61.6266666666667
 31
0.0
  0
LINE
  5
14C
102
{ACAD_REACTORS
330
3EE
102
}
330
1F
100
AcDbEntity
  8
1
  6
Continuous
 62
     3
100
AcDbLine
 10
30.6200160000001
 20
61.6266666666667
 30
0.0
 11
32.0250160000001
 21
61.6266666666667
 31
0.0
  0
LINE
  5
14D
102
{ACAD_REACTORS
330
3EE
102
}
330
1F
100
AcDbEntity
  8
1
  6
Continuous
 62
     3
100
AcDbLine
 10
30.6200160000001
 20
65.3733333333333
 30
0.0
 11
30.6200160000001
 21
61.6266666666667
 31
0.0
  0
LINE
  5
14E
102
{ACAD_REACTORS
330
3EE
102
}
330
1F
100
AcDbEntity
  8
1
  6
Continuous
 62
     3
100
AcDbLine
 10
32.0250160000001
 20
65.3733333333333
 30
0.0
 11
32.0250160000001
 21
61.6266666666667
 31
0.0
  0
LINE
  5
14F
102
{ACAD_REACTORS
330
3EF
102
}
330
1F
100
AcDbEntity
  8
1
  6
Continuous
 62
     3
100
AcDbLine
 10
32.7275160000001
 20
65.3733333333333
 30
0.0
 11
32.7275160000001
 21
61.6266666666667
 31
0.0
  0
LINE
  5
150
102
{ACAD_REACTORS
330
3EF
102
}
330
1F
100
AcDbEntity
  8
1
  6
Continuous
 62
     3
100
AcDbLine
 10
34.1325160000001
 20
65.3733333333333
 30
0.0
 11
34.1325160000001
 21
61.6266666666667
 31
0.0
  0
LINE
  5
151
102
{ACAD_REACTORS
330
3EB
102
}
330
1F
100
AcDbEntity
  8
1
  6
Continuous
 62
     3
100
AcDbLine
 10
34.8350160000001
 20
65.3733333333333
 30
0.0
 11
34.8350160000001
 21
61.6266666666667
 31
0.0
  0
LINE
  5
152
102
{ACAD_REACTORS
330
3EB
102
}
330
1F
100
AcDbEntity
  8
1
  6
Continuous
 62
     3
100
AcDbLine
 10
36.2400160000001
 20
65.3733333333333
 30
0.0
 11
36.2400160000001
 21
61.6266666666667
 31
0.0
  0
LINE
  5
153
102
{ACAD_REACTORS
330
3ED
102
}
330
1F
100
AcDbEntity
  8
1
  6
Continuous
 62
     3
100
AcDbLine
 10
39.978992
 20
65.43192
 30
0.0
 11
39.978992
 21
63.75
 31
0.0
  0
LINE
  5
154
102
{ACAD_REACTORS
330
3ED
102
}
330
1F
100
AcDbEntity
  8
1
  6
Continuous
 62
     3
100
AcDbLine
 10
39.2580320000001
 20
63.75
 30
0.0
 11
39.978992
 21
63.75
 31
0.0
  0
LINE
  5
155
102
{ACAD_REACTORS
330
3ED
102
}
330
1F
100
AcDbEntity
  8
1
  6
Continuous
 62
     3
100
AcDbLine
 10
39.2580320000001
 20
64.47072
 30
0.0
 11
39.2580320000001
 21
63.75
 31
0.0
  0
LINE
  5
156
102
{ACAD_REACTORS
330
3ED
102
}
330
1F
100
AcDbEntity
  8
1
  6
Continuous
 62
     3
100
AcDbLine
 10
37.9609760000001
 20
63.75
 30
0.0
 11
37.9609760000001
 21
64.47072
 31
0.0
  0
LINE
  5
157
102
{ACAD_REACTORS
330
3ED
102
}
330
1F
100
AcDbEntity
  8
1
  6
Continuous
 62
     3
100
AcDbLine
 10
37.2400160000001
 20
63.75
 30
0.0
 11
37.9609760000001
 21
63.75
 31
0.0
  0
LINE
  5
158
102
{ACAD_REACTORS
330
3ED
102
}
330
1F
100
AcDbEntity
  8
1
  6
Continuous
 62
     3
100
AcDbLine
 10
37.2400160000001
 20
65.43192
 30
0.0
 11
37.2400160000001
 21
63.75
 31
0.0
  0
LINE
  5
159
102
{ACAD_REACTORS
330
3EC
102
}
330
1F
100
AcDbEntity
  8
1
  6
Continuous
 62
     3
100
AcDbLine
 10
42.7697851545238
 20
65.43192
 30
0.0
 11
43.7789371545237
 21
63.75
 31
0.0
  0
LINE
  5
15A
102
{ACAD_REACTORS
330
3EC
102
}
330
1F
100
AcDbEntity
  8
1
  6
Continuous
 62
     3
100
AcDbLine
 10
42.9056708454763
 20
63.75
 30
0.0
 11
43.7789371545237
 21
63.75
 31
0.0
  0
LINE
  5
15B
102
{ACAD_REACTORS
330
3EC
102
}
330
1F
100
AcDbEntity
  8
1
  6
Continuous
 62
     3
100
AcDbLine
 10
42.6750404454763
 20
64.134384
 30
0.0
 11
42.9056708454763
 21
63.75
 31
0.0
  0
LINE
  5
15C
102
{ACAD_REACTORS
330
3EC
102
}
330
1F
100
AcDbEntity
  8
1
  6
Continuous
 62
     3
100
AcDbLine
 10
41.3888232746975
 20
64.134384
 30
0.0
 11
42.6750404454763
 21
64.134384
 31
0.0
  0
LINE
  5
15D
102
{ACAD_REACTORS
330
3EC
102
}
330
1F
100
AcDbEntity
  8
1
  6
Continuous
 62
     3
100
AcDbLine
 10
41.1389736746975
 20
63.75
 30
0.0
 11
41.3888232746975
 21
64.134384
 31
0.0
  0
LINE
  5
15E
102
{ACAD_REACTORS
330
3EC
102
}
330
1F
100
AcDbEntity
  8
1
  6
Continuous
 62
     3
100
AcDbLine
 10
40.6564503253025
 20
63.75
 30
0.0
 11
41.1389736746975
 21
63.75
 31
0.0
  0
LINE
  5
15F
102
{ACAD_REACTORS
330
3EC
102
}
330
1F
100
AcDbEntity
  8
1
  6
Continuous
 62
     3
100
AcDbLine
 10
40.6564503253025
 20
63.75
 30
0.0
 11
41.7496983253025
 21
65.43192
 31
0.0
  0
LINE
  5
160
102
{ACAD_REACTORS
330
3EC
102
}
330
1F
100
AcDbEntity
  8
1
  6
Continuous
 62
     3
100
AcDbLine
 10
42.0576562035025
 20
65.1633577366231
 30
0.0
 11
42.5595812454763
 21
64.326816
 31
0.0
  0
LINE
  5
161
102
{ACAD_REACTORS
330
3EC
102
}
330
1F
100
AcDbEntity
  8
1
  6
Continuous
 62
     3
100
AcDbLine
 10
42.5595812454763
 20
64.326816
 30
0.0
 11
41.5139040746975
 21
64.326816
 31
0.0
  0
LINE
  5
162
102
{ACAD_REACTORS
330
3EC
102
}
330
1F
100
AcDbEntity
  8
1
  6
Continuous
 62
     3
100
AcDbLine
 10
41.5139040746975
 20
64.326816
 30
0.0
 11
42.0576562035025
 21
65.1633577366231
 31
0.0
  0
LINE
  5
163
102
{ACAD_REACTORS
330
3E8
102
}
330
1F
100
AcDbEntity
  8
1
  6
Continuous
 62
     3
100
AcDbLine
 10
44.3991680000001
 20
65.43192
 30
0.0
 11
45.6804330903932
 21
65.43192
 31
0.0
  0
LINE
  5
164
102
{ACAD_REACTORS
330
3E8
102
}
330
1F
100
AcDbEntity
  8
1
  6
Continuous
 62
     3
100
AcDbLine
 10
46.1290160000001
 20
63.9964546892582
 30
0.0
 11
45.6804330903932
 21
65.43192
 31
0.0
  0
LINE
  5
165
102
{ACAD_REACTORS
330
3E8
102
}
330
1F
100
AcDbEntity
  8
1
  6
Continuous
 62
     3
100
AcDbLine
 10
46.5775989096068
 20
65.43192
 30
0.0
 11
46.1290160000001
 21
63.9964546892582
 31
0.0
  0
LINE
  5
166
102
{ACAD_REACTORS
330
3E8
102
}
330
1F
100
AcDbEntity
  8
1
  6
Continuous
 62
     3
100
AcDbLine
 10
46.5775989096068
 20
65.43192
 30
0.0
 11
47.858864
 21
65.43192
 31
0.0
  0
LINE
  5
167
102
{ACAD_REACTORS
330
3E8
102
}
330
1F
100
AcDbEntity
  8
1
  6
Continuous
 62
     3
100
AcDbLine
 10
47.858864
 20
65.43192
 30
0.0
 11
47.858864
 21
63.75
 31
0.0
  0
LINE
  5
168
102
{ACAD_REACTORS
330
3E8
102
}
330
1F
100
AcDbEntity
  8
1
  6
Continuous
 62
     3
100
AcDbLine
 10
47.137904
 20
63.75
 30
0.0
 11
47.858864
 21
63.75
 31
0.0
  0
LINE
  5
169
102
{ACAD_REACTORS
330
3E8
102
}
330
1F
100
AcDbEntity
  8
1
  6
Continuous
 62
     3
100
AcDbLine
 10
46.4518692828952
 20
63.75
 30
0.0
 11
46.9456348001366
 21
65.18192
 31
0.0
  0
LINE
  5
16A
102
{ACAD_REACTORS
330
3E8
102
}
330
1F
100
AcDbEntity
  8
1
  6
Continuous
 62
     3
100
AcDbLine
 10
45.5631933441595
 20
63.75
 30
0.0
 11
46.4518692828952
 21
63.75
 31
0.0
  0
LINE
  5
16B
102
{ACAD_REACTORS
330
3E8
102
}
330
1F
100
AcDbEntity
  8
1
  6
Continuous
 62
     3
100
AcDbLine
 10
44.83184
 20
63.75
 30
0.0
 11
44.83184
 21
65.18192
 31
0.0
  0
LINE
  5
16C
102
{ACAD_REACTORS
330
3E8
102
}
330
1F
100
AcDbEntity
  8
1
  6
Continuous
 62
     3
100
AcDbLine
 10
44.3991680000001
 20
63.75
 30
0.0
 11
44.83184
 21
63.75
 31
0.0
  0
LINE
  5
16D
102
{ACAD_REACTORS
330
3E8
102
}
330
1F
100
AcDbEntity
  8
1
  6
Continuous
 62
     3
100
AcDbLine
 10
44.3991680000001
 20
65.43192
 30
0.0
 11
44.3991680000001
 21
63.75
 31
0.0
  0
LINE
  5
16E
102
{ACAD_REACTORS
330
3E9
102
}
330
1F
100
AcDbEntity
  8
1
  6
Continuous
 62
     3
100
AcDbLine
 10
48.5363223253026
 20
63.75
 30
0.0
 11
49.6295703253025
 21
65.43192
 31
0.0
  0
LINE
  5
16F
102
{ACAD_REACTORS
330
3E9
102
}
330
1F
100
AcDbEntity
  8
1
  6
Continuous
 62
     3
100
AcDbLine
 10
49.6295703253025
 20
65.43192
 30
0.0
 11
50.6496571545237
 21
65.43192
 31
0.0
  0
LINE
  5
170
102
{ACAD_REACTORS
330
3E9
102
}
330
1F
100
AcDbEntity
  8
1
  6
Continuous
 62
     3
100
AcDbLine
 10
50.6496571545237
 20
65.43192
 30
0.0
 11
51.6588091545237
 21
63.75
 31
0.0
  0
LINE
  5
171
102
{ACAD_REACTORS
330
3E9
102
}
330
1F
100
AcDbEntity
  8
1
  6
Continuous
 62
     3
100
AcDbLine
 10
50.7855428454763
 20
63.75
 30
0.0
 11
51.6588091545237
 21
63.75
 31
0.0
  0
LINE
  5
172
102
{ACAD_REACTORS
330
3E9
102
}
330
1F
100
AcDbEntity
  8
1
  6
Continuous
 62
     3
100
AcDbLine
 10
50.5549124454763
 20
64.134384
 30
0.0
 11
50.7855428454763
 21
63.75
 31
0.0
  0
LINE
  5
173
102
{ACAD_REACTORS
330
3E9
102
}
330
1F
100
AcDbEntity
  8
1
  6
Continuous
 62
     3
100
AcDbLine
 10
49.2686952746975
 20
64.134384
 30
0.0
 11
50.5549124454763
 21
64.134384
 31
0.0
  0
LINE
  5
174
102
{ACAD_REACTORS
330
3E9
102
}
330
1F
100
AcDbEntity
  8
1
  6
Continuous
 62
     3
100
AcDbLine
 10
49.0188456746975
 20
63.75
 30
0.0
 11
49.2686952746975
 21
64.134384
 31
0.0
  0
LINE
  5
175
102
{ACAD_REACTORS
330
3E9
102
}
330
1F
100
AcDbEntity
  8
1
  6
Continuous
 62
     3
100
AcDbLine
 10
48.5363223253026
 20
63.75
 30
0.0
 11
49.0188456746975
 21
63.75
 31
0.0
  0
LINE
  5
176
102
{ACAD_REACTORS
330
3E9
102
}
330
1F
100
AcDbEntity
  8
1
  6
Continuous
 62
     3
100
AcDbLine
 10
49.3937760746975
 20
64.326816
 30
0.0
 11
49.9375282035025
 21
65.1633577366231
 31
0.0
  0
LINE
  5
177
102
{ACAD_REACTORS
330
3E9
102
}
330
1F
100
AcDbEntity
  8
1
  6
Continuous
 62
     3
100
AcDbLine
 10
49.9375282035025
 20
65.1633577366231
 30
0.0
 11
50.4394532454763
 21
64.326816
 31
0.0
  0
LINE
  5
178
102
{ACAD_REACTORS
330
3E9
102
}
330
1F
100
AcDbEntity
  8
1
  6
Continuous
 62
     3
100
AcDbLine
 10
50.4394532454763
 20
64.326816
 30
0.0
 11
49.3937760746975
 21
64.326816
 31
0.0
  0
LINE
  5
179
102
{ACAD_REACTORS
330
3EA
102
}
330
1F
100
AcDbEntity
  8
1
  6
Continuous
 62
     3
100
AcDbLine
 10
52.27904
 20
65.095584
 30
0.0
 11
53.0
 21
65.095584
 31
0.0
  0
LINE
  5
17A
102
{ACAD_REACTORS
330
3EA
102
}
330
1F
100
AcDbEntity
  8
1
  6
Continuous
 62
     3
100
AcDbLine
 10
53.0
 20
65.095584
 30
0.0
 11
53.0
 21
63.75
 31
0.0
  0
LINE
  5
17B
102
{ACAD_REACTORS
330
3EA
102
}
330
1F
100
AcDbEntity
  8
1
  6
Continuous
 62
     3
100
AcDbLine
 10
52.27904
 20
63.75
 30
0.0
 11
53.0
 21
63.75
 31
0.0
  0
LINE
  5
17C
102
{ACAD_REACTORS
330
3EA
102
}
330
1F
100
AcDbEntity
  8
1
  6
Continuous
 62
     3
100
AcDbLine
 10
52.27904
 20
65.095584
 30
0.0
 11
52.27904
 21
63.75
 31
0.0
  0
LINE
  5
17D
102
{ACAD_REACTORS
330
3E8
102
}
330
1F
100
AcDbEntity
  8
1
  6
Continuous
 62
     3
100
AcDbLine
 10
44.83184
 20
65.18192
 30
0.0
 11
45.020051275194
 21
65.18192
 31
0.0
  0
LINE
  5
17E
102
{ACAD_REACTORS
330
3E8
102
}
330
1F
100
AcDbEntity
  8
1
  6
Continuous
 62
     3
100
AcDbLine
 10
46.9456348001366
 20
65.18192
 30
0.0
 11
47.137904
 21
65.18192
 31
0.0
  0
LINE
  5
17F
102
{ACAD_REACTORS
330
3E8
102
}
330
1F
100
AcDbEntity
  8
1
  6
Continuous
 62
     3
100
AcDbLine
 10
47.137904
 20
65.18192
 30
0.0
 11
47.137904
 21
63.75
 31
0.0
  0
LINE
  5
180
102
{ACAD_REACTORS
330
3E8
102
}
330
1F
100
AcDbEntity
  8
1
  6
Continuous
 62
     3
100
AcDbLine
 10
45.020051275194
 20
65.18192
 30
0.0
 11
45.5631933441595
 21
63.75
 31
0.0
  0
LINE
  5
181
330
1F
100
AcDbEntity
  8
1
  6
Continuous
 62
     3
100
AcDbLine
 10
11.7113248654051
 20
56.5
 30
0.0
 11
11.7113248654051
 21
70.5
 31
0.0
  0
LINE
  5
182
330
1F
100
AcDbEntity
  8
1
  6
Continuous
 62
     3
100
AcDbLine
 10
20.3715789032495
 20
58.1142947349859
 30
0.0
 11
20.3715789032495
 21
68.8857052650142
 31
0.0
  0
LINE
  5
183
330
1F
100
AcDbEntity
  8
1
  6
DOT_CENTER
 62
     3
100
AcDbLine
 10
62.3834230620597
 20
63.5
 30
0.0
 11
54.1850652814577
 21
63.5
 31
0.0
  0
LINE
  5
184
330
1F
100
AcDbEntity
  8
1
  6
Continuous
 62
     3
100
AcDbLine
 10
15.0
 20
69.7397849713677
 30
0.0
 11
15.0
 21
57.2602150286324
 31
0.0
  0
LINE
  5
185
330
1F
100
AcDbEntity
  8
1
  6
Continuous
 62
     3
100
AcDbLine
 10
11.6350671644587
 20
55.5
 30
0.0
 11
14.5055427241864
 21
56.8385247360477
 31
0.0
  0
LINE
  5
186
330
1F
100
AcDbEntity
  8
1
  6
Continuous
 62
     3
100
AcDbLine
 10
57.5073614107471
 20
58.4753300053143
 30
0.0
 11
15.2519919085711
 21
56.9258959444338
 31
0.0
  0
LINE
  5
187
330
1F
100
AcDbEntity
  8
1
  6
Continuous
 62
     3
100
AcDbLine
 10
60.0
 20
63.5
 30
0.0
 11
58.4104103228264
 21
59.1326382557673
 31
0.0
  0
LINE
  5
188
330
1F
100
AcDbEntity
  8
1
  6
Continuous
 62
     3
100
AcDbLine
 10
60.0
 20
63.5
 30
0.0
 11
58.4104103228264
 21
67.8673617442327
 31
0.0
  0
LINE
  5
189
330
1F
100
AcDbEntity
  8
1
  6
Continuous
 62
     3
100
AcDbLine
 10
9.63506716445869
 20
71.5
 30
0.0
 11
11.6350671644587
 21
71.5
 31
0.0
  0
LINE
  5
18A
330
1F
100
AcDbEntity
  8
1
  6
Continuous
 62
     3
100
AcDbLine
 10
5.63506716445869
 20
75.5
 30
0.0
 11
9.63506716445869
 21
71.5
 31
0.0
  0
LINE
  5
18B
330
1F
100
AcDbEntity
  8
1
  6
Continuous
 62
     3
100
AcDbLine
 10
-9.36493283554131
 20
55.5
 30
0.0
 11
11.6350671644587
 21
55.5
 31
0.0
  0
LINE
  5
18C
330
1F
100
AcDbEntity
  8
1
  6
Continuous
 62
     3
100
AcDbLine
 10
-12.3649328355413
 20
60.5
 30
0.0
 11
-12.3649328355413
 21
58.5
 31
0.0
  0
LINE
  5
18D
330
1F
100
AcDbEntity
  8
1
  6
Continuous
 62
     3
100
AcDbLine
 10
-8.36493283554131
 20
60.5
 30
0.0
 11
-12.3649328355413
 21
60.5
 31
0.0
  0
LINE
  5
18E
330
1F
100
AcDbEntity
  8
1
  6
Continuous
 62
     3
100
AcDbLine
 10
3.0007790535857
 20
71.5
 30
0.0
 11
3.0007790535857
 21
75.5
 31
0.0
  0
LINE
  5
18F
330
1F
100
AcDbEntity
  8
1
  6
Continuous
 62
     3
100
AcDbLine
 10
-8.36493283554131
 20
63.5
 30
0.0
 11
-8.36493283554131
 21
60.5
 31
0.0
  0
LINE
  5
190
330
1F
100
AcDbEntity
  8
1
  6
Continuous
 62
     3
100
AcDbLine
 10
-0.36493283554131
 20
71.5
 30
0.0
 11
3.0007790535857
 21
71.5
 31
0.0
  0
LINE
  5
191
330
1F
100
AcDbEntity
  8
1
  6
Continuous
 62
     3
100
AcDbLine
 10
5.63506716445869
 20
75.5
 30
0.0
 11
3.0007790535857
 21
75.5
 31
0.0
  0
LINE
  5
192
330
1F
100
AcDbEntity
  8
1
  6
DOT_CENTER
 62
     3
100
AcDbLine
 10
3.0007790535857
 20
75.5
 30
0.0
 11
-4.034373806283
 21
75.5
 31
0.0
  0
LINE
  5
193
330
1F
100
AcDbEntity
  8
1
  6
Continuous
 62
     3
100
AcDbLine
 10
28.1339745962155
 20
52.25
 30
0.0
 11
29.0
 21
53.75
 31
0.0
  0
LINE
  5
194
330
1F
100
AcDbEntity
  8
1
  6
Continuous
 62
     3
100
AcDbLine
 10
23.0
 20
71.6551250771841
 30
0.0
 11
28.1339745962155
 21
71.6551250771841
 31
0.0
  0
LINE
  5
195
330
1F
100
AcDbEntity
  8
1
  6
Continuous
 62
     3
100
AcDbLine
 10
23.0
 20
71.2496086982172
 30
0.0
 11
28.1339745962155
 21
71.2496086982172
 31
0.0
  0
LINE
  5
196
330
1F
100
AcDbEntity
  8
1
  6
Continuous
 62
     3
100
AcDbLine
 10
23.0
 20
55.7503913017828
 30
0.0
 11
28.1339745962155
 21
55.7503913017828
 31
0.0
  0
LINE
  5
197
330
1F
100
AcDbEntity
  8
1
  6
Continuous
 62
     3
100
AcDbLine
 10
23.0
 20
55.344874922816
 30
0.0
 11
28.1339745962155
 21
55.344874922816
 31
0.0
  0
LINE
  5
198
330
1F
100
AcDbEntity
  8
1
  6
DOT_CENTER
 62
     3
100
AcDbLine
 10
0.0
 20
50.763476666796
 30
0.0
 11
0.0
 21
92.309345864551
 31
0.0
  0
LINE
  5
199
330
1F
100
AcDbEntity
  8
1
  6
Continuous
 62
     3
100
AcDbLine
 10
-3.7527767497326
 20
29.9226497308104
 30
0.0
 11
-4.7527767497326
 21
30.5
 31
0.0
  0
LINE
  5
19A
330
1F
100
AcDbEntity
  8
1
  6
Continuous
 62
     3
100
AcDbLine
 10
4.75277674973259
 20
30.5
 30
0.0
 11
3.75277674973259
 21
29.9226497308104
 31
0.0
  0
LINE
  5
19B
330
1F
100
AcDbEntity
  8
1
  6
Continuous
 62
     3
100
AcDbLine
 10
3.75277674973259
 20
26.0773502691896
 30
0.0
 11
4.75277674973259
 21
25.5
 31
0.0
  0
LINE
  5
19C
330
1F
100
AcDbEntity
  8
1
  6
Continuous
 62
     3
100
AcDbLine
 10
-4.7527767497326
 20
25.5
 30
0.0
 11
-3.7527767497326
 21
26.0773502691896
 31
0.0
  0
LINE
  5
19D
330
1F
100
AcDbEntity
  8
1
  6
Continuous
 62
     3
100
AcDbLine
 10
3.75277674973259
 20
29.9226497308104
 30
0.0
 11
3.75277674973259
 21
26.0773502691896
 31
0.0
  0
LINE
  5
19E
330
1F
100
AcDbEntity
  8
1
  6
Continuous
 62
     3
100
AcDbLine
 10
-3.7527767497326
 20
29.9226497308104
 30
0.0
 11
-3.7527767497326
 21
26.0773502691896
 31
0.0
  0
LINE
  5
19F
330
1F
100
AcDbEntity
  8
1
  6
Continuous
 62
     3
100
AcDbLine
 10
23.5470053837925
 20
34.5
 30
0.0
 11
58.1044184237075
 21
34.5
 31
0.0
  0
LINE
  5
1A0
330
1F
100
AcDbEntity
  8
1
  6
Continuous
 62
     3
100
AcDbLine
 10
58.1044184237075
 20
38.5
 30
0.0
 11
21.8149545762236
 21
38.5
 31
0.0
  0
LINE
  5
1A1
330
1F
100
AcDbEntity
  8
1
  6
Continuous
 62
     3
100
AcDbLine
 10
1.15470053837925
 20
25.5
 30
0.0
 11
0.0
 21
23.5
 31
0.0
  0
LINE
  5
1A2
330
1F
100
AcDbEntity
  8
1
  6
Continuous
 62
     3
100
AcDbLine
 10
1.15470053837925
 20
25.5
 30
0.0
 11
-7.70000000000003
 21
25.5
 31
0.0
  0
LINE
  5
1A3
330
1F
100
AcDbEntity
  8
1
  6
Continuous
 62
     3
100
AcDbLine
 10
0.0
 20
23.5
 30
0.0
 11
0.57735026918963
 21
23.5
 31
0.0
  0
LINE
  5
1A4
330
1F
100
AcDbEntity
  8
1
  6
Continuous
 62
     3
100
AcDbLine
 10
0.57735026918963
 20
23.5
 30
0.0
 11
1.73205080756888
 21
25.5
 31
0.0
  0
LINE
  5
1A5
330
1F
100
AcDbEntity
  8
1
  6
Continuous
 62
     3
100
AcDbLine
 10
1.73205080756888
 20
25.5
 30
0.0
 11
1.15470053837925
 21
25.5
 31
0.0
  0
LINE
  5
1A6
330
1F
100
AcDbEntity
  8
1
  6
Continuous
 62
     3
100
AcDbLine
 10
0.57735026918963
 20
23.5
 30
0.0
 11
9.39602572871229
 21
23.5
 31
0.0
  0
LINE
  5
1A7
330
1F
100
AcDbEntity
  8
1
  6
Continuous
 62
     3
100
AcDbLine
 10
0.125
 20
66.0
 30
0.0
 11
-0.125
 21
66.0
 31
0.0
  0
LINE
  5
1A8
330
1F
100
AcDbEntity
  8
1
  6
Continuous
 62
     3
100
AcDbLine
 10
-0.125
 20
66.0
 30
0.0
 11
-3.12249899919921
 21
66.0
 31
0.0
  0
LINE
  5
1A9
330
1F
100
AcDbEntity
  8
1
  6
Continuous
 62
     3
100
AcDbLine
 10
14.5055427241864
 20
70.1614752639523
 30
0.0
 11
14.8267854785222
 21
70.0116773074787
 31
0.0
  0
LINE
  5
1AA
330
1F
100
AcDbEntity
  8
1
  6
Continuous
 62
     3
100
AcDbLine
 10
3.1224989991992
 20
66.0
 30
0.0
 11
0.125
 21
66.0
 31
0.0
  0
LINE
  5
1AB
330
1F
100
AcDbEntity
  8
1
  6
Continuous
 62
     3
100
AcDbLine
 10
3.75277674973259
 20
70.0
 30
0.0
 11
-3.7527767497326
 21
70.0
 31
0.0
  0
LINE
  5
1AC
102
{ACAD_REACTORS
330
3EB
102
}
330
1F
100
AcDbEntity
  8
1
  6
Continuous
 62
     3
100
AcDbLine
 10
34.8350160000001
 20
65.3733333333333
 30
0.0
 11
36.2400160000001
 21
65.3733333333333
 31
0.0
  0
LINE
  5
1AD
102
{ACAD_REACTORS
330
3EF
102
}
330
1F
100
AcDbEntity
  8
1
  6
Continuous
 62
     3
100
AcDbLine
 10
32.7275160000001
 20
65.3733333333333
 30
0.0
 11
34.1325160000001
 21
65.3733333333333
 31
0.0
  0
LINE
  5
1AE
102
{ACAD_REACTORS
330
3EE
102
}
330
1F
100
AcDbEntity
  8
1
  6
Continuous
 62
     3
100
AcDbLine
 10
30.6200160000001
 20
65.3733333333333
 30
0.0
 11
32.0250160000001
 21
65.3733333333333
 31
0.0
  0
LINE
  5
1AF
102
{ACAD_REACTORS
330
3ED
102
}
330
1F
100
AcDbEntity
  8
1
  6
Continuous
 62
     3
100
AcDbLine
 10
37.2400160000001
 20
65.43192
 30
0.0
 11
37.9609760000001
 21
65.43192
 31
0.0
  0
LINE
  5
1B0
102
{ACAD_REACTORS
330
3ED
102
}
330
1F
100
AcDbEntity
  8
1
  6
Continuous
 62
     3
100
AcDbLine
 10
37.9609760000001
 20
64.7112
 30
0.0
 11
37.9609760000001
 21
65.43192
 31
0.0
  0
LINE
  5
1B1
102
{ACAD_REACTORS
330
3ED
102
}
330
1F
100
AcDbEntity
  8
1
  6
Continuous
 62
     3
100
AcDbLine
 10
37.9609760000001
 20
64.7112
 30
0.0
 11
39.2580320000001
 21
64.7112
 31
0.0
  0
LINE
  5
1B2
102
{ACAD_REACTORS
330
3ED
102
}
330
1F
100
AcDbEntity
  8
1
  6
Continuous
 62
     3
100
AcDbLine
 10
39.2580320000001
 20
65.43192
 30
0.0
 11
39.2580320000001
 21
64.7112
 31
0.0
  0
LINE
  5
1B3
102
{ACAD_REACTORS
330
3ED
102
}
330
1F
100
AcDbEntity
  8
1
  6
Continuous
 62
     3
100
AcDbLine
 10
39.2580320000001
 20
65.43192
 30
0.0
 11
39.978992
 21
65.43192
 31
0.0
  0
LINE
  5
1B4
102
{ACAD_REACTORS
330
3ED
102
}
330
1F
100
AcDbEntity
  8
1
  6
Continuous
 62
     3
100
AcDbLine
 10
37.9609760000001
 20
64.47072
 30
0.0
 11
39.2580320000001
 21
64.47072
 31
0.0
  0
LINE
  5
1B5
102
{ACAD_REACTORS
330
3EC
102
}
330
1F
100
AcDbEntity
  8
1
  6
Continuous
 62
     3
100
AcDbLine
 10
41.7496983253025
 20
65.43192
 30
0.0
 11
42.7697851545238
 21
65.43192
 31
0.0
  0
LINE
  5
1B6
330
1F
100
AcDbEntity
  8
1
  6
Continuous
 62
     3
100
AcDbLine
 10
15.5
 20
-15.0
 30
0.0
 11
22.0
 21
-15.0
 31
0.0
  0
LINE
  5
1B7
330
1F
100
AcDbEntity
  8
1
  6
Continuous
 62
     3
100
AcDbLine
 10
-26.1339745962156
 20
8.1551250771841
 30
0.0
 11
-17.0
 21
8.1551250771841
 31
0.0
  0
LINE
  5
1B8
330
1F
100
AcDbEntity
  8
1
  6
Continuous
 62
     3
100
AcDbLine
 10
-26.1339745962156
 20
7.7496086982172
 30
0.0
 11
-17.0
 21
7.7496086982172
 31
0.0
  0
LINE
  5
1B9
330
1F
100
AcDbEntity
  8
1
  6
Continuous
 62
     3
100
AcDbLine
 10
-17.0
 20
8.1551250771841
 30
0.0
 11
-17.0
 21
11.25
 31
0.0
  0
LINE
  5
1BA
330
1F
100
AcDbEntity
  8
1
  6
Continuous
 62
     3
100
AcDbLine
 10
-17.0
 20
0.2867433814497
 30
0.0
 11
-17.0
 21
7.7496086982172
 31
0.0
  0
LINE
  5
1BB
330
1F
100
AcDbEntity
  8
1
  6
Continuous
 62
     3
100
AcDbLine
 10
-26.1339745962156
 20
-0.2867433814497
 30
0.0
 11
-17.0
 21
-0.2867433814497
 31
0.0
  0
LINE
  5
1BC
330
1F
100
AcDbEntity
  8
1
  6
Continuous
 62
     3
100
AcDbLine
 10
-26.1339745962156
 20
0.2867433814497
 30
0.0
 11
-17.0
 21
0.2867433814497
 31
0.0
  0
LINE
  5
1BD
330
1F
100
AcDbEntity
  8
1
  6
Continuous
 62
     3
100
AcDbLine
 10
-17.0
 20
-7.7496086982172
 30
0.0
 11
-17.0
 21
-0.2867433814497
 31
0.0
  0
LINE
  5
1BE
330
1F
100
AcDbEntity
  8
1
  6
Continuous
 62
     3
100
AcDbLine
 10
-26.1339745962156
 20
-7.7496086982172
 30
0.0
 11
-17.0
 21
-7.7496086982172
 31
0.0
  0
LINE
  5
1BF
330
1F
100
AcDbEntity
  8
1
  6
Continuous
 62
     3
100
AcDbLine
 10
-17.0
 20
-7.7496086982172
 30
0.0
 11
-17.0
 21
-0.2867433814497
 31
0.0
  0
LINE
  5
1C0
330
1F
100
AcDbEntity
  8
1
  6
Continuous
 62
     3
100
AcDbLine
 10
-26.1339745962156
 20
-8.15512507718398
 30
0.0
 11
-17.0
 21
-8.15512507718398
 31
0.0
  0
LINE
  5
1C1
330
1F
100
AcDbEntity
  8
1
  6
Continuous
 62
     3
100
AcDbLine
 10
-17.0
 20
-8.15512507718398
 30
0.0
 11
-17.0
 21
-11.25
 31
0.0
  0
LINE
  5
1C2
330
1F
100
AcDbEntity
  8
1
  6
Continuous
 62
     3
100
AcDbLine
 10
-26.1339745962156
 20
-8.15512507718398
 30
0.0
 11
-17.0
 21
-8.15512507718398
 31
0.0
  0
LINE
  5
1C3
330
1F
100
AcDbEntity
  8
1
  6
Continuous
 62
     3
100
AcDbLine
 10
-26.1339745962156
 20
-7.7496086982172
 30
0.0
 11
-26.1339745962156
 21
-8.15512507718398
 31
0.0
  0
LINE
  5
1C4
330
1F
100
AcDbEntity
  8
1
  6
Continuous
 62
     3
100
AcDbLine
 10
-26.1339745962156
 20
8.1551250771841
 30
0.0
 11
-26.1339745962156
 21
7.7496086982172
 31
0.0
  0
LINE
  5
1C5
330
1F
100
AcDbEntity
  8
1
  6
Continuous
 62
     3
100
AcDbLine
 10
-26.1339745962156
 20
0.2867433814497
 30
0.0
 11
-26.1339745962156
 21
-0.2867433814497
 31
0.0
  0
LINE
  5
1C6
330
1F
100
AcDbEntity
  8
1
  6
Continuous
 62
     3
100
AcDbLine
 10
-26.1339745962156
 20
63.7867433814497
 30
0.0
 11
-26.1339745962156
 21
63.2132566185503
 31
0.0
  0
LINE
  5
1C7
330
1F
100
AcDbEntity
  8
1
  6
Continuous
 62
     3
100
AcDbLine
 10
14.5
 20
14.0
 30
0.0
 11
14.5
 21
-14.0
 31
0.0
  0
LINE
  5
1C8
330
1F
100
AcDbEntity
  8
1
  6
Continuous
 62
     3
100
AcDbLine
 10
20.0
 20
-15.0
 30
0.0
 11
20.0
 21
15.0
 31
0.0
  0
LINE
  5
1C9
330
1F
100
AcDbEntity
  8
1
  6
Continuous
 62
     3
100
AcDbLine
 10
23.0
 20
12.25
 30
0.0
 11
23.0
 21
0.2867433814497
 31
0.0
  0
LINE
  5
1CA
330
1F
100
AcDbEntity
  8
1
  6
Continuous
 62
     3
100
AcDbLine
 10
23.0
 20
8.1551250771841
 30
0.0
 11
28.1339745962155
 21
8.1551250771841
 31
0.0
  0
LINE
  5
1CB
330
1F
100
AcDbEntity
  8
1
  6
Continuous
 62
     3
100
AcDbLine
 10
23.0
 20
7.7496086982172
 30
0.0
 11
28.1339745962155
 21
7.7496086982172
 31
0.0
  0
LINE
  5
1CC
330
1F
100
AcDbEntity
  8
1
  6
Continuous
 62
     3
100
AcDbLine
 10
23.0
 20
8.1551250771841
 30
0.0
 11
28.1339745962155
 21
8.1551250771841
 31
0.0
  0
LINE
  5
1CD
330
1F
100
AcDbEntity
  8
1
  6
Continuous
 62
     3
100
AcDbLine
 10
28.1339745962155
 20
8.1551250771841
 30
0.0
 11
28.1339745962155
 21
7.7496086982172
 31
0.0
  0
LINE
  5
1CE
330
1F
100
AcDbEntity
  8
1
  6
Continuous
 62
     3
100
AcDbLine
 10
23.0
 20
-8.15512507718398
 30
0.0
 11
28.1339745962155
 21
-8.15512507718398
 31
0.0
  0
LINE
  5
1CF
330
1F
100
AcDbEntity
  8
1
  6
Continuous
 62
     3
100
AcDbLine
 10
23.0
 20
-7.7496086982172
 30
0.0
 11
28.1339745962155
 21
-7.7496086982172
 31
0.0
  0
LINE
  5
1D0
330
1F
100
AcDbEntity
  8
1
  6
Continuous
 62
     3
100
AcDbLine
 10
28.1339745962155
 20
-7.7496086982172
 30
0.0
 11
28.1339745962155
 21
-8.15512507718398
 31
0.0
  0
LINE
  5
1D1
330
1F
100
AcDbEntity
  8
1
  6
Continuous
 62
     3
100
AcDbLine
 10
23.0
 20
-8.15512507718398
 30
0.0
 11
28.1339745962155
 21
-8.15512507718398
 31
0.0
  0
LINE
  5
1D2
330
1F
100
AcDbEntity
  8
1
  6
Continuous
 62
     3
100
AcDbLine
 10
28.1339745962155
 20
-7.7496086982172
 30
0.0
 11
28.1339745962155
 21
-8.15512507718398
 31
0.0
  0
LINE
  5
1D3
330
1F
100
AcDbEntity
  8
1
  6
Continuous
 62
     3
100
AcDbLine
 10
29.0
 20
9.75
 30
0.0
 11
28.1339745962155
 21
11.25
 31
0.0
  0
LINE
  5
1D4
330
1F
100
AcDbEntity
  8
1
  6
Continuous
 62
     3
100
AcDbLine
 10
29.0
 20
6.0699874839427
 30
0.0
 11
29.0
 21
9.75
 31
0.0
  0
LINE
  5
1D5
330
1F
100
AcDbEntity
  8
1
  6
Continuous
 62
     3
100
AcDbLine
 10
23.0
 20
0.2867433814497
 30
0.0
 11
28.1339745962155
 21
0.2867433814497
 31
0.0
  0
LINE
  5
1D6
330
1F
100
AcDbEntity
  8
1
  6
Continuous
 62
     3
100
AcDbLine
 10
23.0
 20
0.2867433814497
 30
0.0
 11
23.0
 21
-0.2867433814497
 31
0.0
  0
LINE
  5
1D7
330
1F
100
AcDbEntity
  8
1
  6
Continuous
 62
     3
100
AcDbLine
 10
23.0
 20
-0.2867433814497
 30
0.0
 11
28.1339745962155
 21
-0.2867433814497
 31
0.0
  0
LINE
  5
1D8
330
1F
100
AcDbEntity
  8
1
  6
Continuous
 62
     3
100
AcDbLine
 10
23.0
 20
-0.2867433814497
 30
0.0
 11
23.0
 21
-12.25
 31
0.0
  0
LINE
  5
1D9
330
1F
100
AcDbEntity
  8
1
  6
Continuous
 62
     3
100
AcDbLine
 10
28.1339745962155
 20
0.2867433814497
 30
0.0
 11
28.1339745962155
 21
-0.2867433814497
 31
0.0
  0
LINE
  5
1DA
330
1F
100
AcDbEntity
  8
1
  6
Continuous
 62
     3
100
AcDbLine
 10
-72.9900530943639
 20
29.9226497308104
 30
0.0
 11
-71.9900530943639
 21
30.5
 31
0.0
  0
LINE
  5
1DB
330
1F
100
AcDbEntity
  8
1
  6
Continuous
 62
     3
100
AcDbLine
 10
-71.9900530943639
 20
30.5
 30
0.0
 11
-60.9900530943639
 21
30.5
 31
0.0
  0
LINE
  5
1DC
330
1F
100
AcDbEntity
  8
1
  6
Continuous
 62
     3
100
AcDbLine
 10
-72.9900530943639
 20
26.0773502691896
 30
0.0
 11
-71.990053094364
 21
25.5
 31
0.0
  0
LINE
  5
1DD
330
1F
100
AcDbEntity
  8
1
  6
Continuous
 62
     3
100
AcDbLine
 10
-72.9900530943639
 20
26.0773502691896
 30
0.0
 11
-72.9900530943639
 21
28.6961524227066
 31
0.0
  0
LINE
  5
1DE
330
1F
100
AcDbEntity
  8
1
  6
Continuous
 62
     3
100
AcDbLine
 10
-71.990053094364
 20
25.5
 30
0.0
 11
-74.1900530943639
 21
25.5
 31
0.0
  0
LINE
  5
1DF
330
1F
100
AcDbEntity
  8
1
  6
Continuous
 62
     3
100
AcDbLine
 10
-60.9900530943639
 20
30.5
 30
0.0
 11
-59.9900530943639
 21
29.9226497308104
 31
0.0
  0
LINE
  5
1E0
330
1F
100
AcDbEntity
  8
1
  6
Continuous
 62
     3
100
AcDbLine
 10
-60.9900530943639
 20
25.5
 30
0.0
 11
-59.9900530943639
 21
26.0773502691896
 31
0.0
  0
LINE
  5
1E1
330
1F
100
AcDbEntity
  8
1
  6
Continuous
 62
     3
100
AcDbLine
 10
-59.9900530943639
 20
26.0773502691896
 30
0.0
 11
-59.9900530943639
 21
28.6961524227066
 31
0.0
  0
LINE
  5
1E2
330
1F
100
AcDbEntity
  8
1
  6
Continuous
 62
     3
100
AcDbLine
 10
-60.9900530943639
 20
25.5
 30
0.0
 11
-71.990053094364
 21
25.5
 31
0.0
  0
LINE
  5
1E3
330
1F
100
AcDbEntity
  8
1
  6
Continuous
 62
     3
100
AcDbLine
 10
-66.4900530943639
 20
23.5
 30
0.0
 11
-63.4900530943639
 21
23.5
 31
0.0
  0
LINE
  5
1E4
330
1F
100
AcDbEntity
  8
1
  6
Continuous
 62
     3
100
AcDbLine
 10
0.76959793524499
 20
49.522881740026
 30
0.0
 11
-0.38040206475501
 21
49.522881740026
 31
0.0
  0
LINE
  5
1E5
330
1F
100
AcDbEntity
  8
1
  6
Continuous
 62
     3
100
AcDbLine
 10
-0.38040206475501
 20
49.522881740026
 30
0.0
 11
-0.38040206475501
 21
48.522881740026
 31
0.0
  0
LINE
  5
1E6
330
1F
100
AcDbEntity
  8
1
  6
Continuous
 62
     3
100
AcDbLine
 10
-0.38040206475501
 20
48.522881740026
 30
0.0
 11
0.61959793524499
 21
48.522881740026
 31
0.0
  0
LINE
  5
1E7
330
1F
100
AcDbEntity
  8
1
  6
Continuous
 62
     3
100
AcDbLine
 10
-0.38040206475501
 20
48.522881740026
 30
0.0
 11
-0.38040206475501
 21
47.522881740026
 31
0.0
  0
LINE
  5
1E8
102
{ACAD_REACTORS
330
3F0
102
}
330
1F
100
AcDbEntity
  8
1
  6
Continuous
 62
     3
100
AcDbLine
 10
38.1094954908677
 20
60.521163661408
 30
0.0
 11
38.1094954908677
 21
63.021163661408
 31
0.0
  0
LINE
  5
1E9
102
{ACAD_REACTORS
330
3F0
102
}
330
1F
100
AcDbEntity
  8
1
  6
Continuous
 62
     3
100
AcDbLine
 10
38.1094954908677
 20
63.021163661408
 30
0.0
 11
37.8219954908677
 21
63.021163661408
 31
0.0
  0
LINE
  5
1EA
102
{ACAD_REACTORS
330
3F0
102
}
330
1F
100
AcDbEntity
  8
1
  6
Continuous
 62
     3
100
AcDbLine
 10
37.8219954908677
 20
63.021163661408
 30
0.0
 11
37.7860579908677
 21
62.927413661408
 31
0.0
  0
LINE
  5
1EB
102
{ACAD_REACTORS
330
3F0
102
}
330
1F
100
AcDbEntity
  8
1
  6
Continuous
 62
     3
100
AcDbLine
 10
37.7860579908677
 20
62.927413661408
 30
0.0
 11
37.6782454908677
 21
62.802413661408
 31
0.0
  0
LINE
  5
1EC
102
{ACAD_REACTORS
330
3F0
102
}
330
1F
100
AcDbEntity
  8
1
  6
Continuous
 62
     3
100
AcDbLine
 10
37.6782454908677
 20
62.802413661408
 30
0.0
 11
37.5704329908677
 21
62.708663661408
 31
0.0
  0
LINE
  5
1ED
102
{ACAD_REACTORS
330
3F0
102
}
330
1F
100
AcDbEntity
  8
1
  6
Continuous
 62
     3
100
AcDbLine
 10
37.5704329908677
 20
62.708663661408
 30
0.0
 11
37.4266829908677
 21
62.646163661408
 31
0.0
  0
LINE
  5
1EE
102
{ACAD_REACTORS
330
3F0
102
}
330
1F
100
AcDbEntity
  8
1
  6
Continuous
 62
     3
100
AcDbLine
 10
37.4266829908677
 20
62.646163661408
 30
0.0
 11
37.3188704908677
 21
62.614913661408
 31
0.0
  0
LINE
  5
1EF
102
{ACAD_REACTORS
330
3F0
102
}
330
1F
100
AcDbEntity
  8
1
  6
Continuous
 62
     3
100
AcDbLine
 10
37.3188704908677
 20
62.614913661408
 30
0.0
 11
37.1391829908677
 21
62.583663661408
 31
0.0
  0
LINE
  5
1F0
102
{ACAD_REACTORS
330
3F0
102
}
330
1F
100
AcDbEntity
  8
1
  6
Continuous
 62
     3
100
AcDbLine
 10
37.1391829908677
 20
62.583663661408
 30
0.0
 11
37.0673079908677
 21
62.583663661408
 31
0.0
  0
LINE
  5
1F1
102
{ACAD_REACTORS
330
3F0
102
}
330
1F
100
AcDbEntity
  8
1
  6
Continuous
 62
     3
100
AcDbLine
 10
37.0673079908677
 20
62.583663661408
 30
0.0
 11
37.0673079908677
 21
62.333663661408
 31
0.0
  0
LINE
  5
1F2
102
{ACAD_REACTORS
330
3F0
102
}
330
1F
100
AcDbEntity
  8
1
  6
Continuous
 62
     3
100
AcDbLine
 10
37.0673079908677
 20
62.333663661408
 30
0.0
 11
37.7501204908677
 21
62.333663661408
 31
0.0
  0
LINE
  5
1F3
102
{ACAD_REACTORS
330
3F0
102
}
330
1F
100
AcDbEntity
  8
1
  6
Continuous
 62
     3
100
AcDbLine
 10
37.7501204908677
 20
62.333663661408
 30
0.0
 11
37.7501204908677
 21
60.521163661408
 31
0.0
  0
LINE
  5
1F4
102
{ACAD_REACTORS
330
3F0
102
}
330
1F
100
AcDbEntity
  8
1
  6
Continuous
 62
     3
100
AcDbLine
 10
37.7501204908677
 20
60.521163661408
 30
0.0
 11
38.1094954908677
 21
60.521163661408
 31
0.0
  0
LINE
  5
1F5
102
{ACAD_REACTORS
330
3F1
102
}
330
1F
100
AcDbEntity
  8
1
  6
Continuous
 62
     3
100
AcDbLine
 10
38.6844954908677
 20
60.521163661408
 30
0.0
 11
39.0438704908677
 21
60.521163661408
 31
0.0
  0
LINE
  5
1F6
102
{ACAD_REACTORS
330
3F1
102
}
330
1F
100
AcDbEntity
  8
1
  6
Continuous
 62
     3
100
AcDbLine
 10
39.0438704908677
 20
60.521163661408
 30
0.0
 11
40.1219954908677
 21
62.396163661408
 31
0.0
  0
LINE
  5
1F7
102
{ACAD_REACTORS
330
3F1
102
}
330
1F
100
AcDbEntity
  8
1
  6
Continuous
 62
     3
100
AcDbLine
 10
40.1219954908677
 20
62.396163661408
 30
0.0
 11
39.7626204908677
 21
62.396163661408
 31
0.0
  0
LINE
  5
1F8
102
{ACAD_REACTORS
330
3F1
102
}
330
1F
100
AcDbEntity
  8
1
  6
Continuous
 62
     3
100
AcDbLine
 10
39.7626204908677
 20
62.396163661408
 30
0.0
 11
38.6844954908677
 21
60.521163661408
 31
0.0
  0
LINE
  5
1F9
102
{ACAD_REACTORS
330
3F2
102
}
330
1F
100
AcDbEntity
  8
1
  6
Continuous
 62
     3
100
AcDbLine
 10
41.9188704908677
 20
63.021163661408
 30
0.0
 11
42.3141829908677
 21
63.021163661408
 31
0.0
  0
LINE
  5
1FA
102
{ACAD_REACTORS
330
3F2
102
}
330
1F
100
AcDbEntity
  8
1
  6
Continuous
 62
     3
100
AcDbLine
 10
42.3141829908677
 20
63.021163661408
 30
0.0
 11
42.3141829908677
 21
61.396163661408
 31
0.0
  0
LINE
  5
1FB
102
{ACAD_REACTORS
330
3F2
102
}
330
1F
100
AcDbEntity
  8
1
  6
Continuous
 62
     3
100
AcDbLine
 10
42.3141829908677
 20
61.396163661408
 30
0.0
 11
42.6735579908677
 21
61.396163661408
 31
0.0
  0
LINE
  5
1FC
102
{ACAD_REACTORS
330
3F2
102
}
330
1F
100
AcDbEntity
  8
1
  6
Continuous
 62
     3
100
AcDbLine
 10
42.6735579908677
 20
61.396163661408
 30
0.0
 11
42.6735579908677
 21
61.083663661408
 31
0.0
  0
LINE
  5
1FD
102
{ACAD_REACTORS
330
3F2
102
}
330
1F
100
AcDbEntity
  8
1
  6
Continuous
 62
     3
100
AcDbLine
 10
42.6735579908677
 20
61.083663661408
 30
0.0
 11
42.3141829908677
 21
61.083663661408
 31
0.0
  0
LINE
  5
1FE
102
{ACAD_REACTORS
330
3F2
102
}
330
1F
100
AcDbEntity
  8
1
  6
Continuous
 62
     3
100
AcDbLine
 10
42.3141829908677
 20
61.083663661408
 30
0.0
 11
42.3141829908677
 21
60.521163661408
 31
0.0
  0
LINE
  5
1FF
102
{ACAD_REACTORS
330
3F2
102
}
330
1F
100
AcDbEntity
  8
1
  6
Continuous
 62
     3
100
AcDbLine
 10
42.3141829908677
 20
60.521163661408
 30
0.0
 11
41.9188704908677
 21
60.521163661408
 31
0.0
  0
LINE
  5
200
102
{ACAD_REACTORS
330
3F2
102
}
330
1F
100
AcDbEntity
  8
1
  6
Continuous
 62
     3
100
AcDbLine
 10
41.9188704908677
 20
60.521163661408
 30
0.0
 11
41.9188704908677
 21
61.083663661408
 31
0.0
  0
LINE
  5
201
102
{ACAD_REACTORS
330
3F2
102
}
330
1F
100
AcDbEntity
  8
1
  6
Continuous
 62
     3
100
AcDbLine
 10
41.9188704908677
 20
61.083663661408
 30
0.0
 11
40.6969954908677
 21
61.083663661408
 31
0.0
  0
LINE
  5
202
102
{ACAD_REACTORS
330
3F2
102
}
330
1F
100
AcDbEntity
  8
1
  6
Continuous
 62
     3
100
AcDbLine
 10
40.6969954908677
 20
61.083663661408
 30
0.0
 11
40.6969954908677
 21
61.427413661408
 31
0.0
  0
LINE
  5
203
102
{ACAD_REACTORS
330
3F2
102
}
330
1F
100
AcDbEntity
  8
1
  6
Continuous
 62
     3
100
AcDbLine
 10
40.6969954908677
 20
61.427413661408
 30
0.0
 11
41.9188704908677
 21
63.021163661408
 31
0.0
  0
LINE
  5
204
102
{ACAD_REACTORS
330
3F2
102
}
330
1F
100
AcDbEntity
  8
1
  6
Continuous
 62
     3
100
AcDbLine
 10
41.9188704908677
 20
62.458663661408
 30
0.0
 11
41.0923079908677
 21
61.396163661408
 31
0.0
  0
LINE
  5
205
102
{ACAD_REACTORS
330
3F2
102
}
330
1F
100
AcDbEntity
  8
1
  6
Continuous
 62
     3
100
AcDbLine
 10
41.0923079908677
 20
61.396163661408
 30
0.0
 11
41.9188704908677
 21
61.396163661408
 31
0.0
  0
LINE
  5
206
102
{ACAD_REACTORS
330
3F2
102
}
330
1F
100
AcDbEntity
  8
1
  6
Continuous
 62
     3
100
AcDbLine
 10
41.9188704908677
 20
61.396163661408
 30
0.0
 11
41.9188704908677
 21
62.458663661408
 31
0.0
  0
LINE
  5
207
102
{ACAD_REACTORS
330
3F3
102
}
330
1F
100
AcDbEntity
  8
1
  6
Continuous
 62
     3
100
AcDbLine
 10
45.6563704908677
 20
61.708663661408
 30
0.0
 11
43.2485579908677
 21
61.708663661408
 31
0.0
  0
LINE
  5
208
102
{ACAD_REACTORS
330
3F3
102
}
330
1F
100
AcDbEntity
  8
1
  6
Continuous
 62
     3
100
AcDbLine
 10
43.2485579908677
 20
61.708663661408
 30
0.0
 11
43.2485579908677
 21
61.427413661408
 31
0.0
  0
LINE
  5
209
102
{ACAD_REACTORS
330
3F3
102
}
330
1F
100
AcDbEntity
  8
1
  6
Continuous
 62
     3
100
AcDbLine
 10
43.2485579908677
 20
61.427413661408
 30
0.0
 11
45.6563704908677
 21
61.427413661408
 31
0.0
  0
LINE
  5
20A
102
{ACAD_REACTORS
330
3F3
102
}
330
1F
100
AcDbEntity
  8
1
  6
Continuous
 62
     3
100
AcDbLine
 10
45.6563704908677
 20
61.427413661408
 30
0.0
 11
45.6563704908677
 21
61.708663661408
 31
0.0
  0
LINE
  5
20B
102
{ACAD_REACTORS
330
3F4
102
}
330
1F
100
AcDbEntity
  8
1
  6
Continuous
 62
     3
100
AcDbLine
 10
47.6329329908677
 20
60.989913661408
 30
0.0
 11
47.7048079908677
 21
61.083663661408
 31
0.0
  0
LINE
  5
20C
102
{ACAD_REACTORS
330
3F4
102
}
330
1F
100
AcDbEntity
  8
1
  6
Continuous
 62
     3
100
AcDbLine
 10
47.7048079908677
 20
61.083663661408
 30
0.0
 11
47.7766829908677
 21
61.239913661408
 31
0.0
  0
LINE
  5
20D
102
{ACAD_REACTORS
330
3F4
102
}
330
1F
100
AcDbEntity
  8
1
  6
Continuous
 62
     3
100
AcDbLine
 10
47.7766829908677
 20
61.239913661408
 30
0.0
 11
47.7766829908677
 21
61.427413661408
 31
0.0
  0
LINE
  5
20E
102
{ACAD_REACTORS
330
3F4
102
}
330
1F
100
AcDbEntity
  8
1
  6
Continuous
 62
     3
100
AcDbLine
 10
47.7766829908677
 20
61.427413661408
 30
0.0
 11
47.7048079908677
 21
61.583663661408
 31
0.0
  0
LINE
  5
20F
102
{ACAD_REACTORS
330
3F4
102
}
330
1F
100
AcDbEntity
  8
1
  6
Continuous
 62
     3
100
AcDbLine
 10
47.7048079908677
 20
61.583663661408
 30
0.0
 11
47.6329329908677
 21
61.677413661408
 31
0.0
  0
LINE
  5
210
102
{ACAD_REACTORS
330
3F4
102
}
330
1F
100
AcDbEntity
  8
1
  6
Continuous
 62
     3
100
AcDbLine
 10
47.6329329908677
 20
61.677413661408
 30
0.0
 11
47.4891829908677
 21
61.771163661408
 31
0.0
  0
LINE
  5
211
102
{ACAD_REACTORS
330
3F4
102
}
330
1F
100
AcDbEntity
  8
1
  6
Continuous
 62
     3
100
AcDbLine
 10
47.4891829908677
 20
61.771163661408
 30
0.0
 11
47.3094954908677
 21
61.833663661408
 31
0.0
  0
LINE
  5
212
102
{ACAD_REACTORS
330
3F4
102
}
330
1F
100
AcDbEntity
  8
1
  6
Continuous
 62
     3
100
AcDbLine
 10
47.3094954908677
 20
61.833663661408
 30
0.0
 11
47.1298079908677
 21
61.833663661408
 31
0.0
  0
LINE
  5
213
102
{ACAD_REACTORS
330
3F4
102
}
330
1F
100
AcDbEntity
  8
1
  6
Continuous
 62
     3
100
AcDbLine
 10
47.1298079908677
 20
61.833663661408
 30
0.0
 11
46.9501204908677
 21
61.771163661408
 31
0.0
  0
LINE
  5
214
102
{ACAD_REACTORS
330
3F4
102
}
330
1F
100
AcDbEntity
  8
1
  6
Continuous
 62
     3
100
AcDbLine
 10
46.9501204908677
 20
61.771163661408
 30
0.0
 11
46.8063704908677
 21
61.677413661408
 31
0.0
  0
LINE
  5
215
102
{ACAD_REACTORS
330
3F4
102
}
330
1F
100
AcDbEntity
  8
1
  6
Continuous
 62
     3
100
AcDbLine
 10
46.8063704908677
 20
61.677413661408
 30
0.0
 11
46.7344954908677
 21
61.583663661408
 31
0.0
  0
LINE
  5
216
102
{ACAD_REACTORS
330
3F4
102
}
330
1F
100
AcDbEntity
  8
1
  6
Continuous
 62
     3
100
AcDbLine
 10
46.7344954908677
 20
61.583663661408
 30
0.0
 11
46.6626204908677
 21
61.427413661408
 31
0.0
  0
LINE
  5
217
102
{ACAD_REACTORS
330
3F4
102
}
330
1F
100
AcDbEntity
  8
1
  6
Continuous
 62
     3
100
AcDbLine
 10
46.6626204908677
 20
61.427413661408
 30
0.0
 11
46.6626204908677
 21
61.239913661408
 31
0.0
  0
LINE
  5
218
102
{ACAD_REACTORS
330
3F4
102
}
330
1F
100
AcDbEntity
  8
1
  6
Continuous
 62
     3
100
AcDbLine
 10
46.6626204908677
 20
61.239913661408
 30
0.0
 11
46.7344954908677
 21
61.083663661408
 31
0.0
  0
LINE
  5
219
102
{ACAD_REACTORS
330
3F4
102
}
330
1F
100
AcDbEntity
  8
1
  6
Continuous
 62
     3
100
AcDbLine
 10
46.7344954908677
 20
61.083663661408
 30
0.0
 11
46.8063704908677
 21
60.989913661408
 31
0.0
  0
LINE
  5
21A
102
{ACAD_REACTORS
330
3F4
102
}
330
1F
100
AcDbEntity
  8
1
  6
Continuous
 62
     3
100
AcDbLine
 10
46.8063704908677
 20
60.989913661408
 30
0.0
 11
46.9501204908677
 21
60.896163661408
 31
0.0
  0
LINE
  5
21B
102
{ACAD_REACTORS
330
3F4
102
}
330
1F
100
AcDbEntity
  8
1
  6
Continuous
 62
     3
100
AcDbLine
 10
46.9501204908677
 20
60.896163661408
 30
0.0
 11
47.1298079908677
 21
60.833663661408
 31
0.0
  0
LINE
  5
21C
102
{ACAD_REACTORS
330
3F4
102
}
330
1F
100
AcDbEntity
  8
1
  6
Continuous
 62
     3
100
AcDbLine
 10
47.1298079908677
 20
60.833663661408
 30
0.0
 11
47.3094954908677
 21
60.833663661408
 31
0.0
  0
LINE
  5
21D
102
{ACAD_REACTORS
330
3F4
102
}
330
1F
100
AcDbEntity
  8
1
  6
Continuous
 62
     3
100
AcDbLine
 10
47.3094954908677
 20
60.833663661408
 30
0.0
 11
47.4891829908677
 21
60.896163661408
 31
0.0
  0
LINE
  5
21E
102
{ACAD_REACTORS
330
3F4
102
}
330
1F
100
AcDbEntity
  8
1
  6
Continuous
 62
     3
100
AcDbLine
 10
47.4891829908677
 20
60.896163661408
 30
0.0
 11
47.6329329908677
 21
60.989913661408
 31
0.0
  0
LINE
  5
21F
102
{ACAD_REACTORS
330
3F4
102
}
330
1F
100
AcDbEntity
  8
1
  6
Continuous
 62
     3
100
AcDbLine
 10
48.1360579908677
 20
61.208663661408
 30
0.0
 11
48.0641829908677
 21
61.021163661408
 31
0.0
  0
LINE
  5
220
102
{ACAD_REACTORS
330
3F4
102
}
330
1F
100
AcDbEntity
  8
1
  6
Continuous
 62
     3
100
AcDbLine
 10
48.0641829908677
 20
61.021163661408
 30
0.0
 11
47.9923079908677
 21
60.896163661408
 31
0.0
  0
LINE
  5
221
102
{ACAD_REACTORS
330
3F4
102
}
330
1F
100
AcDbEntity
  8
1
  6
Continuous
 62
     3
100
AcDbLine
 10
47.9923079908677
 20
60.896163661408
 30
0.0
 11
47.8844954908677
 21
60.771163661408
 31
0.0
  0
LINE
  5
222
102
{ACAD_REACTORS
330
3F4
102
}
330
1F
100
AcDbEntity
  8
1
  6
Continuous
 62
     3
100
AcDbLine
 10
47.8844954908677
 20
60.771163661408
 30
0.0
 11
47.7766829908677
 21
60.677413661408
 31
0.0
  0
LINE
  5
223
102
{ACAD_REACTORS
330
3F4
102
}
330
1F
100
AcDbEntity
  8
1
  6
Continuous
 62
     3
100
AcDbLine
 10
47.7766829908677
 20
60.677413661408
 30
0.0
 11
47.6688704908677
 21
60.614913661408
 31
0.0
  0
LINE
  5
224
102
{ACAD_REACTORS
330
3F4
102
}
330
1F
100
AcDbEntity
  8
1
  6
Continuous
 62
     3
100
AcDbLine
 10
47.6688704908677
 20
60.614913661408
 30
0.0
 11
47.4891829908677
 21
60.552413661408
 31
0.0
  0
LINE
  5
225
102
{ACAD_REACTORS
330
3F4
102
}
330
1F
100
AcDbEntity
  8
1
  6
Continuous
 62
     3
100
AcDbLine
 10
47.4891829908677
 20
60.552413661408
 30
0.0
 11
47.3094954908677
 21
60.521163661408
 31
0.0
  0
LINE
  5
226
102
{ACAD_REACTORS
330
3F4
102
}
330
1F
100
AcDbEntity
  8
1
  6
Continuous
 62
     3
100
AcDbLine
 10
47.3094954908677
 20
60.521163661408
 30
0.0
 11
47.1298079908677
 21
60.521163661408
 31
0.0
  0
LINE
  5
227
102
{ACAD_REACTORS
330
3F4
102
}
330
1F
100
AcDbEntity
  8
1
  6
Continuous
 62
     3
100
AcDbLine
 10
47.1298079908677
 20
60.521163661408
 30
0.0
 11
46.9501204908677
 21
60.552413661408
 31
0.0
  0
LINE
  5
228
102
{ACAD_REACTORS
330
3F4
102
}
330
1F
100
AcDbEntity
  8
1
  6
Continuous
 62
     3
100
AcDbLine
 10
46.9501204908677
 20
60.552413661408
 30
0.0
 11
46.7704329908677
 21
60.614913661408
 31
0.0
  0
LINE
  5
229
102
{ACAD_REACTORS
330
3F4
102
}
330
1F
100
AcDbEntity
  8
1
  6
Continuous
 62
     3
100
AcDbLine
 10
46.7704329908677
 20
60.614913661408
 30
0.0
 11
46.6626204908677
 21
60.677413661408
 31
0.0
  0
LINE
  5
22A
102
{ACAD_REACTORS
330
3F4
102
}
330
1F
100
AcDbEntity
  8
1
  6
Continuous
 62
     3
100
AcDbLine
 10
46.6626204908677
 20
60.677413661408
 30
0.0
 11
46.5548079908677
 21
60.771163661408
 31
0.0
  0
LINE
  5
22B
102
{ACAD_REACTORS
330
3F4
102
}
330
1F
100
AcDbEntity
  8
1
  6
Continuous
 62
     3
100
AcDbLine
 10
46.5548079908677
 20
60.771163661408
 30
0.0
 11
46.4469954908677
 21
60.896163661408
 31
0.0
  0
LINE
  5
22C
102
{ACAD_REACTORS
330
3F4
102
}
330
1F
100
AcDbEntity
  8
1
  6
Continuous
 62
     3
100
AcDbLine
 10
46.4469954908677
 20
60.896163661408
 30
0.0
 11
46.3751204908677
 21
61.021163661408
 31
0.0
  0
LINE
  5
22D
102
{ACAD_REACTORS
330
3F4
102
}
330
1F
100
AcDbEntity
  8
1
  6
Continuous
 62
     3
100
AcDbLine
 10
46.3751204908677
 20
61.021163661408
 30
0.0
 11
46.3032454908677
 21
61.177413661408
 31
0.0
  0
LINE
  5
22E
102
{ACAD_REACTORS
330
3F4
102
}
330
1F
100
AcDbEntity
  8
1
  6
Continuous
 62
     3
100
AcDbLine
 10
46.3032454908677
 20
61.177413661408
 30
0.0
 11
46.2673079908677
 21
61.364913661408
 31
0.0
  0
LINE
  5
22F
102
{ACAD_REACTORS
330
3F4
102
}
330
1F
100
AcDbEntity
  8
1
  6
Continuous
 62
     3
100
AcDbLine
 10
46.2673079908677
 20
61.364913661408
 30
0.0
 11
46.2313704908677
 21
61.646163661408
 31
0.0
  0
LINE
  5
230
102
{ACAD_REACTORS
330
3F4
102
}
330
1F
100
AcDbEntity
  8
1
  6
Continuous
 62
     3
100
AcDbLine
 10
46.2313704908677
 20
61.646163661408
 30
0.0
 11
46.2313704908677
 21
61.896163661408
 31
0.0
  0
LINE
  5
231
102
{ACAD_REACTORS
330
3F4
102
}
330
1F
100
AcDbEntity
  8
1
  6
Continuous
 62
     3
100
AcDbLine
 10
46.2313704908677
 20
61.896163661408
 30
0.0
 11
46.2673079908677
 21
62.177413661408
 31
0.0
  0
LINE
  5
232
102
{ACAD_REACTORS
330
3F4
102
}
330
1F
100
AcDbEntity
  8
1
  6
Continuous
 62
     3
100
AcDbLine
 10
46.2673079908677
 20
62.177413661408
 30
0.0
 11
46.3032454908677
 21
62.364913661408
 31
0.0
  0
LINE
  5
233
102
{ACAD_REACTORS
330
3F4
102
}
330
1F
100
AcDbEntity
  8
1
  6
Continuous
 62
     3
100
AcDbLine
 10
46.3032454908677
 20
62.364913661408
 30
0.0
 11
46.3751204908677
 21
62.521163661408
 31
0.0
  0
LINE
  5
234
102
{ACAD_REACTORS
330
3F4
102
}
330
1F
100
AcDbEntity
  8
1
  6
Continuous
 62
     3
100
AcDbLine
 10
46.3751204908677
 20
62.521163661408
 30
0.0
 11
46.4469954908677
 21
62.646163661408
 31
0.0
  0
LINE
  5
235
102
{ACAD_REACTORS
330
3F4
102
}
330
1F
100
AcDbEntity
  8
1
  6
Continuous
 62
     3
100
AcDbLine
 10
46.4469954908677
 20
62.646163661408
 30
0.0
 11
46.5548079908677
 21
62.771163661408
 31
0.0
  0
LINE
  5
236
102
{ACAD_REACTORS
330
3F4
102
}
330
1F
100
AcDbEntity
  8
1
  6
Continuous
 62
     3
100
AcDbLine
 10
46.5548079908677
 20
62.771163661408
 30
0.0
 11
46.6626204908677
 21
62.864913661408
 31
0.0
  0
LINE
  5
237
102
{ACAD_REACTORS
330
3F4
102
}
330
1F
100
AcDbEntity
  8
1
  6
Continuous
 62
     3
100
AcDbLine
 10
46.6626204908677
 20
62.864913661408
 30
0.0
 11
46.7704329908677
 21
62.927413661408
 31
0.0
  0
LINE
  5
238
102
{ACAD_REACTORS
330
3F4
102
}
330
1F
100
AcDbEntity
  8
1
  6
Continuous
 62
     3
100
AcDbLine
 10
46.7704329908677
 20
62.927413661408
 30
0.0
 11
46.9501204908677
 21
62.989913661408
 31
0.0
  0
LINE
  5
239
102
{ACAD_REACTORS
330
3F4
102
}
330
1F
100
AcDbEntity
  8
1
  6
Continuous
 62
     3
100
AcDbLine
 10
46.9501204908677
 20
62.989913661408
 30
0.0
 11
47.0938704908677
 21
63.021163661408
 31
0.0
  0
LINE
  5
23A
102
{ACAD_REACTORS
330
3F4
102
}
330
1F
100
AcDbEntity
  8
1
  6
Continuous
 62
     3
100
AcDbLine
 10
47.0938704908677
 20
63.021163661408
 30
0.0
 11
47.3454329908677
 21
63.021163661408
 31
0.0
  0
LINE
  5
23B
102
{ACAD_REACTORS
330
3F4
102
}
330
1F
100
AcDbEntity
  8
1
  6
Continuous
 62
     3
100
AcDbLine
 10
47.3454329908677
 20
63.021163661408
 30
0.0
 11
47.4891829908677
 21
62.989913661408
 31
0.0
  0
LINE
  5
23C
102
{ACAD_REACTORS
330
3F4
102
}
330
1F
100
AcDbEntity
  8
1
  6
Continuous
 62
     3
100
AcDbLine
 10
47.4891829908677
 20
62.989913661408
 30
0.0
 11
47.6688704908677
 21
62.927413661408
 31
0.0
  0
LINE
  5
23D
102
{ACAD_REACTORS
330
3F4
102
}
330
1F
100
AcDbEntity
  8
1
  6
Continuous
 62
     3
100
AcDbLine
 10
47.6688704908677
 20
62.927413661408
 30
0.0
 11
47.7766829908677
 21
62.864913661408
 31
0.0
  0
LINE
  5
23E
102
{ACAD_REACTORS
330
3F4
102
}
330
1F
100
AcDbEntity
  8
1
  6
Continuous
 62
     3
100
AcDbLine
 10
47.7766829908677
 20
62.864913661408
 30
0.0
 11
47.8844954908677
 21
62.771163661408
 31
0.0
  0
LINE
  5
23F
102
{ACAD_REACTORS
330
3F4
102
}
330
1F
100
AcDbEntity
  8
1
  6
Continuous
 62
     3
100
AcDbLine
 10
47.8844954908677
 20
62.771163661408
 30
0.0
 11
47.9923079908677
 21
62.646163661408
 31
0.0
  0
LINE
  5
240
102
{ACAD_REACTORS
330
3F4
102
}
330
1F
100
AcDbEntity
  8
1
  6
Continuous
 62
     3
100
AcDbLine
 10
47.9923079908677
 20
62.646163661408
 30
0.0
 11
48.0641829908677
 21
62.521163661408
 31
0.0
  0
LINE
  5
241
102
{ACAD_REACTORS
330
3F4
102
}
330
1F
100
AcDbEntity
  8
1
  6
Continuous
 62
     3
100
AcDbLine
 10
48.0641829908677
 20
62.521163661408
 30
0.0
 11
48.1001204908677
 21
62.364913661408
 31
0.0
  0
LINE
  5
242
102
{ACAD_REACTORS
330
3F4
102
}
330
1F
100
AcDbEntity
  8
1
  6
Continuous
 62
     3
100
AcDbLine
 10
48.1001204908677
 20
62.364913661408
 30
0.0
 11
48.1001204908677
 21
62.302413661408
 31
0.0
  0
LINE
  5
243
102
{ACAD_REACTORS
330
3F4
102
}
330
1F
100
AcDbEntity
  8
1
  6
Continuous
 62
     3
100
AcDbLine
 10
48.1001204908677
 20
62.302413661408
 30
0.0
 11
47.7407454908677
 21
62.302413661408
 31
0.0
  0
LINE
  5
244
102
{ACAD_REACTORS
330
3F4
102
}
330
1F
100
AcDbEntity
  8
1
  6
Continuous
 62
     3
100
AcDbLine
 10
47.7407454908677
 20
62.302413661408
 30
0.0
 11
47.7048079908677
 21
62.458663661408
 31
0.0
  0
LINE
  5
245
102
{ACAD_REACTORS
330
3F4
102
}
330
1F
100
AcDbEntity
  8
1
  6
Continuous
 62
     3
100
AcDbLine
 10
47.7048079908677
 20
62.458663661408
 30
0.0
 11
47.6329329908677
 21
62.552413661408
 31
0.0
  0
LINE
  5
246
102
{ACAD_REACTORS
330
3F4
102
}
330
1F
100
AcDbEntity
  8
1
  6
Continuous
 62
     3
100
AcDbLine
 10
47.6329329908677
 20
62.552413661408
 30
0.0
 11
47.4891829908677
 21
62.646163661408
 31
0.0
  0
LINE
  5
247
102
{ACAD_REACTORS
330
3F4
102
}
330
1F
100
AcDbEntity
  8
1
  6
Continuous
 62
     3
100
AcDbLine
 10
47.4891829908677
 20
62.646163661408
 30
0.0
 11
47.3454329908677
 21
62.708663661408
 31
0.0
  0
LINE
  5
248
102
{ACAD_REACTORS
330
3F4
102
}
330
1F
100
AcDbEntity
  8
1
  6
Continuous
 62
     3
100
AcDbLine
 10
47.3454329908677
 20
62.708663661408
 30
0.0
 11
47.0938704908677
 21
62.708663661408
 31
0.0
  0
LINE
  5
249
102
{ACAD_REACTORS
330
3F4
102
}
330
1F
100
AcDbEntity
  8
1
  6
Continuous
 62
     3
100
AcDbLine
 10
47.0938704908677
 20
62.708663661408
 30
0.0
 11
46.9501204908677
 21
62.646163661408
 31
0.0
  0
LINE
  5
24A
102
{ACAD_REACTORS
330
3F4
102
}
330
1F
100
AcDbEntity
  8
1
  6
Continuous
 62
     3
100
AcDbLine
 10
46.9501204908677
 20
62.646163661408
 30
0.0
 11
46.8063704908677
 21
62.552413661408
 31
0.0
  0
LINE
  5
24B
102
{ACAD_REACTORS
330
3F4
102
}
330
1F
100
AcDbEntity
  8
1
  6
Continuous
 62
     3
100
AcDbLine
 10
46.8063704908677
 20
62.552413661408
 30
0.0
 11
46.7344954908677
 21
62.458663661408
 31
0.0
  0
LINE
  5
24C
102
{ACAD_REACTORS
330
3F4
102
}
330
1F
100
AcDbEntity
  8
1
  6
Continuous
 62
     3
100
AcDbLine
 10
46.7344954908677
 20
62.458663661408
 30
0.0
 11
46.6626204908677
 21
62.302413661408
 31
0.0
  0
LINE
  5
24D
102
{ACAD_REACTORS
330
3F4
102
}
330
1F
100
AcDbEntity
  8
1
  6
Continuous
 62
     3
100
AcDbLine
 10
46.6626204908677
 20
62.302413661408
 30
0.0
 11
46.5907454908677
 21
61.864913661408
 31
0.0
  0
LINE
  5
24E
102
{ACAD_REACTORS
330
3F4
102
}
330
1F
100
AcDbEntity
  8
1
  6
Continuous
 62
     3
100
AcDbLine
 10
46.5907454908677
 20
61.864913661408
 30
0.0
 11
46.7704329908677
 21
62.021163661408
 31
0.0
  0
LINE
  5
24F
102
{ACAD_REACTORS
330
3F4
102
}
330
1F
100
AcDbEntity
  8
1
  6
Continuous
 62
     3
100
AcDbLine
 10
46.7704329908677
 20
62.021163661408
 30
0.0
 11
46.9501204908677
 21
62.114913661408
 31
0.0
  0
LINE
  5
250
102
{ACAD_REACTORS
330
3F4
102
}
330
1F
100
AcDbEntity
  8
1
  6
Continuous
 62
     3
100
AcDbLine
 10
46.9501204908677
 20
62.114913661408
 30
0.0
 11
47.1298079908677
 21
62.146163661408
 31
0.0
  0
LINE
  5
251
102
{ACAD_REACTORS
330
3F4
102
}
330
1F
100
AcDbEntity
  8
1
  6
Continuous
 62
     3
100
AcDbLine
 10
47.1298079908677
 20
62.146163661408
 30
0.0
 11
47.3094954908677
 21
62.146163661408
 31
0.0
  0
LINE
  5
252
102
{ACAD_REACTORS
330
3F4
102
}
330
1F
100
AcDbEntity
  8
1
  6
Continuous
 62
     3
100
AcDbLine
 10
47.3094954908677
 20
62.146163661408
 30
0.0
 11
47.4891829908677
 21
62.114913661408
 31
0.0
  0
LINE
  5
253
102
{ACAD_REACTORS
330
3F4
102
}
330
1F
100
AcDbEntity
  8
1
  6
Continuous
 62
     3
100
AcDbLine
 10
47.4891829908677
 20
62.114913661408
 30
0.0
 11
47.6688704908677
 21
62.052413661408
 31
0.0
  0
LINE
  5
254
102
{ACAD_REACTORS
330
3F4
102
}
330
1F
100
AcDbEntity
  8
1
  6
Continuous
 62
     3
100
AcDbLine
 10
47.6688704908677
 20
62.052413661408
 30
0.0
 11
47.7766829908677
 21
61.989913661408
 31
0.0
  0
LINE
  5
255
102
{ACAD_REACTORS
330
3F4
102
}
330
1F
100
AcDbEntity
  8
1
  6
Continuous
 62
     3
100
AcDbLine
 10
47.7766829908677
 20
61.989913661408
 30
0.0
 11
47.8844954908677
 21
61.896163661408
 31
0.0
  0
LINE
  5
256
102
{ACAD_REACTORS
330
3F4
102
}
330
1F
100
AcDbEntity
  8
1
  6
Continuous
 62
     3
100
AcDbLine
 10
47.8844954908677
 20
61.896163661408
 30
0.0
 11
47.9923079908677
 21
61.771163661408
 31
0.0
  0
LINE
  5
257
102
{ACAD_REACTORS
330
3F4
102
}
330
1F
100
AcDbEntity
  8
1
  6
Continuous
 62
     3
100
AcDbLine
 10
47.9923079908677
 20
61.771163661408
 30
0.0
 11
48.0641829908677
 21
61.646163661408
 31
0.0
  0
LINE
  5
258
102
{ACAD_REACTORS
330
3F4
102
}
330
1F
100
AcDbEntity
  8
1
  6
Continuous
 62
     3
100
AcDbLine
 10
48.0641829908677
 20
61.646163661408
 30
0.0
 11
48.1360579908677
 21
61.458663661408
 31
0.0
  0
LINE
  5
259
102
{ACAD_REACTORS
330
3F4
102
}
330
1F
100
AcDbEntity
  8
1
  6
Continuous
 62
     3
100
AcDbLine
 10
48.1360579908677
 20
61.458663661408
 30
0.0
 11
48.1360579908677
 21
61.208663661408
 31
0.0
  0
LINE
  5
25A
102
{ACAD_REACTORS
330
3F5
102
}
330
1F
100
AcDbEntity
  8
1
  6
Continuous
 62
     3
100
AcDbLine
 10
49.5735579908677
 20
60.833663661408
 30
0.0
 11
49.8251204908677
 21
60.833663661408
 31
0.0
  0
LINE
  5
25B
102
{ACAD_REACTORS
330
3F5
102
}
330
1F
100
AcDbEntity
  8
1
  6
Continuous
 62
     3
100
AcDbLine
 10
49.8251204908677
 20
60.833663661408
 30
0.0
 11
49.9688704908677
 21
60.896163661408
 31
0.0
  0
LINE
  5
25C
102
{ACAD_REACTORS
330
3F5
102
}
330
1F
100
AcDbEntity
  8
1
  6
Continuous
 62
     3
100
AcDbLine
 10
49.9688704908677
 20
60.896163661408
 30
0.0
 11
50.1126204908677
 21
60.989913661408
 31
0.0
  0
LINE
  5
25D
102
{ACAD_REACTORS
330
3F5
102
}
330
1F
100
AcDbEntity
  8
1
  6
Continuous
 62
     3
100
AcDbLine
 10
50.1126204908677
 20
60.989913661408
 30
0.0
 11
50.1844954908677
 21
61.083663661408
 31
0.0
  0
LINE
  5
25E
102
{ACAD_REACTORS
330
3F5
102
}
330
1F
100
AcDbEntity
  8
1
  6
Continuous
 62
     3
100
AcDbLine
 10
50.1844954908677
 20
61.083663661408
 30
0.0
 11
50.2563704908677
 21
61.239913661408
 31
0.0
  0
LINE
  5
25F
102
{ACAD_REACTORS
330
3F5
102
}
330
1F
100
AcDbEntity
  8
1
  6
Continuous
 62
     3
100
AcDbLine
 10
50.2563704908677
 20
61.239913661408
 30
0.0
 11
50.2923079908677
 21
61.583663661408
 31
0.0
  0
LINE
  5
260
102
{ACAD_REACTORS
330
3F5
102
}
330
1F
100
AcDbEntity
  8
1
  6
Continuous
 62
     3
100
AcDbLine
 10
50.2923079908677
 20
61.583663661408
 30
0.0
 11
50.2923079908677
 21
61.958663661408
 31
0.0
  0
LINE
  5
261
102
{ACAD_REACTORS
330
3F5
102
}
330
1F
100
AcDbEntity
  8
1
  6
Continuous
 62
     3
100
AcDbLine
 10
50.2923079908677
 20
61.958663661408
 30
0.0
 11
50.2563704908677
 21
62.302413661408
 31
0.0
  0
LINE
  5
262
102
{ACAD_REACTORS
330
3F5
102
}
330
1F
100
AcDbEntity
  8
1
  6
Continuous
 62
     3
100
AcDbLine
 10
50.2563704908677
 20
62.302413661408
 30
0.0
 11
50.1844954908677
 21
62.458663661408
 31
0.0
  0
LINE
  5
263
102
{ACAD_REACTORS
330
3F5
102
}
330
1F
100
AcDbEntity
  8
1
  6
Continuous
 62
     3
100
AcDbLine
 10
50.1844954908677
 20
62.458663661408
 30
0.0
 11
50.1126204908677
 21
62.552413661408
 31
0.0
  0
LINE
  5
264
102
{ACAD_REACTORS
330
3F5
102
}
330
1F
100
AcDbEntity
  8
1
  6
Continuous
 62
     3
100
AcDbLine
 10
50.1126204908677
 20
62.552413661408
 30
0.0
 11
49.9688704908677
 21
62.646163661408
 31
0.0
  0
LINE
  5
265
102
{ACAD_REACTORS
330
3F5
102
}
330
1F
100
AcDbEntity
  8
1
  6
Continuous
 62
     3
100
AcDbLine
 10
49.9688704908677
 20
62.646163661408
 30
0.0
 11
49.8251204908677
 21
62.708663661408
 31
0.0
  0
LINE
  5
266
102
{ACAD_REACTORS
330
3F5
102
}
330
1F
100
AcDbEntity
  8
1
  6
Continuous
 62
     3
100
AcDbLine
 10
49.8251204908677
 20
62.708663661408
 30
0.0
 11
49.5735579908677
 21
62.708663661408
 31
0.0
  0
LINE
  5
267
102
{ACAD_REACTORS
330
3F5
102
}
330
1F
100
AcDbEntity
  8
1
  6
Continuous
 62
     3
100
AcDbLine
 10
49.5735579908677
 20
62.708663661408
 30
0.0
 11
49.4298079908677
 21
62.646163661408
 31
0.0
  0
LINE
  5
268
102
{ACAD_REACTORS
330
3F5
102
}
330
1F
100
AcDbEntity
  8
1
  6
Continuous
 62
     3
100
AcDbLine
 10
49.4298079908677
 20
62.646163661408
 30
0.0
 11
49.2860579908677
 21
62.552413661408
 31
0.0
  0
LINE
  5
269
102
{ACAD_REACTORS
330
3F5
102
}
330
1F
100
AcDbEntity
  8
1
  6
Continuous
 62
     3
100
AcDbLine
 10
49.2860579908677
 20
62.552413661408
 30
0.0
 11
49.2141829908677
 21
62.458663661408
 31
0.0
  0
LINE
  5
26A
102
{ACAD_REACTORS
330
3F5
102
}
330
1F
100
AcDbEntity
  8
1
  6
Continuous
 62
     3
100
AcDbLine
 10
49.2141829908677
 20
62.458663661408
 30
0.0
 11
49.1423079908677
 21
62.302413661408
 31
0.0
  0
LINE
  5
26B
102
{ACAD_REACTORS
330
3F5
102
}
330
1F
100
AcDbEntity
  8
1
  6
Continuous
 62
     3
100
AcDbLine
 10
49.1423079908677
 20
62.302413661408
 30
0.0
 11
49.1063704908677
 21
61.958663661408
 31
0.0
  0
LINE
  5
26C
102
{ACAD_REACTORS
330
3F5
102
}
330
1F
100
AcDbEntity
  8
1
  6
Continuous
 62
     3
100
AcDbLine
 10
49.1063704908677
 20
61.958663661408
 30
0.0
 11
49.1063704908677
 21
61.583663661408
 31
0.0
  0
LINE
  5
26D
102
{ACAD_REACTORS
330
3F5
102
}
330
1F
100
AcDbEntity
  8
1
  6
Continuous
 62
     3
100
AcDbLine
 10
49.1063704908677
 20
61.583663661408
 30
0.0
 11
49.1423079908677
 21
61.239913661408
 31
0.0
  0
LINE
  5
26E
102
{ACAD_REACTORS
330
3F5
102
}
330
1F
100
AcDbEntity
  8
1
  6
Continuous
 62
     3
100
AcDbLine
 10
49.1423079908677
 20
61.239913661408
 30
0.0
 11
49.2141829908677
 21
61.083663661408
 31
0.0
  0
LINE
  5
26F
102
{ACAD_REACTORS
330
3F5
102
}
330
1F
100
AcDbEntity
  8
1
  6
Continuous
 62
     3
100
AcDbLine
 10
49.2141829908677
 20
61.083663661408
 30
0.0
 11
49.2860579908677
 21
60.989913661408
 31
0.0
  0
LINE
  5
270
102
{ACAD_REACTORS
330
3F5
102
}
330
1F
100
AcDbEntity
  8
1
  6
Continuous
 62
     3
100
AcDbLine
 10
49.2860579908677
 20
60.989913661408
 30
0.0
 11
49.4298079908677
 21
60.896163661408
 31
0.0
  0
LINE
  5
271
102
{ACAD_REACTORS
330
3F5
102
}
330
1F
100
AcDbEntity
  8
1
  6
Continuous
 62
     3
100
AcDbLine
 10
49.4298079908677
 20
60.896163661408
 30
0.0
 11
49.5735579908677
 21
60.833663661408
 31
0.0
  0
LINE
  5
272
102
{ACAD_REACTORS
330
3F5
102
}
330
1F
100
AcDbEntity
  8
1
  6
Continuous
 62
     3
100
AcDbLine
 10
50.2563704908677
 20
60.677413661408
 30
0.0
 11
50.3641829908677
 21
60.771163661408
 31
0.0
  0
LINE
  5
273
102
{ACAD_REACTORS
330
3F5
102
}
330
1F
100
AcDbEntity
  8
1
  6
Continuous
 62
     3
100
AcDbLine
 10
50.3641829908677
 20
60.771163661408
 30
0.0
 11
50.4719954908677
 21
60.896163661408
 31
0.0
  0
LINE
  5
274
102
{ACAD_REACTORS
330
3F5
102
}
330
1F
100
AcDbEntity
  8
1
  6
Continuous
 62
     3
100
AcDbLine
 10
50.4719954908677
 20
60.896163661408
 30
0.0
 11
50.5438704908677
 21
61.021163661408
 31
0.0
  0
LINE
  5
275
102
{ACAD_REACTORS
330
3F5
102
}
330
1F
100
AcDbEntity
  8
1
  6
Continuous
 62
     3
100
AcDbLine
 10
50.5438704908677
 20
61.021163661408
 30
0.0
 11
50.6157454908677
 21
61.177413661408
 31
0.0
  0
LINE
  5
276
102
{ACAD_REACTORS
330
3F5
102
}
330
1F
100
AcDbEntity
  8
1
  6
Continuous
 62
     3
100
AcDbLine
 10
50.6157454908677
 20
61.177413661408
 30
0.0
 11
50.6516829908677
 21
61.364913661408
 31
0.0
  0
LINE
  5
277
102
{ACAD_REACTORS
330
3F5
102
}
330
1F
100
AcDbEntity
  8
1
  6
Continuous
 62
     3
100
AcDbLine
 10
50.6516829908677
 20
61.364913661408
 30
0.0
 11
50.6876204908677
 21
61.646163661408
 31
0.0
  0
LINE
  5
278
102
{ACAD_REACTORS
330
3F5
102
}
330
1F
100
AcDbEntity
  8
1
  6
Continuous
 62
     3
100
AcDbLine
 10
50.6876204908677
 20
61.646163661408
 30
0.0
 11
50.6876204908677
 21
61.896163661408
 31
0.0
  0
LINE
  5
279
102
{ACAD_REACTORS
330
3F5
102
}
330
1F
100
AcDbEntity
  8
1
  6
Continuous
 62
     3
100
AcDbLine
 10
50.6876204908677
 20
61.896163661408
 30
0.0
 11
50.6516829908677
 21
62.177413661408
 31
0.0
  0
LINE
  5
27A
102
{ACAD_REACTORS
330
3F5
102
}
330
1F
100
AcDbEntity
  8
1
  6
Continuous
 62
     3
100
AcDbLine
 10
50.6516829908677
 20
62.177413661408
 30
0.0
 11
50.6157454908677
 21
62.364913661408
 31
0.0
  0
LINE
  5
27B
102
{ACAD_REACTORS
330
3F5
102
}
330
1F
100
AcDbEntity
  8
1
  6
Continuous
 62
     3
100
AcDbLine
 10
50.6157454908677
 20
62.364913661408
 30
0.0
 11
50.5438704908677
 21
62.521163661408
 31
0.0
  0
LINE
  5
27C
102
{ACAD_REACTORS
330
3F5
102
}
330
1F
100
AcDbEntity
  8
1
  6
Continuous
 62
     3
100
AcDbLine
 10
50.5438704908677
 20
62.521163661408
 30
0.0
 11
50.4719954908677
 21
62.646163661408
 31
0.0
  0
LINE
  5
27D
102
{ACAD_REACTORS
330
3F5
102
}
330
1F
100
AcDbEntity
  8
1
  6
Continuous
 62
     3
100
AcDbLine
 10
50.4719954908677
 20
62.646163661408
 30
0.0
 11
50.3641829908677
 21
62.771163661408
 31
0.0
  0
LINE
  5
27E
102
{ACAD_REACTORS
330
3F5
102
}
330
1F
100
AcDbEntity
  8
1
  6
Continuous
 62
     3
100
AcDbLine
 10
50.3641829908677
 20
62.771163661408
 30
0.0
 11
50.2563704908677
 21
62.864913661408
 31
0.0
  0
LINE
  5
27F
102
{ACAD_REACTORS
330
3F5
102
}
330
1F
100
AcDbEntity
  8
1
  6
Continuous
 62
     3
100
AcDbLine
 10
50.2563704908677
 20
62.864913661408
 30
0.0
 11
50.1485579908677
 21
62.927413661408
 31
0.0
  0
LINE
  5
280
102
{ACAD_REACTORS
330
3F5
102
}
330
1F
100
AcDbEntity
  8
1
  6
Continuous
 62
     3
100
AcDbLine
 10
50.1485579908677
 20
62.927413661408
 30
0.0
 11
49.9688704908677
 21
62.989913661408
 31
0.0
  0
LINE
  5
281
102
{ACAD_REACTORS
330
3F5
102
}
330
1F
100
AcDbEntity
  8
1
  6
Continuous
 62
     3
100
AcDbLine
 10
49.9688704908677
 20
62.989913661408
 30
0.0
 11
49.8251204908677
 21
63.021163661408
 31
0.0
  0
LINE
  5
282
102
{ACAD_REACTORS
330
3F5
102
}
330
1F
100
AcDbEntity
  8
1
  6
Continuous
 62
     3
100
AcDbLine
 10
49.8251204908677
 20
63.021163661408
 30
0.0
 11
49.5735579908677
 21
63.021163661408
 31
0.0
  0
LINE
  5
283
102
{ACAD_REACTORS
330
3F5
102
}
330
1F
100
AcDbEntity
  8
1
  6
Continuous
 62
     3
100
AcDbLine
 10
49.5735579908677
 20
63.021163661408
 30
0.0
 11
49.4298079908677
 21
62.989913661408
 31
0.0
  0
LINE
  5
284
102
{ACAD_REACTORS
330
3F5
102
}
330
1F
100
AcDbEntity
  8
1
  6
Continuous
 62
     3
100
AcDbLine
 10
49.4298079908677
 20
62.989913661408
 30
0.0
 11
49.2501204908677
 21
62.927413661408
 31
0.0
  0
LINE
  5
285
102
{ACAD_REACTORS
330
3F5
102
}
330
1F
100
AcDbEntity
  8
1
  6
Continuous
 62
     3
100
AcDbLine
 10
49.2501204908677
 20
62.927413661408
 30
0.0
 11
49.1423079908677
 21
62.864913661408
 31
0.0
  0
LINE
  5
286
102
{ACAD_REACTORS
330
3F5
102
}
330
1F
100
AcDbEntity
  8
1
  6
Continuous
 62
     3
100
AcDbLine
 10
49.1423079908677
 20
62.864913661408
 30
0.0
 11
49.0344954908677
 21
62.771163661408
 31
0.0
  0
LINE
  5
287
102
{ACAD_REACTORS
330
3F5
102
}
330
1F
100
AcDbEntity
  8
1
  6
Continuous
 62
     3
100
AcDbLine
 10
49.0344954908677
 20
62.771163661408
 30
0.0
 11
48.9266829908677
 21
62.646163661408
 31
0.0
  0
LINE
  5
288
102
{ACAD_REACTORS
330
3F5
102
}
330
1F
100
AcDbEntity
  8
1
  6
Continuous
 62
     3
100
AcDbLine
 10
48.9266829908677
 20
62.646163661408
 30
0.0
 11
48.8548079908677
 21
62.521163661408
 31
0.0
  0
LINE
  5
289
102
{ACAD_REACTORS
330
3F5
102
}
330
1F
100
AcDbEntity
  8
1
  6
Continuous
 62
     3
100
AcDbLine
 10
48.8548079908677
 20
62.521163661408
 30
0.0
 11
48.7829329908677
 21
62.364913661408
 31
0.0
  0
LINE
  5
28A
102
{ACAD_REACTORS
330
3F5
102
}
330
1F
100
AcDbEntity
  8
1
  6
Continuous
 62
     3
100
AcDbLine
 10
48.7829329908677
 20
62.364913661408
 30
0.0
 11
48.7469954908677
 21
62.177413661408
 31
0.0
  0
LINE
  5
28B
102
{ACAD_REACTORS
330
3F5
102
}
330
1F
100
AcDbEntity
  8
1
  6
Continuous
 62
     3
100
AcDbLine
 10
48.7469954908677
 20
62.177413661408
 30
0.0
 11
48.7110579908677
 21
61.896163661408
 31
0.0
  0
LINE
  5
28C
102
{ACAD_REACTORS
330
3F5
102
}
330
1F
100
AcDbEntity
  8
1
  6
Continuous
 62
     3
100
AcDbLine
 10
48.7110579908677
 20
61.896163661408
 30
0.0
 11
48.7110579908677
 21
61.646163661408
 31
0.0
  0
LINE
  5
28D
102
{ACAD_REACTORS
330
3F5
102
}
330
1F
100
AcDbEntity
  8
1
  6
Continuous
 62
     3
100
AcDbLine
 10
48.7110579908677
 20
61.646163661408
 30
0.0
 11
48.7469954908677
 21
61.364913661408
 31
0.0
  0
LINE
  5
28E
102
{ACAD_REACTORS
330
3F5
102
}
330
1F
100
AcDbEntity
  8
1
  6
Continuous
 62
     3
100
AcDbLine
 10
48.7469954908677
 20
61.364913661408
 30
0.0
 11
48.7829329908677
 21
61.177413661408
 31
0.0
  0
LINE
  5
28F
102
{ACAD_REACTORS
330
3F5
102
}
330
1F
100
AcDbEntity
  8
1
  6
Continuous
 62
     3
100
AcDbLine
 10
48.7829329908677
 20
61.177413661408
 30
0.0
 11
48.8548079908677
 21
61.021163661408
 31
0.0
  0
LINE
  5
290
102
{ACAD_REACTORS
330
3F5
102
}
330
1F
100
AcDbEntity
  8
1
  6
Continuous
 62
     3
100
AcDbLine
 10
48.8548079908677
 20
61.021163661408
 30
0.0
 11
48.9266829908677
 21
60.896163661408
 31
0.0
  0
LINE
  5
291
102
{ACAD_REACTORS
330
3F5
102
}
330
1F
100
AcDbEntity
  8
1
  6
Continuous
 62
     3
100
AcDbLine
 10
48.9266829908677
 20
60.896163661408
 30
0.0
 11
49.0344954908677
 21
60.771163661408
 31
0.0
  0
LINE
  5
292
102
{ACAD_REACTORS
330
3F5
102
}
330
1F
100
AcDbEntity
  8
1
  6
Continuous
 62
     3
100
AcDbLine
 10
49.0344954908677
 20
60.771163661408
 30
0.0
 11
49.1423079908677
 21
60.677413661408
 31
0.0
  0
LINE
  5
293
102
{ACAD_REACTORS
330
3F5
102
}
330
1F
100
AcDbEntity
  8
1
  6
Continuous
 62
     3
100
AcDbLine
 10
49.1423079908677
 20
60.677413661408
 30
0.0
 11
49.2501204908677
 21
60.614913661408
 31
0.0
  0
LINE
  5
294
102
{ACAD_REACTORS
330
3F5
102
}
330
1F
100
AcDbEntity
  8
1
  6
Continuous
 62
     3
100
AcDbLine
 10
49.2501204908677
 20
60.614913661408
 30
0.0
 11
49.4298079908677
 21
60.552413661408
 31
0.0
  0
LINE
  5
295
102
{ACAD_REACTORS
330
3F5
102
}
330
1F
100
AcDbEntity
  8
1
  6
Continuous
 62
     3
100
AcDbLine
 10
49.4298079908677
 20
60.552413661408
 30
0.0
 11
49.5735579908677
 21
60.521163661408
 31
0.0
  0
LINE
  5
296
102
{ACAD_REACTORS
330
3F5
102
}
330
1F
100
AcDbEntity
  8
1
  6
Continuous
 62
     3
100
AcDbLine
 10
49.5735579908677
 20
60.521163661408
 30
0.0
 11
49.8251204908677
 21
60.521163661408
 31
0.0
  0
LINE
  5
297
102
{ACAD_REACTORS
330
3F5
102
}
330
1F
100
AcDbEntity
  8
1
  6
Continuous
 62
     3
100
AcDbLine
 10
49.8251204908677
 20
60.521163661408
 30
0.0
 11
49.9688704908677
 21
60.552413661408
 31
0.0
  0
LINE
  5
298
102
{ACAD_REACTORS
330
3F5
102
}
330
1F
100
AcDbEntity
  8
1
  6
Continuous
 62
     3
100
AcDbLine
 10
49.9688704908677
 20
60.552413661408
 30
0.0
 11
50.1485579908677
 21
60.614913661408
 31
0.0
  0
LINE
  5
299
102
{ACAD_REACTORS
330
3F5
102
}
330
1F
100
AcDbEntity
  8
1
  6
Continuous
 62
     3
100
AcDbLine
 10
50.1485579908677
 20
60.614913661408
 30
0.0
 11
50.2563704908677
 21
60.677413661408
 31
0.0
  0
LINE
  5
29A
102
{ACAD_REACTORS
330
3F6
102
}
330
1F
100
AcDbEntity
  8
1
  6
Continuous
 62
     3
100
AcDbLine
 10
52.1251204908677
 20
60.833663661408
 30
0.0
 11
52.3766829908677
 21
60.833663661408
 31
0.0
  0
LINE
  5
29B
102
{ACAD_REACTORS
330
3F6
102
}
330
1F
100
AcDbEntity
  8
1
  6
Continuous
 62
     3
100
AcDbLine
 10
52.3766829908677
 20
60.833663661408
 30
0.0
 11
52.5204329908677
 21
60.896163661408
 31
0.0
  0
LINE
  5
29C
102
{ACAD_REACTORS
330
3F6
102
}
330
1F
100
AcDbEntity
  8
1
  6
Continuous
 62
     3
100
AcDbLine
 10
52.5204329908677
 20
60.896163661408
 30
0.0
 11
52.6641829908677
 21
60.989913661408
 31
0.0
  0
LINE
  5
29D
102
{ACAD_REACTORS
330
3F6
102
}
330
1F
100
AcDbEntity
  8
1
  6
Continuous
 62
     3
100
AcDbLine
 10
52.6641829908677
 20
60.989913661408
 30
0.0
 11
52.7360579908677
 21
61.083663661408
 31
0.0
  0
LINE
  5
29E
102
{ACAD_REACTORS
330
3F6
102
}
330
1F
100
AcDbEntity
  8
1
  6
Continuous
 62
     3
100
AcDbLine
 10
52.7360579908677
 20
61.083663661408
 30
0.0
 11
52.8079329908677
 21
61.239913661408
 31
0.0
  0
LINE
  5
29F
102
{ACAD_REACTORS
330
3F6
102
}
330
1F
100
AcDbEntity
  8
1
  6
Continuous
 62
     3
100
AcDbLine
 10
52.8079329908677
 20
61.239913661408
 30
0.0
 11
52.8438704908677
 21
61.583663661408
 31
0.0
  0
LINE
  5
2A0
102
{ACAD_REACTORS
330
3F6
102
}
330
1F
100
AcDbEntity
  8
1
  6
Continuous
 62
     3
100
AcDbLine
 10
52.8438704908677
 20
61.583663661408
 30
0.0
 11
52.8438704908677
 21
61.958663661408
 31
0.0
  0
LINE
  5
2A1
102
{ACAD_REACTORS
330
3F6
102
}
330
1F
100
AcDbEntity
  8
1
  6
Continuous
 62
     3
100
AcDbLine
 10
52.8438704908677
 20
61.958663661408
 30
0.0
 11
52.8079329908677
 21
62.302413661408
 31
0.0
  0
LINE
  5
2A2
102
{ACAD_REACTORS
330
3F6
102
}
330
1F
100
AcDbEntity
  8
1
  6
Continuous
 62
     3
100
AcDbLine
 10
52.8079329908677
 20
62.302413661408
 30
0.0
 11
52.7360579908677
 21
62.458663661408
 31
0.0
  0
LINE
  5
2A3
102
{ACAD_REACTORS
330
3F6
102
}
330
1F
100
AcDbEntity
  8
1
  6
Continuous
 62
     3
100
AcDbLine
 10
52.7360579908677
 20
62.458663661408
 30
0.0
 11
52.6641829908677
 21
62.552413661408
 31
0.0
  0
LINE
  5
2A4
102
{ACAD_REACTORS
330
3F6
102
}
330
1F
100
AcDbEntity
  8
1
  6
Continuous
 62
     3
100
AcDbLine
 10
52.6641829908677
 20
62.552413661408
 30
0.0
 11
52.5204329908677
 21
62.646163661408
 31
0.0
  0
LINE
  5
2A5
102
{ACAD_REACTORS
330
3F6
102
}
330
1F
100
AcDbEntity
  8
1
  6
Continuous
 62
     3
100
AcDbLine
 10
52.5204329908677
 20
62.646163661408
 30
0.0
 11
52.3766829908677
 21
62.708663661408
 31
0.0
  0
LINE
  5
2A6
102
{ACAD_REACTORS
330
3F6
102
}
330
1F
100
AcDbEntity
  8
1
  6
Continuous
 62
     3
100
AcDbLine
 10
52.3766829908677
 20
62.708663661408
 30
0.0
 11
52.1251204908677
 21
62.708663661408
 31
0.0
  0
LINE
  5
2A7
102
{ACAD_REACTORS
330
3F6
102
}
330
1F
100
AcDbEntity
  8
1
  6
Continuous
 62
     3
100
AcDbLine
 10
52.1251204908677
 20
62.708663661408
 30
0.0
 11
51.9813704908677
 21
62.646163661408
 31
0.0
  0
LINE
  5
2A8
102
{ACAD_REACTORS
330
3F6
102
}
330
1F
100
AcDbEntity
  8
1
  6
Continuous
 62
     3
100
AcDbLine
 10
51.9813704908677
 20
62.646163661408
 30
0.0
 11
51.8376204908677
 21
62.552413661408
 31
0.0
  0
LINE
  5
2A9
102
{ACAD_REACTORS
330
3F6
102
}
330
1F
100
AcDbEntity
  8
1
  6
Continuous
 62
     3
100
AcDbLine
 10
51.8376204908677
 20
62.552413661408
 30
0.0
 11
51.7657454908677
 21
62.458663661408
 31
0.0
  0
LINE
  5
2AA
102
{ACAD_REACTORS
330
3F6
102
}
330
1F
100
AcDbEntity
  8
1
  6
Continuous
 62
     3
100
AcDbLine
 10
51.7657454908677
 20
62.458663661408
 30
0.0
 11
51.6938704908677
 21
62.302413661408
 31
0.0
  0
LINE
  5
2AB
102
{ACAD_REACTORS
330
3F6
102
}
330
1F
100
AcDbEntity
  8
1
  6
Continuous
 62
     3
100
AcDbLine
 10
51.6938704908677
 20
62.302413661408
 30
0.0
 11
51.6579329908677
 21
61.958663661408
 31
0.0
  0
LINE
  5
2AC
102
{ACAD_REACTORS
330
3F6
102
}
330
1F
100
AcDbEntity
  8
1
  6
Continuous
 62
     3
100
AcDbLine
 10
51.6579329908677
 20
61.958663661408
 30
0.0
 11
51.6579329908677
 21
61.583663661408
 31
0.0
  0
LINE
  5
2AD
102
{ACAD_REACTORS
330
3F6
102
}
330
1F
100
AcDbEntity
  8
1
  6
Continuous
 62
     3
100
AcDbLine
 10
51.6579329908677
 20
61.583663661408
 30
0.0
 11
51.6938704908677
 21
61.239913661408
 31
0.0
  0
LINE
  5
2AE
102
{ACAD_REACTORS
330
3F6
102
}
330
1F
100
AcDbEntity
  8
1
  6
Continuous
 62
     3
100
AcDbLine
 10
51.6938704908677
 20
61.239913661408
 30
0.0
 11
51.7657454908677
 21
61.083663661408
 31
0.0
  0
LINE
  5
2AF
102
{ACAD_REACTORS
330
3F6
102
}
330
1F
100
AcDbEntity
  8
1
  6
Continuous
 62
     3
100
AcDbLine
 10
51.7657454908677
 20
61.083663661408
 30
0.0
 11
51.8376204908677
 21
60.989913661408
 31
0.0
  0
LINE
  5
2B0
102
{ACAD_REACTORS
330
3F6
102
}
330
1F
100
AcDbEntity
  8
1
  6
Continuous
 62
     3
100
AcDbLine
 10
51.8376204908677
 20
60.989913661408
 30
0.0
 11
51.9813704908677
 21
60.896163661408
 31
0.0
  0
LINE
  5
2B1
102
{ACAD_REACTORS
330
3F6
102
}
330
1F
100
AcDbEntity
  8
1
  6
Continuous
 62
     3
100
AcDbLine
 10
51.9813704908677
 20
60.896163661408
 30
0.0
 11
52.1251204908677
 21
60.833663661408
 31
0.0
  0
LINE
  5
2B2
102
{ACAD_REACTORS
330
3F6
102
}
330
1F
100
AcDbEntity
  8
1
  6
Continuous
 62
     3
100
AcDbLine
 10
52.8079329908677
 20
60.677413661408
 30
0.0
 11
52.9157454908677
 21
60.771163661408
 31
0.0
  0
LINE
  5
2B3
102
{ACAD_REACTORS
330
3F6
102
}
330
1F
100
AcDbEntity
  8
1
  6
Continuous
 62
     3
100
AcDbLine
 10
52.9157454908677
 20
60.771163661408
 30
0.0
 11
53.0235579908677
 21
60.896163661408
 31
0.0
  0
LINE
  5
2B4
102
{ACAD_REACTORS
330
3F6
102
}
330
1F
100
AcDbEntity
  8
1
  6
Continuous
 62
     3
100
AcDbLine
 10
53.0235579908677
 20
60.896163661408
 30
0.0
 11
53.0954329908677
 21
61.021163661408
 31
0.0
  0
LINE
  5
2B5
102
{ACAD_REACTORS
330
3F6
102
}
330
1F
100
AcDbEntity
  8
1
  6
Continuous
 62
     3
100
AcDbLine
 10
53.0954329908677
 20
61.021163661408
 30
0.0
 11
53.1673079908677
 21
61.177413661408
 31
0.0
  0
LINE
  5
2B6
102
{ACAD_REACTORS
330
3F6
102
}
330
1F
100
AcDbEntity
  8
1
  6
Continuous
 62
     3
100
AcDbLine
 10
53.1673079908677
 20
61.177413661408
 30
0.0
 11
53.2032454908677
 21
61.364913661408
 31
0.0
  0
LINE
  5
2B7
102
{ACAD_REACTORS
330
3F6
102
}
330
1F
100
AcDbEntity
  8
1
  6
Continuous
 62
     3
100
AcDbLine
 10
53.2032454908677
 20
61.364913661408
 30
0.0
 11
53.2391829908677
 21
61.646163661408
 31
0.0
  0
LINE
  5
2B8
102
{ACAD_REACTORS
330
3F6
102
}
330
1F
100
AcDbEntity
  8
1
  6
Continuous
 62
     3
100
AcDbLine
 10
53.2391829908677
 20
61.646163661408
 30
0.0
 11
53.2391829908677
 21
61.896163661408
 31
0.0
  0
LINE
  5
2B9
102
{ACAD_REACTORS
330
3F6
102
}
330
1F
100
AcDbEntity
  8
1
  6
Continuous
 62
     3
100
AcDbLine
 10
53.2391829908677
 20
61.896163661408
 30
0.0
 11
53.2032454908677
 21
62.177413661408
 31
0.0
  0
LINE
  5
2BA
102
{ACAD_REACTORS
330
3F6
102
}
330
1F
100
AcDbEntity
  8
1
  6
Continuous
 62
     3
100
AcDbLine
 10
53.2032454908677
 20
62.177413661408
 30
0.0
 11
53.1673079908677
 21
62.364913661408
 31
0.0
  0
LINE
  5
2BB
102
{ACAD_REACTORS
330
3F6
102
}
330
1F
100
AcDbEntity
  8
1
  6
Continuous
 62
     3
100
AcDbLine
 10
53.1673079908677
 20
62.364913661408
 30
0.0
 11
53.0954329908677
 21
62.521163661408
 31
0.0
  0
LINE
  5
2BC
102
{ACAD_REACTORS
330
3F6
102
}
330
1F
100
AcDbEntity
  8
1
  6
Continuous
 62
     3
100
AcDbLine
 10
53.0954329908677
 20
62.521163661408
 30
0.0
 11
53.0235579908677
 21
62.646163661408
 31
0.0
  0
LINE
  5
2BD
102
{ACAD_REACTORS
330
3F6
102
}
330
1F
100
AcDbEntity
  8
1
  6
Continuous
 62
     3
100
AcDbLine
 10
53.0235579908677
 20
62.646163661408
 30
0.0
 11
52.9157454908677
 21
62.771163661408
 31
0.0
  0
LINE
  5
2BE
102
{ACAD_REACTORS
330
3F6
102
}
330
1F
100
AcDbEntity
  8
1
  6
Continuous
 62
     3
100
AcDbLine
 10
52.9157454908677
 20
62.771163661408
 30
0.0
 11
52.8079329908677
 21
62.864913661408
 31
0.0
  0
LINE
  5
2BF
102
{ACAD_REACTORS
330
3F6
102
}
330
1F
100
AcDbEntity
  8
1
  6
Continuous
 62
     3
100
AcDbLine
 10
52.8079329908677
 20
62.864913661408
 30
0.0
 11
52.7001204908677
 21
62.927413661408
 31
0.0
  0
LINE
  5
2C0
102
{ACAD_REACTORS
330
3F6
102
}
330
1F
100
AcDbEntity
  8
1
  6
Continuous
 62
     3
100
AcDbLine
 10
52.7001204908677
 20
62.927413661408
 30
0.0
 11
52.5204329908677
 21
62.989913661408
 31
0.0
  0
LINE
  5
2C1
102
{ACAD_REACTORS
330
3F6
102
}
330
1F
100
AcDbEntity
  8
1
  6
Continuous
 62
     3
100
AcDbLine
 10
52.5204329908677
 20
62.989913661408
 30
0.0
 11
52.3766829908677
 21
63.021163661408
 31
0.0
  0
LINE
  5
2C2
102
{ACAD_REACTORS
330
3F6
102
}
330
1F
100
AcDbEntity
  8
1
  6
Continuous
 62
     3
100
AcDbLine
 10
52.3766829908677
 20
63.021163661408
 30
0.0
 11
52.1251204908677
 21
63.021163661408
 31
0.0
  0
LINE
  5
2C3
102
{ACAD_REACTORS
330
3F6
102
}
330
1F
100
AcDbEntity
  8
1
  6
Continuous
 62
     3
100
AcDbLine
 10
52.1251204908677
 20
63.021163661408
 30
0.0
 11
51.9813704908677
 21
62.989913661408
 31
0.0
  0
LINE
  5
2C4
102
{ACAD_REACTORS
330
3F6
102
}
330
1F
100
AcDbEntity
  8
1
  6
Continuous
 62
     3
100
AcDbLine
 10
51.9813704908677
 20
62.989913661408
 30
0.0
 11
51.8016829908677
 21
62.927413661408
 31
0.0
  0
LINE
  5
2C5
102
{ACAD_REACTORS
330
3F6
102
}
330
1F
100
AcDbEntity
  8
1
  6
Continuous
 62
     3
100
AcDbLine
 10
51.8016829908677
 20
62.927413661408
 30
0.0
 11
51.6938704908677
 21
62.864913661408
 31
0.0
  0
LINE
  5
2C6
102
{ACAD_REACTORS
330
3F6
102
}
330
1F
100
AcDbEntity
  8
1
  6
Continuous
 62
     3
100
AcDbLine
 10
51.6938704908677
 20
62.864913661408
 30
0.0
 11
51.5860579908677
 21
62.771163661408
 31
0.0
  0
LINE
  5
2C7
102
{ACAD_REACTORS
330
3F6
102
}
330
1F
100
AcDbEntity
  8
1
  6
Continuous
 62
     3
100
AcDbLine
 10
51.5860579908677
 20
62.771163661408
 30
0.0
 11
51.4782454908677
 21
62.646163661408
 31
0.0
  0
LINE
  5
2C8
102
{ACAD_REACTORS
330
3F6
102
}
330
1F
100
AcDbEntity
  8
1
  6
Continuous
 62
     3
100
AcDbLine
 10
51.4782454908677
 20
62.646163661408
 30
0.0
 11
51.4063704908677
 21
62.521163661408
 31
0.0
  0
LINE
  5
2C9
102
{ACAD_REACTORS
330
3F6
102
}
330
1F
100
AcDbEntity
  8
1
  6
Continuous
 62
     3
100
AcDbLine
 10
51.4063704908677
 20
62.521163661408
 30
0.0
 11
51.3344954908677
 21
62.364913661408
 31
0.0
  0
LINE
  5
2CA
102
{ACAD_REACTORS
330
3F6
102
}
330
1F
100
AcDbEntity
  8
1
  6
Continuous
 62
     3
100
AcDbLine
 10
51.3344954908677
 20
62.364913661408
 30
0.0
 11
51.2985579908677
 21
62.177413661408
 31
0.0
  0
LINE
  5
2CB
102
{ACAD_REACTORS
330
3F6
102
}
330
1F
100
AcDbEntity
  8
1
  6
Continuous
 62
     3
100
AcDbLine
 10
51.2985579908677
 20
62.177413661408
 30
0.0
 11
51.2626204908677
 21
61.896163661408
 31
0.0
  0
LINE
  5
2CC
102
{ACAD_REACTORS
330
3F6
102
}
330
1F
100
AcDbEntity
  8
1
  6
Continuous
 62
     3
100
AcDbLine
 10
51.2626204908677
 20
61.896163661408
 30
0.0
 11
51.2626204908677
 21
61.646163661408
 31
0.0
  0
LINE
  5
2CD
102
{ACAD_REACTORS
330
3F6
102
}
330
1F
100
AcDbEntity
  8
1
  6
Continuous
 62
     3
100
AcDbLine
 10
51.2626204908677
 20
61.646163661408
 30
0.0
 11
51.2985579908677
 21
61.364913661408
 31
0.0
  0
LINE
  5
2CE
102
{ACAD_REACTORS
330
3F6
102
}
330
1F
100
AcDbEntity
  8
1
  6
Continuous
 62
     3
100
AcDbLine
 10
51.2985579908677
 20
61.364913661408
 30
0.0
 11
51.3344954908677
 21
61.177413661408
 31
0.0
  0
LINE
  5
2CF
102
{ACAD_REACTORS
330
3F6
102
}
330
1F
100
AcDbEntity
  8
1
  6
Continuous
 62
     3
100
AcDbLine
 10
51.3344954908677
 20
61.177413661408
 30
0.0
 11
51.4063704908677
 21
61.021163661408
 31
0.0
  0
LINE
  5
2D0
102
{ACAD_REACTORS
330
3F6
102
}
330
1F
100
AcDbEntity
  8
1
  6
Continuous
 62
     3
100
AcDbLine
 10
51.4063704908677
 20
61.021163661408
 30
0.0
 11
51.4782454908677
 21
60.896163661408
 31
0.0
  0
LINE
  5
2D1
102
{ACAD_REACTORS
330
3F6
102
}
330
1F
100
AcDbEntity
  8
1
  6
Continuous
 62
     3
100
AcDbLine
 10
51.4782454908677
 20
60.896163661408
 30
0.0
 11
51.5860579908677
 21
60.771163661408
 31
0.0
  0
LINE
  5
2D2
102
{ACAD_REACTORS
330
3F6
102
}
330
1F
100
AcDbEntity
  8
1
  6
Continuous
 62
     3
100
AcDbLine
 10
51.5860579908677
 20
60.771163661408
 30
0.0
 11
51.6938704908677
 21
60.677413661408
 31
0.0
  0
LINE
  5
2D3
102
{ACAD_REACTORS
330
3F6
102
}
330
1F
100
AcDbEntity
  8
1
  6
Continuous
 62
     3
100
AcDbLine
 10
51.6938704908677
 20
60.677413661408
 30
0.0
 11
51.8016829908677
 21
60.614913661408
 31
0.0
  0
LINE
  5
2D4
102
{ACAD_REACTORS
330
3F6
102
}
330
1F
100
AcDbEntity
  8
1
  6
Continuous
 62
     3
100
AcDbLine
 10
51.8016829908677
 20
60.614913661408
 30
0.0
 11
51.9813704908677
 21
60.552413661408
 31
0.0
  0
LINE
  5
2D5
102
{ACAD_REACTORS
330
3F6
102
}
330
1F
100
AcDbEntity
  8
1
  6
Continuous
 62
     3
100
AcDbLine
 10
51.9813704908677
 20
60.552413661408
 30
0.0
 11
52.1251204908677
 21
60.521163661408
 31
0.0
  0
LINE
  5
2D6
102
{ACAD_REACTORS
330
3F6
102
}
330
1F
100
AcDbEntity
  8
1
  6
Continuous
 62
     3
100
AcDbLine
 10
52.1251204908677
 20
60.521163661408
 30
0.0
 11
52.3766829908677
 21
60.521163661408
 31
0.0
  0
LINE
  5
2D7
102
{ACAD_REACTORS
330
3F6
102
}
330
1F
100
AcDbEntity
  8
1
  6
Continuous
 62
     3
100
AcDbLine
 10
52.3766829908677
 20
60.521163661408
 30
0.0
 11
52.5204329908677
 21
60.552413661408
 31
0.0
  0
LINE
  5
2D8
102
{ACAD_REACTORS
330
3F6
102
}
330
1F
100
AcDbEntity
  8
1
  6
Continuous
 62
     3
100
AcDbLine
 10
52.5204329908677
 20
60.552413661408
 30
0.0
 11
52.7001204908677
 21
60.614913661408
 31
0.0
  0
LINE
  5
2D9
102
{ACAD_REACTORS
330
3F6
102
}
330
1F
100
AcDbEntity
  8
1
  6
Continuous
 62
     3
100
AcDbLine
 10
52.7001204908677
 20
60.614913661408
 30
0.0
 11
52.8079329908677
 21
60.677413661408
 31
0.0
  0
LINE
  5
2DA
330
1F
100
AcDbEntity
  8
1
  6
Continuous
 62
     3
100
AcDbLine
 10
-6.91138021659585
 20
0.57602859212696
 30
0.0
 11
-4.06522637044201
 21
19.076028592127
 31
0.0
  0
LINE
  5
2DB
330
1F
100
AcDbEntity
  8
1
  6
Continuous
 62
     3
100
AcDbLine
 10
4.06522637044201
 20
19.076028592127
 30
0.0
 11
6.91138021659585
 21
0.57602859212696
 31
0.0
  0
LINE
  5
2DC
330
1F
100
AcDbEntity
  8
1
  6
Continuous
 62
     3
100
AcDbLine
 10
-8.68147683007098
 20
6.57589398172405
 30
0.0
 11
-8.68147683007098
 21
-13.0941802264235
 31
0.0
  0
LINE
  5
2DD
330
1F
100
AcDbEntity
  8
1
  6
Continuous
 62
     3
100
AcDbLine
 10
-10.0
 20
8.80776776131194
 30
0.0
 11
-10.0
 21
-11.6170068381446
 31
0.0
  0
LINE
  5
2DE
330
1F
100
AcDbEntity
  8
1
  6
Continuous
 62
     3
100
AcDbLine
 10
-6.41719436777054
 20
0.0
 30
0.0
 11
6.41719436777054
 21
0.0
 31
0.0
  0
LINE
  5
2DF
330
1F
100
AcDbEntity
  8
1
  6
DOT_CENTER
 62
     3
100
AcDbLine
 10
-28.3710650887575
 20
0.0
 30
0.0
 11
29.9267633591261
 21
0.0
 31
0.0
  0
LINE
  5
2E0
330
1F
100
AcDbEntity
  8
1
  6
Continuous
 62
     3
100
AcDbLine
 10
-8.0
 20
20.5
 30
0.0
 11
-8.0
 21
19.5
 31
0.0
  0
LINE
  5
2E1
330
1F
100
AcDbEntity
  8
1
  6
Continuous
 62
     3
100
AcDbLine
 10
9.3155364049104
 20
-23.3894643871077
 30
0.0
 11
9.3155364049104
 21
-22.2019643871077
 31
0.0
  0
LINE
  5
2E2
330
1F
100
AcDbEntity
  8
1
  6
Continuous
 62
     3
100
AcDbLine
 10
9.3155364049104
 20
-20.8894643871077
 30
0.0
 11
10.3155364049104
 21
-20.8894643871077
 31
0.0
  0
LINE
  5
2E3
330
1F
100
AcDbEntity
  8
1
  6
Continuous
 62
     3
100
AcDbLine
 10
10.3155364049104
 20
-20.8894643871077
 30
0.0
 11
10.5655364049104
 21
-21.0769643871077
 31
0.0
  0
LINE
  5
2E4
330
1F
100
AcDbEntity
  8
1
  6
Continuous
 62
     3
100
AcDbLine
 10
10.5655364049104
 20
-21.0769643871077
 30
0.0
 11
10.7530364049104
 21
-21.3269643871077
 31
0.0
  0
LINE
  5
2E5
330
1F
100
AcDbEntity
  8
1
  6
Continuous
 62
     3
100
AcDbLine
 10
10.7530364049104
 20
-21.3269643871077
 30
0.0
 11
10.8155364049104
 21
-21.5769643871077
 31
0.0
  0
LINE
  5
2E6
330
1F
100
AcDbEntity
  8
1
  6
Continuous
 62
     3
100
AcDbLine
 10
10.8155364049104
 20
-21.5769643871077
 30
0.0
 11
10.7530364049104
 21
-21.8894643871077
 31
0.0
  0
LINE
  5
2E7
330
1F
100
AcDbEntity
  8
1
  6
Continuous
 62
     3
100
AcDbLine
 10
10.7530364049104
 20
-21.8894643871077
 30
0.0
 11
10.5655364049104
 21
-22.0769643871077
 31
0.0
  0
LINE
  5
2E8
330
1F
100
AcDbEntity
  8
1
  6
Continuous
 62
     3
100
AcDbLine
 10
10.5655364049104
 20
-22.0769643871077
 30
0.0
 11
10.3155364049104
 21
-22.2019643871077
 31
0.0
  0
LINE
  5
2E9
330
1F
100
AcDbEntity
  8
1
  6
Continuous
 62
     3
100
AcDbLine
 10
10.3155364049104
 20
-22.2019643871077
 30
0.0
 11
9.3155364049104
 21
-22.2019643871077
 31
0.0
  0
LINE
  5
2EA
330
1F
100
AcDbEntity
  8
1
  6
Continuous
 62
     3
100
AcDbLine
 10
10.3155364049104
 20
-22.2019643871077
 30
0.0
 11
10.8780364049104
 21
-23.3894643871077
 31
0.0
  0
LINE
  5
2EB
330
1F
100
AcDbEntity
  8
1
  6
Continuous
 62
     3
100
AcDbLine
 10
9.3155364049104
 20
-22.2019643871077
 30
0.0
 11
9.3155364049104
 21
-20.8894643871077
 31
0.0
  0
LINE
  5
2EC
330
1F
100
AcDbEntity
  8
1
  6
Continuous
 62
     3
100
AcDbLine
 10
13.6905364049104
 20
-21.3894643871077
 30
0.0
 11
13.5030364049104
 21
-21.1394643871077
 31
0.0
  0
LINE
  5
2ED
330
1F
100
AcDbEntity
  8
1
  6
Continuous
 62
     3
100
AcDbLine
 10
13.5030364049104
 20
-21.1394643871077
 30
0.0
 11
13.2530364049104
 21
-20.9519643871077
 31
0.0
  0
LINE
  5
2EE
330
1F
100
AcDbEntity
  8
1
  6
Continuous
 62
     3
100
AcDbLine
 10
13.2530364049104
 20
-20.9519643871077
 30
0.0
 11
12.9405364049104
 21
-20.9519643871077
 31
0.0
  0
LINE
  5
2EF
330
1F
100
AcDbEntity
  8
1
  6
Continuous
 62
     3
100
AcDbLine
 10
12.9405364049104
 20
-20.9519643871077
 30
0.0
 11
12.6905364049104
 21
-20.9519643871077
 31
0.0
  0
LINE
  5
2F0
330
1F
100
AcDbEntity
  8
1
  6
Continuous
 62
     3
100
AcDbLine
 10
12.6905364049104
 20
-20.9519643871077
 30
0.0
 11
12.5655364049104
 21
-21.0769643871077
 31
0.0
  0
LINE
  5
2F1
330
1F
100
AcDbEntity
  8
1
  6
Continuous
 62
     3
100
AcDbLine
 10
12.5655364049104
 20
-21.0769643871077
 30
0.0
 11
12.3155364049104
 21
-21.2019643871077
 31
0.0
  0
LINE
  5
2F2
330
1F
100
AcDbEntity
  8
1
  6
Continuous
 62
     3
100
AcDbLine
 10
12.3155364049104
 20
-21.2019643871077
 30
0.0
 11
12.2530364049104
 21
-21.4519643871077
 31
0.0
  0
LINE
  5
2F3
330
1F
100
AcDbEntity
  8
1
  6
Continuous
 62
     3
100
AcDbLine
 10
12.2530364049104
 20
-21.4519643871077
 30
0.0
 11
12.3155364049104
 21
-21.8269643871077
 31
0.0
  0
LINE
  5
2F4
330
1F
100
AcDbEntity
  8
1
  6
Continuous
 62
     3
100
AcDbLine
 10
12.3155364049104
 20
-21.8269643871077
 30
0.0
 11
12.5030364049104
 21
-21.9519643871077
 31
0.0
  0
LINE
  5
2F5
330
1F
100
AcDbEntity
  8
1
  6
Continuous
 62
     3
100
AcDbLine
 10
12.5030364049104
 20
-21.9519643871077
 30
0.0
 11
12.6280364049104
 21
-22.0769643871077
 31
0.0
  0
LINE
  5
2F6
330
1F
100
AcDbEntity
  8
1
  6
Continuous
 62
     3
100
AcDbLine
 10
12.6280364049104
 20
-22.0769643871077
 30
0.0
 11
12.9405364049104
 21
-22.1394643871077
 31
0.0
  0
LINE
  5
2F7
330
1F
100
AcDbEntity
  8
1
  6
Continuous
 62
     3
100
AcDbLine
 10
12.9405364049104
 20
-22.1394643871077
 30
0.0
 11
13.2530364049104
 21
-22.1394643871077
 31
0.0
  0
LINE
  5
2F8
330
1F
100
AcDbEntity
  8
1
  6
Continuous
 62
     3
100
AcDbLine
 10
13.2530364049104
 20
-22.1394643871077
 30
0.0
 11
13.4405364049104
 21
-22.2019643871077
 31
0.0
  0
LINE
  5
2F9
330
1F
100
AcDbEntity
  8
1
  6
Continuous
 62
     3
100
AcDbLine
 10
13.4405364049104
 20
-22.2019643871077
 30
0.0
 11
13.6905364049104
 21
-22.4519643871077
 31
0.0
  0
LINE
  5
2FA
330
1F
100
AcDbEntity
  8
1
  6
Continuous
 62
     3
100
AcDbLine
 10
13.6905364049104
 20
-22.4519643871077
 30
0.0
 11
13.7530364049104
 21
-22.8269643871077
 31
0.0
  0
LINE
  5
2FB
330
1F
100
AcDbEntity
  8
1
  6
Continuous
 62
     3
100
AcDbLine
 10
13.7530364049104
 20
-22.8269643871077
 30
0.0
 11
13.6905364049104
 21
-23.1394643871077
 31
0.0
  0
LINE
  5
2FC
330
1F
100
AcDbEntity
  8
1
  6
Continuous
 62
     3
100
AcDbLine
 10
13.6905364049104
 20
-23.1394643871077
 30
0.0
 11
13.4405364049104
 21
-23.3269643871077
 31
0.0
  0
LINE
  5
2FD
330
1F
100
AcDbEntity
  8
1
  6
Continuous
 62
     3
100
AcDbLine
 10
13.4405364049104
 20
-23.3269643871077
 30
0.0
 11
13.2530364049104
 21
-23.3894643871077
 31
0.0
  0
LINE
  5
2FE
330
1F
100
AcDbEntity
  8
1
  6
Continuous
 62
     3
100
AcDbLine
 10
13.2530364049104
 20
-23.3894643871077
 30
0.0
 11
12.9405364049104
 21
-23.3894643871077
 31
0.0
  0
LINE
  5
2FF
330
1F
100
AcDbEntity
  8
1
  6
Continuous
 62
     3
100
AcDbLine
 10
12.9405364049104
 20
-23.3894643871077
 30
0.0
 11
12.6280364049104
 21
-23.3269643871077
 31
0.0
  0
LINE
  5
300
330
1F
100
AcDbEntity
  8
1
  6
Continuous
 62
     3
100
AcDbLine
 10
12.6280364049104
 20
-23.3269643871077
 30
0.0
 11
12.4405364049104
 21
-23.1394643871077
 31
0.0
  0
LINE
  5
301
330
1F
100
AcDbEntity
  8
1
  6
Continuous
 62
     3
100
AcDbLine
 10
12.4405364049104
 20
-23.1394643871077
 30
0.0
 11
12.2530364049104
 21
-22.8269643871077
 31
0.0
  0
LINE
  5
302
330
1F
100
AcDbEntity
  8
1
  6
Continuous
 62
     3
100
AcDbLine
 10
16.6280364049104
 20
-21.3894643871077
 30
0.0
 11
16.4405364049104
 21
-21.1394643871077
 31
0.0
  0
LINE
  5
303
330
1F
100
AcDbEntity
  8
1
  6
Continuous
 62
     3
100
AcDbLine
 10
16.4405364049104
 20
-21.1394643871077
 30
0.0
 11
16.1905364049104
 21
-20.9519643871077
 31
0.0
  0
LINE
  5
304
330
1F
100
AcDbEntity
  8
1
  6
Continuous
 62
     3
100
AcDbLine
 10
16.1905364049104
 20
-20.9519643871077
 30
0.0
 11
15.8780364049104
 21
-20.9519643871077
 31
0.0
  0
LINE
  5
305
330
1F
100
AcDbEntity
  8
1
  6
Continuous
 62
     3
100
AcDbLine
 10
15.8780364049104
 20
-20.9519643871077
 30
0.0
 11
15.6280364049104
 21
-20.9519643871077
 31
0.0
  0
LINE
  5
306
330
1F
100
AcDbEntity
  8
1
  6
Continuous
 62
     3
100
AcDbLine
 10
15.6280364049104
 20
-20.9519643871077
 30
0.0
 11
15.5030364049104
 21
-21.0769643871077
 31
0.0
  0
LINE
  5
307
330
1F
100
AcDbEntity
  8
1
  6
Continuous
 62
     3
100
AcDbLine
 10
15.5030364049104
 20
-21.0769643871077
 30
0.0
 11
15.2530364049104
 21
-21.2019643871077
 31
0.0
  0
LINE
  5
308
330
1F
100
AcDbEntity
  8
1
  6
Continuous
 62
     3
100
AcDbLine
 10
15.2530364049104
 20
-21.2019643871077
 30
0.0
 11
15.1905364049104
 21
-21.4519643871077
 31
0.0
  0
LINE
  5
309
330
1F
100
AcDbEntity
  8
1
  6
Continuous
 62
     3
100
AcDbLine
 10
15.1905364049104
 20
-21.4519643871077
 30
0.0
 11
15.2530364049104
 21
-21.8269643871077
 31
0.0
  0
LINE
  5
30A
330
1F
100
AcDbEntity
  8
1
  6
Continuous
 62
     3
100
AcDbLine
 10
15.2530364049104
 20
-21.8269643871077
 30
0.0
 11
15.4405364049104
 21
-21.9519643871077
 31
0.0
  0
LINE
  5
30B
330
1F
100
AcDbEntity
  8
1
  6
Continuous
 62
     3
100
AcDbLine
 10
15.4405364049104
 20
-21.9519643871077
 30
0.0
 11
15.5655364049104
 21
-22.0769643871077
 31
0.0
  0
LINE
  5
30C
330
1F
100
AcDbEntity
  8
1
  6
Continuous
 62
     3
100
AcDbLine
 10
15.5655364049104
 20
-22.0769643871077
 30
0.0
 11
15.8780364049104
 21
-22.1394643871077
 31
0.0
  0
LINE
  5
30D
330
1F
100
AcDbEntity
  8
1
  6
Continuous
 62
     3
100
AcDbLine
 10
15.8780364049104
 20
-22.1394643871077
 30
0.0
 11
16.1905364049104
 21
-22.1394643871077
 31
0.0
  0
LINE
  5
30E
330
1F
100
AcDbEntity
  8
1
  6
Continuous
 62
     3
100
AcDbLine
 10
16.1905364049104
 20
-22.1394643871077
 30
0.0
 11
16.3780364049104
 21
-22.2019643871077
 31
0.0
  0
LINE
  5
30F
330
1F
100
AcDbEntity
  8
1
  6
Continuous
 62
     3
100
AcDbLine
 10
16.3780364049104
 20
-22.2019643871077
 30
0.0
 11
16.6280364049104
 21
-22.4519643871077
 31
0.0
  0
LINE
  5
310
330
1F
100
AcDbEntity
  8
1
  6
Continuous
 62
     3
100
AcDbLine
 10
16.6280364049104
 20
-22.4519643871077
 30
0.0
 11
16.6905364049104
 21
-22.8269643871077
 31
0.0
  0
LINE
  5
311
330
1F
100
AcDbEntity
  8
1
  6
Continuous
 62
     3
100
AcDbLine
 10
16.6905364049104
 20
-22.8269643871077
 30
0.0
 11
16.6280364049104
 21
-23.1394643871077
 31
0.0
  0
LINE
  5
312
330
1F
100
AcDbEntity
  8
1
  6
Continuous
 62
     3
100
AcDbLine
 10
16.6280364049104
 20
-23.1394643871077
 30
0.0
 11
16.3780364049104
 21
-23.3269643871077
 31
0.0
  0
LINE
  5
313
330
1F
100
AcDbEntity
  8
1
  6
Continuous
 62
     3
100
AcDbLine
 10
16.3780364049104
 20
-23.3269643871077
 30
0.0
 11
16.1905364049104
 21
-23.3894643871077
 31
0.0
  0
LINE
  5
314
330
1F
100
AcDbEntity
  8
1
  6
Continuous
 62
     3
100
AcDbLine
 10
16.1905364049104
 20
-23.3894643871077
 30
0.0
 11
15.8780364049104
 21
-23.3894643871077
 31
0.0
  0
LINE
  5
315
330
1F
100
AcDbEntity
  8
1
  6
Continuous
 62
     3
100
AcDbLine
 10
15.8780364049104
 20
-23.3894643871077
 30
0.0
 11
15.5655364049104
 21
-23.3269643871077
 31
0.0
  0
LINE
  5
316
330
1F
100
AcDbEntity
  8
1
  6
Continuous
 62
     3
100
AcDbLine
 10
15.5655364049104
 20
-23.3269643871077
 30
0.0
 11
15.3780364049104
 21
-23.1394643871077
 31
0.0
  0
LINE
  5
317
330
1F
100
AcDbEntity
  8
1
  6
Continuous
 62
     3
100
AcDbLine
 10
15.3780364049104
 20
-23.1394643871077
 30
0.0
 11
15.1905364049104
 21
-22.8269643871077
 31
0.0
  0
LINE
  5
318
330
1F
100
AcDbEntity
  8
1
  6
Continuous
 62
     3
100
AcDbLine
 10
18.1280364049104
 20
-22.1394643871077
 30
0.0
 11
19.4405364049104
 21
-22.1394643871077
 31
0.0
  0
LINE
  5
319
330
1F
100
AcDbEntity
  8
1
  6
Continuous
 62
     3
100
AcDbLine
 10
21.5030364049104
 20
-21.1394643871077
 30
0.0
 11
21.8780364049104
 21
-20.8894643871077
 31
0.0
  0
LINE
  5
31A
330
1F
100
AcDbEntity
  8
1
  6
Continuous
 62
     3
100
AcDbLine
 10
21.8780364049104
 20
-20.8894643871077
 30
0.0
 11
21.8780364049104
 21
-23.3894643871077
 31
0.0
  0
LINE
  5
31B
330
1F
100
AcDbEntity
  8
1
  6
Continuous
 62
     3
100
AcDbLine
 10
25.1280364049104
 20
-23.3894643871077
 30
0.0
 11
25.1280364049104
 21
-20.8894643871077
 31
0.0
  0
LINE
  5
31C
330
1F
100
AcDbEntity
  8
1
  6
Continuous
 62
     3
100
AcDbLine
 10
25.1280364049104
 20
-20.8894643871077
 30
0.0
 11
23.8155364049104
 21
-22.8269643871077
 31
0.0
  0
LINE
  5
31D
330
1F
100
AcDbEntity
  8
1
  6
Continuous
 62
     3
100
AcDbLine
 10
23.8155364049104
 20
-22.8269643871077
 30
0.0
 11
25.5655364049104
 21
-22.8269643871077
 31
0.0
  0
LINE
  5
31E
330
1F
100
AcDbEntity
  8
1
  6
Continuous
 62
     3
100
AcDbLine
 10
26.9405364049104
 20
-22.1394643871077
 30
0.0
 11
28.2530364049104
 21
-22.1394643871077
 31
0.0
  0
LINE
  5
31F
330
1F
100
AcDbEntity
  8
1
  6
Continuous
 62
     3
100
AcDbLine
 10
30.5655364049104
 20
-20.8894643871077
 30
0.0
 11
30.1280364049104
 21
-21.0769643871077
 31
0.0
  0
LINE
  5
320
330
1F
100
AcDbEntity
  8
1
  6
Continuous
 62
     3
100
AcDbLine
 10
30.1280364049104
 20
-21.0769643871077
 30
0.0
 11
29.8780364049104
 21
-21.4519643871077
 31
0.0
  0
LINE
  5
321
330
1F
100
AcDbEntity
  8
1
  6
Continuous
 62
     3
100
AcDbLine
 10
29.8780364049104
 20
-21.4519643871077
 30
0.0
 11
29.7530364049104
 21
-22.1394643871077
 31
0.0
  0
LINE
  5
322
330
1F
100
AcDbEntity
  8
1
  6
Continuous
 62
     3
100
AcDbLine
 10
29.7530364049104
 20
-22.1394643871077
 30
0.0
 11
29.8780364049104
 21
-22.8269643871077
 31
0.0
  0
LINE
  5
323
330
1F
100
AcDbEntity
  8
1
  6
Continuous
 62
     3
100
AcDbLine
 10
29.8780364049104
 20
-22.8269643871077
 30
0.0
 11
30.1280364049104
 21
-23.2019643871077
 31
0.0
  0
LINE
  5
324
330
1F
100
AcDbEntity
  8
1
  6
Continuous
 62
     3
100
AcDbLine
 10
30.1280364049104
 20
-23.2019643871077
 30
0.0
 11
30.5655364049104
 21
-23.3894643871077
 31
0.0
  0
LINE
  5
325
330
1F
100
AcDbEntity
  8
1
  6
Continuous
 62
     3
100
AcDbLine
 10
30.5655364049104
 20
-23.3894643871077
 30
0.0
 11
31.0030364049104
 21
-23.2019643871077
 31
0.0
  0
LINE
  5
326
330
1F
100
AcDbEntity
  8
1
  6
Continuous
 62
     3
100
AcDbLine
 10
31.0030364049104
 20
-23.2019643871077
 30
0.0
 11
31.3155364049104
 21
-22.8269643871077
 31
0.0
  0
LINE
  5
327
330
1F
100
AcDbEntity
  8
1
  6
Continuous
 62
     3
100
AcDbLine
 10
31.3155364049104
 20
-22.8269643871077
 30
0.0
 11
31.3780364049104
 21
-22.1394643871077
 31
0.0
  0
LINE
  5
328
330
1F
100
AcDbEntity
  8
1
  6
Continuous
 62
     3
100
AcDbLine
 10
31.3780364049104
 20
-22.1394643871077
 30
0.0
 11
31.3155364049104
 21
-21.4519643871077
 31
0.0
  0
LINE
  5
329
330
1F
100
AcDbEntity
  8
1
  6
Continuous
 62
     3
100
AcDbLine
 10
31.3155364049104
 20
-21.4519643871077
 30
0.0
 11
31.0030364049104
 21
-21.0769643871077
 31
0.0
  0
LINE
  5
32A
330
1F
100
AcDbEntity
  8
1
  6
Continuous
 62
     3
100
AcDbLine
 10
31.0030364049104
 20
-21.0769643871077
 30
0.0
 11
30.5655364049104
 21
-20.8894643871077
 31
0.0
  0
LINE
  5
32B
330
1F
100
AcDbEntity
  8
1
  6
Continuous
 62
     3
100
AcDbLine
 10
33.5030364049104
 20
-20.8894643871077
 30
0.0
 11
33.1280364049104
 21
-20.9519643871077
 31
0.0
  0
LINE
  5
32C
330
1F
100
AcDbEntity
  8
1
  6
Continuous
 62
     3
100
AcDbLine
 10
33.1280364049104
 20
-20.9519643871077
 30
0.0
 11
32.8780364049104
 21
-21.2019643871077
 31
0.0
  0
LINE
  5
32D
330
1F
100
AcDbEntity
  8
1
  6
Continuous
 62
     3
100
AcDbLine
 10
32.8780364049104
 20
-21.2019643871077
 30
0.0
 11
32.8155364049104
 21
-21.4519643871077
 31
0.0
  0
LINE
  5
32E
330
1F
100
AcDbEntity
  8
1
  6
Continuous
 62
     3
100
AcDbLine
 10
32.8155364049104
 20
-21.4519643871077
 30
0.0
 11
32.8780364049104
 21
-21.7019643871077
 31
0.0
  0
LINE
  5
32F
330
1F
100
AcDbEntity
  8
1
  6
Continuous
 62
     3
100
AcDbLine
 10
32.8780364049104
 20
-21.7019643871077
 30
0.0
 11
33.1280364049104
 21
-21.9519643871077
 31
0.0
  0
LINE
  5
330
330
1F
100
AcDbEntity
  8
1
  6
Continuous
 62
     3
100
AcDbLine
 10
33.1280364049104
 20
-21.9519643871077
 30
0.0
 11
33.4405364049104
 21
-22.0769643871077
 31
0.0
  0
LINE
  5
331
330
1F
100
AcDbEntity
  8
1
  6
Continuous
 62
     3
100
AcDbLine
 10
33.4405364049104
 20
-22.0769643871077
 30
0.0
 11
33.6280364049104
 21
-22.0769643871077
 31
0.0
  0
LINE
  5
332
330
1F
100
AcDbEntity
  8
1
  6
Continuous
 62
     3
100
AcDbLine
 10
33.6280364049104
 20
-22.0769643871077
 30
0.0
 11
33.9405364049104
 21
-22.1394643871077
 31
0.0
  0
LINE
  5
333
330
1F
100
AcDbEntity
  8
1
  6
Continuous
 62
     3
100
AcDbLine
 10
33.9405364049104
 20
-22.1394643871077
 30
0.0
 11
34.2530364049104
 21
-22.3894643871077
 31
0.0
  0
LINE
  5
334
330
1F
100
AcDbEntity
  8
1
  6
Continuous
 62
     3
100
AcDbLine
 10
34.2530364049104
 20
-22.3894643871077
 30
0.0
 11
34.3780364049104
 21
-22.7019643871077
 31
0.0
  0
LINE
  5
335
330
1F
100
AcDbEntity
  8
1
  6
Continuous
 62
     3
100
AcDbLine
 10
34.3780364049104
 20
-22.7019643871077
 30
0.0
 11
34.2530364049104
 21
-23.1394643871077
 31
0.0
  0
LINE
  5
336
330
1F
100
AcDbEntity
  8
1
  6
Continuous
 62
     3
100
AcDbLine
 10
34.2530364049104
 20
-23.1394643871077
 30
0.0
 11
33.9405364049104
 21
-23.3269643871077
 31
0.0
  0
LINE
  5
337
330
1F
100
AcDbEntity
  8
1
  6
Continuous
 62
     3
100
AcDbLine
 10
33.9405364049104
 20
-23.3269643871077
 30
0.0
 11
33.5030364049104
 21
-23.3894643871077
 31
0.0
  0
LINE
  5
338
330
1F
100
AcDbEntity
  8
1
  6
Continuous
 62
     3
100
AcDbLine
 10
33.5030364049104
 20
-23.3894643871077
 30
0.0
 11
33.0655364049104
 21
-23.3269643871077
 31
0.0
  0
LINE
  5
339
330
1F
100
AcDbEntity
  8
1
  6
Continuous
 62
     3
100
AcDbLine
 10
33.0655364049104
 20
-23.3269643871077
 30
0.0
 11
32.8155364049104
 21
-23.1394643871077
 31
0.0
  0
LINE
  5
33A
330
1F
100
AcDbEntity
  8
1
  6
Continuous
 62
     3
100
AcDbLine
 10
32.8155364049104
 20
-23.1394643871077
 30
0.0
 11
32.6905364049104
 21
-22.7019643871077
 31
0.0
  0
LINE
  5
33B
330
1F
100
AcDbEntity
  8
1
  6
Continuous
 62
     3
100
AcDbLine
 10
32.6905364049104
 20
-22.7019643871077
 30
0.0
 11
32.7530364049104
 21
-22.3894643871077
 31
0.0
  0
LINE
  5
33C
330
1F
100
AcDbEntity
  8
1
  6
Continuous
 62
     3
100
AcDbLine
 10
32.7530364049104
 20
-22.3894643871077
 30
0.0
 11
33.0030364049104
 21
-22.2019643871077
 31
0.0
  0
LINE
  5
33D
330
1F
100
AcDbEntity
  8
1
  6
Continuous
 62
     3
100
AcDbLine
 10
33.0030364049104
 20
-22.2019643871077
 30
0.0
 11
33.1280364049104
 21
-22.1394643871077
 31
0.0
  0
LINE
  5
33E
330
1F
100
AcDbEntity
  8
1
  6
Continuous
 62
     3
100
AcDbLine
 10
33.1280364049104
 20
-22.1394643871077
 30
0.0
 11
33.4405364049104
 21
-22.0769643871077
 31
0.0
  0
LINE
  5
33F
330
1F
100
AcDbEntity
  8
1
  6
Continuous
 62
     3
100
AcDbLine
 10
33.4405364049104
 20
-22.0769643871077
 30
0.0
 11
33.6280364049104
 21
-22.0769643871077
 31
0.0
  0
LINE
  5
340
330
1F
100
AcDbEntity
  8
1
  6
Continuous
 62
     3
100
AcDbLine
 10
33.6280364049104
 20
-22.0769643871077
 30
0.0
 11
33.9405364049104
 21
-21.9519643871077
 31
0.0
  0
LINE
  5
341
330
1F
100
AcDbEntity
  8
1
  6
Continuous
 62
     3
100
AcDbLine
 10
33.9405364049104
 20
-21.9519643871077
 30
0.0
 11
34.1280364049104
 21
-21.7019643871077
 31
0.0
  0
LINE
  5
342
330
1F
100
AcDbEntity
  8
1
  6
Continuous
 62
     3
100
AcDbLine
 10
34.1280364049104
 20
-21.7019643871077
 30
0.0
 11
34.2530364049104
 21
-21.4519643871077
 31
0.0
  0
LINE
  5
343
330
1F
100
AcDbEntity
  8
1
  6
Continuous
 62
     3
100
AcDbLine
 10
34.2530364049104
 20
-21.4519643871077
 30
0.0
 11
34.1280364049104
 21
-21.2019643871077
 31
0.0
  0
LINE
  5
344
330
1F
100
AcDbEntity
  8
1
  6
Continuous
 62
     3
100
AcDbLine
 10
34.1280364049104
 20
-21.2019643871077
 30
0.0
 11
34.0655364049104
 21
-21.0769643871077
 31
0.0
  0
LINE
  5
345
330
1F
100
AcDbEntity
  8
1
  6
Continuous
 62
     3
100
AcDbLine
 10
34.0655364049104
 20
-21.0769643871077
 30
0.0
 11
33.8780364049104
 21
-20.9519643871077
 31
0.0
  0
LINE
  5
346
330
1F
100
AcDbEntity
  8
1
  6
Continuous
 62
     3
100
AcDbLine
 10
33.8780364049104
 20
-20.9519643871077
 30
0.0
 11
33.5030364049104
 21
-20.8894643871077
 31
0.0
  0
LINE
  5
347
330
1F
100
AcDbEntity
  8
1
  6
DOT_CENTER
 62
     3
100
AcDbLine
 10
-45.0834800299552
 20
0.0
 30
0.0
 11
-94.8993410679274
 21
0.0
 31
0.0
  0
LINE
  5
348
330
1F
100
AcDbEntity
  8
1
  6
Continuous
 62
     3
100
AcDbLine
 10
-66.4900530943639
 20
26.0773502691896
 30
0.0
 11
-66.4900530943639
 21
29.9226497308104
 31
0.0
  0
ARC
  5
349
330
1F
100
AcDbEntity
  8
1
  6
Continuous
 62
     3
100
AcDbCircle
 10
15.5
 20
14.5
 30
0.0
 40
0.5
100
AcDbArc
 50
90.0
 51
180.0
  0
ARC
  5
34A
330
1F
100
AcDbEntity
  8
1
  6
Continuous
 62
     3
100
AcDbCircle
 10
14.5
 20
14.5
 30
0.0
 40
0.5
100
AcDbArc
 50
270.0
 51
0.0
  0
ARC
  5
34B
330
1F
100
AcDbEntity
  8
1
  6
Continuous
 62
     3
100
AcDbCircle
 10
15.5
 20
-14.5
 30
0.0
 40
0.5
100
AcDbArc
 50
180.0
 51
270.0
  0
ARC
  5
34C
330
1F
100
AcDbEntity
  8
1
  6
Continuous
 62
     3
100
AcDbCircle
 10
14.5
 20
-14.5
 30
0.0
 40
0.5
100
AcDbArc
 50
0.0
 51
90.0
  0
ARC
  5
34D
330
1F
100
AcDbEntity
  8
1
  6
Continuous
 62
     3
100
AcDbCircle
 10
-8.64585330507703
 20
-12.5954508765081
 30
0.0
 40
0.500000000000001
100
AcDbArc
 50
209.9999999999999
 51
265.9143832200257
  0
ARC
  5
34E
330
1F
100
AcDbEntity
  8
1
  6
Continuous
 62
     3
100
AcDbCircle
 10
13.4447656140778
 20
16.0
 30
0.0
 40
1.999999999999957
100
AcDbArc
 50
187.0000000000003
 51
270.0
  0
ARC
  5
34F
330
1F
100
AcDbEntity
  8
1
  6
Continuous
 62
     3
100
AcDbCircle
 10
10.115274735444
 20
18.5
 30
0.0
 40
0.9999999999999841
100
AcDbArc
 50
7.00000000000322
 51
90.0
  0
ARC
  5
350
330
1F
100
AcDbEntity
  8
1
  6
Continuous
 62
     3
100
AcDbCircle
 10
-10.1152747354441
 20
18.5
 30
0.0
 40
1.0
100
AcDbArc
 50
90.0
 51
172.9999999999968
  0
ARC
  5
351
330
1F
100
AcDbEntity
  8
1
  6
Continuous
 62
     3
100
AcDbCircle
 10
-11.1547005383793
 20
-13.25
 30
0.0
 40
2.000000000000003
100
AcDbArc
 50
29.99999999999996
 51
90.0
  0
ARC
  5
352
330
1F
100
AcDbEntity
  8
1
  6
Continuous
 62
     3
100
AcDbCircle
 10
-13.7824231565609
 20
13.25
 30
0.0
 40
2.0
100
AcDbArc
 50
270.0
 51
353.0000000000001
  0
ARC
  5
353
330
1F
100
AcDbEntity
  8
1
  6
Continuous
 62
     3
100
AcDbCircle
 10
21.8149545762236
 20
35.5
 30
0.0
 40
3.0
100
AcDbArc
 50
90.0
 51
149.9999999999998
  0
ARC
  5
354
330
1F
100
AcDbEntity
  8
1
  6
Continuous
 62
     3
100
AcDbCircle
 10
23.5470053837925
 20
33.5
 30
0.0
 40
1.0
100
AcDbArc
 50
90.0
 51
150.0000000000017
  0
ARC
  5
355
330
1F
100
AcDbEntity
  8
1
  6
Continuous
 62
     3
100
AcDbCircle
 10
16.5
 20
29.2942286340601
 30
0.0
 40
1.499999999999949
100
AcDbArc
 50
149.9999999999989
 51
180.0
  0
ARC
  5
356
330
1F
100
AcDbEntity
  8
1
  6
Continuous
 62
     3
100
AcDbCircle
 10
11.7113248654051
 20
24.0
 30
0.0
 40
0.5
100
AcDbArc
 50
270.0
 51
330.0000000000047
  0
ARC
  5
357
330
1F
100
AcDbEntity
  8
1
  6
Continuous
 62
     3
100
AcDbCircle
 10
14.0207259421637
 20
21.0
 30
0.0
 40
0.5
100
AcDbArc
 50
270.0
 51
329.9999999999989
  0
ARC
  5
358
330
1F
100
AcDbEntity
  8
1
  6
Continuous
 62
     3
100
AcDbCircle
 10
22.0
 20
14.0
 30
0.0
 40
1.0
100
AcDbArc
 50
0.0
 51
90.0
  0
ARC
  5
359
330
1F
100
AcDbEntity
  8
1
  6
Continuous
 62
     3
100
AcDbCircle
 10
24.0
 20
12.25
 30
0.0
 40
1.0
100
AcDbArc
 50
180.0
 51
270.0
  0
ARC
  5
35A
330
1F
100
AcDbEntity
  8
1
  6
Continuous
 62
     3
100
AcDbCircle
 10
24.0
 20
-12.25
 30
0.0
 40
1.0
100
AcDbArc
 50
90.0
 51
180.0
  0
ARC
  5
35B
330
1F
100
AcDbEntity
  8
1
  6
Continuous
 62
     3
100
AcDbCircle
 10
22.0
 20
-14.0
 30
0.0
 40
1.0
100
AcDbArc
 50
270.0
 51
0.0
  0
ARC
  5
35C
330
1F
100
AcDbEntity
  8
1
  6
Continuous
 62
     3
100
AcDbCircle
 10
3.75407620402399
 20
47.5000000000001
 30
0.0
 40
2.0
100
AcDbArc
 50
270.0
 51
339.9999999999982
  0
ARC
  5
35D
330
1F
100
AcDbEntity
  8
1
  6
Continuous
 62
     3
100
AcDbCircle
 10
-3.754076204024
 20
47.5000000000001
 30
0.0
 40
1.999999999999988
100
AcDbArc
 50
200.0000000000021
 51
270.0
  0
ARC
  5
35E
330
1F
100
AcDbEntity
  8
1
  6
Continuous
 62
     3
100
AcDbCircle
 10
-48.3563429294808
 20
2.0
 30
0.0
 40
2.0
100
AcDbArc
 50
270.0
 51
6.99999999999942
  0
ARC
  5
35F
330
1F
100
AcDbEntity
  8
1
  6
Continuous
 62
     3
100
AcDbCircle
 10
-50.2595036234758
 20
17.5
 30
0.0
 40
1.999999999999956
100
AcDbArc
 50
7.00000000000029
 51
90.0
  0
ARC
  5
360
330
1F
100
AcDbEntity
  8
1
  6
Continuous
 62
     3
100
AcDbCircle
 10
-82.720602565252
 20
17.5
 30
0.0
 40
2.0
100
AcDbArc
 50
90.0
 51
172.9999999999997
  0
ARC
  5
361
330
1F
100
AcDbEntity
  8
1
  6
Continuous
 62
     3
100
AcDbCircle
 10
-71.7996652243798
 20
36.5
 30
0.0
 40
2.0
100
AcDbArc
 50
90.0
 51
175.0000000000005
  0
ARC
  5
362
330
1F
100
AcDbEntity
  8
1
  6
Continuous
 62
     3
100
AcDbCircle
 10
-61.180440964348
 20
36.5
 30
0.0
 40
2.000000000000012
100
AcDbArc
 50
4.99999999999956
 51
90.0
  0
ARC
  5
363
330
1F
100
AcDbEntity
  8
1
  6
Continuous
 62
     3
100
AcDbCircle
 10
-58.9265764947916
 20
29.0961524227066
 30
0.0
 40
0.3999999999999986
100
AcDbArc
 50
270.0
 51
5.00000000000573
  0
ARC
  5
364
330
1F
100
AcDbEntity
  8
1
  6
Continuous
 62
     3
100
AcDbCircle
 10
-74.0535296939362
 20
29.0961524227066
 30
0.0
 40
0.4000000000000133
100
AcDbArc
 50
174.9999999999945
 51
270.0
  0
ARC
  5
365
330
1F
100
AcDbEntity
  8
1
  6
Continuous
 62
     3
100
AcDbCircle
 10
14.7
 20
57.2602150286324
 30
0.0
 40
0.3000000000000023
100
AcDbArc
 50
294.999999999998
 51
0.0
  0
ARC
  5
366
330
1F
100
AcDbEntity
  8
1
  6
Continuous
 62
     3
100
AcDbCircle
 10
13.25
 20
79.5
 30
0.0
 40
2.0
100
AcDbArc
 50
180.0
 51
270.0
  0
ARC
  5
367
330
1F
100
AcDbEntity
  8
1
  6
Continuous
 62
     3
100
AcDbCircle
 10
-13.25
 20
76.75
 30
0.0
 40
2.0
100
AcDbArc
 50
270.0
 51
0.0
  0
ARC
  5
368
330
1F
100
AcDbEntity
  8
1
  6
Continuous
 62
     3
100
AcDbCircle
 10
3.75407620402399
 20
79.5
 30
0.0
 40
2.000000000000013
100
AcDbArc
 50
20.00000000000163
 51
90.0
  0
ARC
  5
369
330
1F
100
AcDbEntity
  8
1
  6
Continuous
 62
     3
100
AcDbCircle
 10
-3.754076204024
 20
79.5
 30
0.0
 40
2.0
100
AcDbArc
 50
90.0
 51
159.9999999999981
  0
ARC
  5
36A
330
1F
100
AcDbEntity
  8
1
  6
Continuous
 62
     3
100
AcDbCircle
 10
14.5
 20
49.0
 30
0.0
 40
0.5
100
AcDbArc
 50
0.0
 51
90.0
  0
ARC
  5
36B
330
1F
100
AcDbEntity
  8
1
  6
Continuous
 62
     3
100
AcDbCircle
 10
15.5
 20
49.0
 30
0.0
 40
0.5
100
AcDbArc
 50
180.0
 51
270.0
  0
ARC
  5
36C
330
1F
100
AcDbEntity
  8
1
  6
Continuous
 62
     3
100
AcDbCircle
 10
14.5
 20
78.0
 30
0.0
 40
0.5
100
AcDbArc
 50
270.0
 51
0.0
  0
ARC
  5
36D
330
1F
100
AcDbEntity
  8
1
  6
Continuous
 62
     3
100
AcDbCircle
 10
15.5
 20
78.0
 30
0.0
 40
0.5
100
AcDbArc
 50
90.0
 51
180.0
  0
ARC
  5
36E
330
1F
100
AcDbEntity
  8
1
  6
Continuous
 62
     3
100
AcDbCircle
 10
-11.1547005383793
 20
50.25
 30
0.0
 40
2.000000000000003
100
AcDbArc
 50
29.99999999999996
 51
90.0
  0
ARC
  5
36F
330
1F
100
AcDbEntity
  8
1
  6
Continuous
 62
     3
100
AcDbCircle
 10
-8.64585330507703
 20
50.9045491234919
 30
0.0
 40
0.500000000000001
100
AcDbArc
 50
209.9999999999999
 51
265.9143832200257
  0
ARC
  5
370
330
1F
100
AcDbEntity
  8
1
  6
Continuous
 62
     3
100
AcDbCircle
 10
57.4707177020405
 20
67.525341600907
 30
0.0
 40
1.0
100
AcDbArc
 50
20.00000000000176
 51
87.90000000000335
  0
ARC
  5
371
330
1F
100
AcDbEntity
  8
1
  6
Continuous
 62
     3
100
AcDbCircle
 10
57.4707177020405
 20
59.474658399093
 30
0.0
 40
1.000000000000049
100
AcDbArc
 50
272.1000000000024
 51
339.9999999999978
  0
ARC
  5
372
102
{ACAD_REACTORS
330
3E7
102
}
330
1F
100
AcDbEntity
  8
1
  6
Continuous
 62
     3
100
AcDbCircle
 10
26.1200160000001
 20
62.5
 30
0.0
 40
2.0
100
AcDbArc
 50
270.0
 51
0.0
  0
ARC
  5
373
102
{ACAD_REACTORS
330
3E7
102
}
330
1F
100
AcDbEntity
  8
1
  6
Continuous
 62
     3
100
AcDbCircle
 10
26.1200160000001
 20
62.5
 30
0.0
 40
1.0
100
AcDbArc
 50
270.0
 51
0.0
  0
ARC
  5
374
330
1F
100
AcDbEntity
  8
1
  6
Continuous
 62
     3
100
AcDbCircle
 10
24.0
 20
51.25
 30
0.0
 40
1.0
100
AcDbArc
 50
90.0
 51
180.0
  0
ARC
  5
375
330
1F
100
AcDbEntity
  8
1
  6
Continuous
 62
     3
100
AcDbCircle
 10
22.0
 20
49.5
 30
0.0
 40
1.0
100
AcDbArc
 50
270.0
 51
0.0
  0
ARC
  5
376
330
1F
100
AcDbEntity
  8
1
  6
Continuous
 62
     3
100
AcDbCircle
 10
22.0
 20
77.5
 30
0.0
 40
1.0
100
AcDbArc
 50
0.0
 51
90.0
  0
ARC
  5
377
330
1F
100
AcDbEntity
  8
1
  6
Continuous
 62
     3
100
AcDbCircle
 10
24.0
 20
75.75
 30
0.0
 40
1.0
100
AcDbArc
 50
180.0
 51
270.0
  0
ARC
  5
378
330
1F
100
AcDbEntity
  8
1
  6
Continuous
 62
     3
100
AcDbCircle
 10
-9.36493283554131
 20
58.5
 30
0.0
 40
2.999999999999989
100
AcDbArc
 50
180.0
 51
270.0
  0
ARC
  5
379
330
1F
100
AcDbEntity
  8
1
  6
Continuous
 62
     3
100
AcDbCircle
 10
14.7
 20
69.7397849713677
 30
0.0
 40
0.3000000000000007
100
AcDbArc
 50
0.0
 51
65.00000000000257
  0
ARC
  5
37A
330
1F
100
AcDbEntity
  8
1
  6
Continuous
 62
     3
100
AcDbCircle
 10
6.41719436777054
 20
0.5
 30
0.0
 40
0.5
100
AcDbArc
 50
270.0
 51
8.74616226255398
  0
ARC
  5
37B
330
1F
100
AcDbEntity
  8
1
  6
Continuous
 62
     3
100
AcDbCircle
 10
-6.41719436777054
 20
0.5
 30
0.0
 40
0.5000000000000001
100
AcDbArc
 50
171.253837737446
 51
270.0
  0
ARC
  5
37C
330
1F
100
AcDbEntity
  8
1
  6
Continuous
 62
     3
100
AcDbCircle
 10
3.5710405216167
 20
19.0
 30
0.0
 40
0.500000000000006
100
AcDbArc
 50
8.7461622625584
 51
90.0
  0
ARC
  5
37D
330
1F
100
AcDbEntity
  8
1
  6
Continuous
 62
     3
100
AcDbCircle
 10
-3.5710405216167
 20
19.0
 30
0.0
 40
0.5
100
AcDbArc
 50
90.0
 51
171.2538377374416
  0
ARC
  5
37E
330
1F
100
AcDbEntity
  8
1
  6
Continuous
 62
     3
100
AcDbCircle
 10
15.113572308704
 20
22.6896821558731
 30
0.0
 40
0.9999999999951272
100
AcDbArc
 50
263.4787151477458
 51
303.9496358610931
  0
ARC
  5
37F
330
1F
100
AcDbEntity
  8
1
  6
Continuous
 62
     3
100
AcDbCircle
 10
-3.754076204024
 20
47.5000000000001
 30
0.0
 40
2.500000000000016
100
AcDbArc
 50
200.000000000003
 51
270.0
  0
ARC
  5
380
330
1F
100
AcDbEntity
  8
1
  6
Continuous
 62
     3
100
AcDbCircle
 10
3.75407620402399
 20
47.5000000000001
 30
0.0
 40
2.500000000000099
100
AcDbArc
 50
270.0
 51
339.9999999999966
  0
ARC
  5
381
330
1F
100
AcDbEntity
  8
1
  6
Continuous
 62
     3
100
AcDbCircle
 10
-69.7400530943639
 20
21.0639315379314
 30
0.0
 40
9.436068462068583
100
AcDbArc
 50
69.8534160544364
 51
110.1465839455636
  0
ARC
  5
382
330
1F
100
AcDbEntity
  8
1
  6
Continuous
 62
     3
100
AcDbCircle
 10
-69.7400530943639
 20
34.9360684620685
 30
0.0
 40
9.436068462068487
100
AcDbArc
 50
249.8534160544362
 51
290.1465839455638
  0
ARC
  5
383
330
1F
100
AcDbEntity
  8
1
  6
Continuous
 62
     3
100
AcDbCircle
 10
-63.2400530943639
 20
34.9360684620685
 30
0.0
 40
9.436068462068487
100
AcDbArc
 50
249.8534160544362
 51
290.1465839455638
  0
ARC
  5
384
330
1F
100
AcDbEntity
  8
1
  6
Continuous
 62
     3
100
AcDbCircle
 10
-63.2400530943639
 20
21.0639315379316
 30
0.0
 40
9.436068462068393
100
AcDbArc
 50
69.85341605443597
 51
110.146583945564
  0
ARC
  5
385
330
1F
100
AcDbEntity
  8
1
  6
Continuous
 62
     3
100
AcDbCircle
 10
-84.1855073218802
 20
9.70256253859199
 30
0.0
 40
1.696531543926946
100
AcDbArc
 50
294.2002543707732
 51
32.88287699382009
  0
ARC
  5
386
330
1F
100
AcDbEntity
  8
1
  6
Continuous
 62
     3
100
AcDbCircle
 10
-87.2724762509247
 20
13.25
 30
0.0
 40
2.0
100
AcDbArc
 50
270.0
 51
352.9999999999997
  0
ARC
  5
387
330
1F
100
AcDbEntity
  8
1
  6
Continuous
 62
     3
100
AcDbCircle
 10
-66.4900530943639
 20
0.0
 30
0.0
 40
13.09418022642352
100
AcDbArc
 50
239.2224333701541
 51
270.0
  0
ARC
  5
388
330
1F
100
AcDbEntity
  8
1
  6
Continuous
 62
     3
100
AcDbCircle
 10
-66.4900530943639
 20
0.0
 30
0.0
 40
13.0941802264235
100
AcDbArc
 50
270.0
 51
0.0
  0
ARC
  5
389
330
1F
100
AcDbEntity
  8
1
  6
Continuous
 62
     3
100
AcDbCircle
 10
-66.4900530943639
 20
0.0
 30
0.0
 40
14.00000000000001
100
AcDbArc
 50
233.4725149183377
 51
270.0
  0
ARC
  5
38A
330
1F
100
AcDbEntity
  8
1
  6
Continuous
 62
     3
100
AcDbCircle
 10
-66.4900530943639
 20
0.0
 30
0.0
 40
14.0
100
AcDbArc
 50
270.0
 51
0.0
  0
ARC
  5
38B
330
1F
100
AcDbEntity
  8
1
  6
Continuous
 62
     3
100
AcDbCircle
 10
-66.4900530943639
 20
0.0
 30
0.0
 40
14.99999999999999
100
AcDbArc
 50
228.5903778907292
 51
270.0
  0
ARC
  5
38C
330
1F
100
AcDbEntity
  8
1
  6
Continuous
 62
     3
100
AcDbCircle
 10
-66.4900530943639
 20
0.0
 30
0.0
 40
15.0
100
AcDbArc
 50
270.0
 51
0.0
  0
ARC
  5
38D
330
1F
100
AcDbEntity
  8
1
  6
Continuous
 62
     3
100
AcDbCircle
 10
-84.1855445436556
 20
-9.70256253859202
 30
0.0
 40
1.696546802480449
100
AcDbArc
 50
294.2014009525609
 51
65.79859904743948
  0
ARC
  5
38E
330
1F
100
AcDbEntity
  8
1
  6
Continuous
 62
     3
100
AcDbCircle
 10
-89.9518479363904
 20
4.01817603983338
 30
0.0
 40
7.461794842026446
100
AcDbArc
 50
329.9952542428596
 51
30.00474575714117
  0
ARC
  5
38F
330
1F
100
AcDbEntity
  8
1
  6
Continuous
 62
     3
100
AcDbCircle
 10
-89.9518479363904
 20
-4.01817603983341
 30
0.0
 40
7.461794842026501
100
AcDbArc
 50
329.9952542428588
 51
30.0047457571405
  0
ARC
  5
390
330
1F
100
AcDbEntity
  8
1
  6
Continuous
 62
     3
100
AcDbCircle
 10
-91.5884772254376
 20
-9.75
 30
0.0
 40
1.901575868926324
100
AcDbArc
 50
122.9956177273242
 51
180.0
  0
ARC
  5
391
330
1F
100
AcDbEntity
  8
1
  6
Continuous
 62
     3
100
AcDbCircle
 10
-91.5884772254376
 20
9.75
 30
0.0
 40
1.901575868926301
100
AcDbArc
 50
180.0
 51
237.0043822726763
  0
ARC
  5
392
330
1F
100
AcDbEntity
  8
1
  6
Continuous
 62
     3
100
AcDbCircle
 10
-85.0182521402978
 20
-4.01817603983341
 30
0.0
 40
8.471800954066092
100
AcDbArc
 50
153.8671931828951
 51
206.1328068171056
  0
ARC
  5
393
330
1F
100
AcDbEntity
  8
1
  6
Continuous
 62
     3
100
AcDbCircle
 10
-85.0182521402978
 20
4.01817603983338
 30
0.0
 40
8.471800954066136
100
AcDbArc
 50
153.8671931828944
 51
206.1328068171049
  0
ARC
  5
394
330
1F
100
AcDbEntity
  8
1
  6
Continuous
 62
     3
100
AcDbCircle
 10
-66.4900530943639
 20
0.0
 30
0.0
 40
11.25000000000005
100
AcDbArc
 50
268.5394697813173
 51
270.0
  0
ARC
  5
395
330
1F
100
AcDbEntity
  8
1
  6
Continuous
 62
     3
100
AcDbCircle
 10
-66.4900530943639
 20
0.0
 30
0.0
 40
11.25000000000003
100
AcDbArc
 50
223.5394697813172
 51
226.4605302186825
  0
ARC
  5
396
330
1F
100
AcDbEntity
  8
1
  6
Continuous
 62
     3
100
AcDbCircle
 10
-66.4900530943639
 20
0.0
 30
0.0
 40
11.25000000000006
100
AcDbArc
 50
178.5394697813173
 51
181.4605302186829
  0
ARC
  5
397
330
1F
100
AcDbEntity
  8
1
  6
Continuous
 62
     3
100
AcDbCircle
 10
-66.4900530943639
 20
0.0
 30
0.0
 40
11.24999999999994
100
AcDbArc
 50
133.5394697813176
 51
136.4605302186829
  0
ARC
  5
398
330
1F
100
AcDbEntity
  8
1
  6
Continuous
 62
     3
100
AcDbCircle
 10
-66.4900530943639
 20
0.0
 30
0.0
 40
11.25
100
AcDbArc
 50
90.0
 51
91.46053021868275
  0
ARC
  5
399
330
1F
100
AcDbEntity
  8
1
  6
Continuous
 62
     3
100
AcDbCircle
 10
-66.4900530943639
 20
0.0
 30
0.0
 40
11.25
100
AcDbArc
 50
270.0
 51
271.4605302186827
  0
ARC
  5
39A
330
1F
100
AcDbEntity
  8
1
  6
Continuous
 62
     3
100
AcDbCircle
 10
-66.4900530943639
 20
0.0
 30
0.0
 40
11.24999999999996
100
AcDbArc
 50
313.5394697813175
 51
316.4605302186828
  0
ARC
  5
39B
330
1F
100
AcDbEntity
  8
1
  6
Continuous
 62
     3
100
AcDbCircle
 10
-66.4900530943639
 20
0.0
 30
0.0
 40
11.25000000000006
100
AcDbArc
 50
358.5394697813172
 51
1.46053021868278
  0
ARC
  5
39C
330
1F
100
AcDbEntity
  8
1
  6
Continuous
 62
     3
100
AcDbCircle
 10
-66.4900530943639
 20
0.0
 30
0.0
 40
11.25000000000001
100
AcDbArc
 50
43.53946978131707
 51
46.46053021868239
  0
ARC
  5
39D
330
1F
100
AcDbEntity
  8
1
  6
Continuous
 62
     3
100
AcDbCircle
 10
-66.4900530943639
 20
0.0
 30
0.0
 40
11.25000000000005
100
AcDbArc
 50
88.53946978131725
 51
90.0
  0
ARC
  5
39E
330
1F
100
AcDbEntity
  8
1
  6
Continuous
 62
     3
100
AcDbCircle
 10
0.0
 20
63.5
 30
0.0
 40
4.000000000000008
100
AcDbArc
 50
141.3178125465107
 51
180.0
  0
ARC
  5
39F
330
1F
100
AcDbEntity
  8
1
  6
Continuous
 62
     3
100
AcDbCircle
 10
0.0
 20
63.5
 30
0.0
 40
3.249999999999955
100
AcDbArc
 50
182.2042275039721
 51
90.0
  0
ARC
  5
3A0
330
1F
100
AcDbEntity
  8
1
  6
Continuous
 62
     3
100
AcDbCircle
 10
0.0
 20
63.5
 30
0.0
 40
3.249999999999955
100
AcDbArc
 50
177.795772496028
 51
182.2042275039721
  0
ARC
  5
3A1
330
1F
100
AcDbEntity
  8
1
  6
Continuous
 62
     3
100
AcDbCircle
 10
0.0
 20
63.5
 30
0.0
 40
3.25
100
AcDbArc
 50
90.0
 51
177.795772496028
  0
ARC
  5
3A2
330
1F
100
AcDbEntity
  8
1
  6
Continuous
 62
     3
100
AcDbCircle
 10
14.7710320196608
 20
57.8026385436507
 30
0.0
 40
1.000000000011123
100
AcDbArc
 50
254.6039711660268
 51
298.7481126525715
  0
ARC
  5
3A3
330
1F
100
AcDbEntity
  8
1
  6
Continuous
 62
     3
100
AcDbCircle
 10
0.0
 20
63.5
 30
0.0
 40
11.0
100
AcDbArc
 50
180.0
 51
195.8266201318723
  0
ARC
  5
3A4
330
1F
100
AcDbEntity
  8
1
  6
Continuous
 62
     3
100
AcDbCircle
 10
0.0
 20
63.5
 30
0.0
 40
11.5
100
AcDbArc
 50
180.0
 51
195.1216653149089
  0
ARC
  5
3A5
330
1F
100
AcDbEntity
  8
1
  6
Continuous
 62
     3
100
AcDbCircle
 10
-4.01817603983341
 20
86.9617948420265
 30
0.0
 40
7.461794842026514
100
AcDbArc
 50
239.9952542428588
 51
252.3061601467979
  0
ARC
  5
3A6
330
1F
100
AcDbEntity
  8
1
  6
Continuous
 62
     3
100
AcDbCircle
 10
-9.70256253859202
 20
81.1954914492917
 30
0.0
 40
1.696546802480449
100
AcDbArc
 50
204.2014009525609
 51
335.798599047439
  0
ARC
  5
3A7
330
1F
100
AcDbEntity
  8
1
  6
Continuous
 62
     3
100
AcDbCircle
 10
9.70256253859199
 20
81.1954542275163
 30
0.0
 40
1.696531543926929
100
AcDbArc
 50
204.2002543707734
 51
335.7997456292299
  0
ARC
  5
3A8
330
1F
100
AcDbEntity
  8
1
  6
Continuous
 62
     3
100
AcDbCircle
 10
4.01817603983339
 20
86.9617948420265
 30
0.0
 40
7.461794842026502
100
AcDbArc
 50
287.6938398532024
 51
300.0047457571412
  0
ARC
  5
3A9
330
1F
100
AcDbEntity
  8
1
  6
Continuous
 62
     3
100
AcDbCircle
 10
-9.75
 20
88.5984241310738
 30
0.0
 40
1.901575868926245
100
AcDbArc
 50
32.99561772732217
 51
90.0
  0
ARC
  5
3AA
330
1F
100
AcDbEntity
  8
1
  6
Continuous
 62
     3
100
AcDbCircle
 10
9.75
 20
88.5984241310738
 30
0.0
 40
1.901575868926201
100
AcDbArc
 50
90.0
 51
147.0043822726785
  0
ARC
  5
3AB
330
1F
100
AcDbEntity
  8
1
  6
Continuous
 62
     3
100
AcDbCircle
 10
-4.01817603983341
 20
82.0281990459339
 30
0.0
 40
8.471800954066095
100
AcDbArc
 50
63.86719318289499
 51
116.1328068171056
  0
ARC
  5
3AC
330
1F
100
AcDbEntity
  8
1
  6
Continuous
 62
     3
100
AcDbCircle
 10
4.01817603983339
 20
82.0281990459339
 30
0.0
 40
8.471800954066143
100
AcDbArc
 50
63.86719318289431
 51
116.132806817105
  0
ARC
  5
3AD
330
1F
100
AcDbEntity
  8
1
  6
Continuous
 62
     3
100
AcDbCircle
 10
-17.6954914492917
 20
53.797437461408
 30
0.0
 40
1.696546802480472
100
AcDbArc
 50
294.2014009525608
 51
65.79859904743905
  0
ARC
  5
3AE
330
1F
100
AcDbEntity
  8
1
  6
Continuous
 62
     3
100
AcDbCircle
 10
-17.6954542275163
 20
73.202562538592
 30
0.0
 40
1.696531543926858
100
AcDbArc
 50
294.2002543707748
 51
65.79974562922644
  0
ARC
  5
3AF
330
1F
100
AcDbEntity
  8
1
  6
Continuous
 62
     3
100
AcDbCircle
 10
-23.4617948420265
 20
67.5181760398334
 30
0.0
 40
7.461794842026464
100
AcDbArc
 50
329.9952542428594
 51
30.00474575714118
  0
ARC
  5
3B0
330
1F
100
AcDbEntity
  8
1
  6
Continuous
 62
     3
100
AcDbCircle
 10
-23.4617948420265
 20
59.4818239601666
 30
0.0
 40
7.461794842026514
100
AcDbArc
 50
329.9952542428588
 51
30.00474575714052
  0
ARC
  5
3B1
330
1F
100
AcDbEntity
  8
1
  6
Continuous
 62
     3
100
AcDbCircle
 10
-25.0984241310738
 20
53.75
 30
0.0
 40
1.90157586892628
100
AcDbArc
 50
122.9956177273217
 51
180.0
  0
ARC
  5
3B2
330
1F
100
AcDbEntity
  8
1
  6
Continuous
 62
     3
100
AcDbCircle
 10
-25.0984241310738
 20
73.25
 30
0.0
 40
1.901575868926201
100
AcDbArc
 50
180.0
 51
237.0043822726767
  0
ARC
  5
3B3
330
1F
100
AcDbEntity
  8
1
  6
Continuous
 62
     3
100
AcDbCircle
 10
-18.5281990459339
 20
59.4818239601666
 30
0.0
 40
8.471800954066104
100
AcDbArc
 50
153.8671931828951
 51
206.1328068171056
  0
ARC
  5
3B4
330
1F
100
AcDbEntity
  8
1
  6
Continuous
 62
     3
100
AcDbCircle
 10
-18.5281990459339
 20
67.5181760398334
 30
0.0
 40
8.471800954066147
100
AcDbArc
 50
153.8671931828944
 51
206.132806817105
  0
ARC
  5
3B5
330
1F
100
AcDbEntity
  8
1
  6
Continuous
 62
     3
100
AcDbCircle
 10
3.75407620402399
 20
79.5
 30
0.0
 40
2.499999999999944
100
AcDbArc
 50
20.0000000000012
 51
90.0
  0
ARC
  5
3B6
330
1F
100
AcDbEntity
  8
1
  6
Continuous
 62
     3
100
AcDbCircle
 10
-3.754076204024
 20
79.5
 30
0.0
 40
2.5
100
AcDbArc
 50
90.0
 51
159.9999999999991
  0
ARC
  5
3B7
330
1F
100
AcDbEntity
  8
1
  6
Continuous
 62
     3
100
AcDbCircle
 10
0.0
 20
63.5
 30
0.0
 40
11.49999999999996
100
AcDbArc
 50
159.9999999999999
 51
180.0
  0
ARC
  5
3B8
330
1F
100
AcDbEntity
  8
1
  6
Continuous
 62
     3
100
AcDbCircle
 10
0.0
 20
63.5
 30
0.0
 40
11.00000000000002
100
AcDbArc
 50
159.9999999999998
 51
180.0
  0
ARC
  5
3B9
330
1F
100
AcDbEntity
  8
1
  6
Continuous
 62
     3
100
AcDbCircle
 10
0.0
 20
63.5
 30
0.0
 40
4.000000000000008
100
AcDbArc
 50
218.6821874534893
 51
321.3178125465105
  0
ARC
  5
3BA
330
1F
100
AcDbEntity
  8
1
  6
Continuous
 62
     3
100
AcDbCircle
 10
0.0
 20
63.5
 30
0.0
 40
4.0
100
AcDbArc
 50
180.0
 51
218.6821874534893
  0
ARC
  5
3BB
330
1F
100
AcDbEntity
  8
1
  6
Continuous
 62
     3
100
AcDbCircle
 10
0.0
 20
63.5
 30
0.0
 40
4.000000000000001
100
AcDbArc
 50
321.3178125465105
 51
38.68218745348944
  0
ARC
  5
3BC
330
1F
100
AcDbEntity
  8
1
  6
Continuous
 62
     3
100
AcDbCircle
 10
-0.36493283554131
 20
63.5
 30
0.0
 40
8.0
100
AcDbArc
 50
90.0
 51
180.0
  0
ARC
  5
3BD
330
1F
100
AcDbEntity
  8
1
  6
Continuous
 62
     3
100
AcDbCircle
 10
20.5281990459338
 20
67.5181760398334
 30
0.0
 40
8.47180095406604
100
AcDbArc
 50
14.081087738539
 51
26.13280681710558
  0
ARC
  5
3BE
330
1F
100
AcDbEntity
  8
1
  6
Continuous
 62
     3
100
AcDbCircle
 10
27.0984241310736
 20
73.25
 30
0.0
 40
1.901575868926255
100
AcDbArc
 50
302.9956177273257
 51
0.0
  0
ARC
  5
3BF
330
1F
100
AcDbEntity
  8
1
  6
Continuous
 62
     3
100
AcDbCircle
 10
27.0984241310736
 20
53.75
 30
0.0
 40
1.9015758689264
100
AcDbArc
 50
0.0
 51
57.00438227267585
  0
ARC
  5
3C0
330
1F
100
AcDbEntity
  8
1
  6
Continuous
 62
     3
100
AcDbCircle
 10
20.5281990459338
 20
59.4818239601666
 30
0.0
 40
8.471800954066147
100
AcDbArc
 50
333.8671931828944
 51
345.9189122614611
  0
ARC
  5
3C1
330
1F
100
AcDbEntity
  8
1
  6
Continuous
 62
     3
100
AcDbCircle
 10
5.62638837486629
 20
27.1712115155288
 30
0.0
 40
3.328788484471215
100
AcDbArc
 50
55.74681268968135
 51
124.2531873103185
  0
ARC
  5
3C2
330
1F
100
AcDbEntity
  8
1
  6
Continuous
 62
     3
100
AcDbCircle
 10
5.62638837486629
 20
28.8287884844713
 30
0.0
 40
3.328788484471292
100
AcDbArc
 50
235.7468126896825
 51
304.2531873103177
  0
ARC
  5
3C3
330
1F
100
AcDbEntity
  8
1
  6
Continuous
 62
     3
100
AcDbCircle
 10
-5.62638837486632
 20
28.8287884844714
 30
0.0
 40
3.328788484471386
100
AcDbArc
 50
235.7468126896831
 51
304.2531873103169
  0
ARC
  5
3C4
330
1F
100
AcDbEntity
  8
1
  6
Continuous
 62
     3
100
AcDbCircle
 10
-5.62638837486632
 20
27.1712115155287
 30
0.0
 40
3.328788484471303
100
AcDbArc
 50
55.74681268968217
 51
124.2531873103179
  0
ARC
  5
3C5
330
1F
100
AcDbEntity
  8
1
  6
Continuous
 62
     3
100
AcDbCircle
 10
-0.00000000000001
 20
18.0148004287741
 30
0.0
 40
12.48519957122592
100
AcDbArc
 50
72.5076754748898
 51
107.4923245251101
  0
ARC
  5
3C6
330
1F
100
AcDbEntity
  8
1
  6
Continuous
 62
     3
100
AcDbCircle
 10
-0.00000000000001
 20
37.9851995712265
 30
0.0
 40
12.48519957122649
100
AcDbArc
 50
252.5076754748906
 51
287.4923245251094
  0
ARC
  5
3C7
330
1F
100
AcDbEntity
  8
1
  6
Continuous
 62
     3
100
AcDbCircle
 10
57.9971240469561
 20
36.5
 30
0.0
 40
2.00287595304414
100
AcDbArc
 50
273.070813778877
 51
86.92918622112302
  0
ARC
  5
3C8
330
1F
100
AcDbEntity
  8
1
  6
Continuous
 62
     3
100
AcDbCircle
 10
14.7710320196608
 20
69.1973614563493
 30
0.0
 40
1.000000000011104
100
AcDbArc
 50
61.25188734742837
 51
105.3960288339732
  0
ARC
  5
3C9
330
1F
100
AcDbEntity
  8
1
  6
Continuous
 62
     3
100
AcDbCircle
 10
0.0
 20
63.5
 30
0.0
 40
4.000000000000001
100
AcDbArc
 50
38.68218745348944
 51
141.3178125465107
  0
ARC
  5
3CA
330
1F
100
AcDbEntity
  8
1
  6
Continuous
 62
     3
100
AcDbCircle
 10
-17.6954542275163
 20
9.70256253859202
 30
0.0
 40
1.696531543926867
100
AcDbArc
 50
294.2002543707746
 51
65.79974562922622
  0
ARC
  5
3CB
330
1F
100
AcDbEntity
  8
1
  6
Continuous
 62
     3
100
AcDbCircle
 10
-23.4617948420265
 20
4.01817603983341
 30
0.0
 40
7.461794842026467
100
AcDbArc
 50
329.9952542428593
 51
30.00474575714114
  0
ARC
  5
3CC
330
1F
100
AcDbEntity
  8
1
  6
Continuous
 62
     3
100
AcDbCircle
 10
-23.4617948420265
 20
-4.01817603983341
 30
0.0
 40
7.461794842026507
100
AcDbArc
 50
329.9952542428588
 51
30.00474575714061
  0
ARC
  5
3CD
330
1F
100
AcDbEntity
  8
1
  6
Continuous
 62
     3
100
AcDbCircle
 10
-23.4617948420265
 20
-4.01817603983341
 30
0.0
 40
7.461794842026507
100
AcDbArc
 50
329.9952542428588
 51
30.00474575714061
  0
ARC
  5
3CE
330
1F
100
AcDbEntity
  8
1
  6
Continuous
 62
     3
100
AcDbCircle
 10
-17.6954914492917
 20
-9.70256253859199
 30
0.0
 40
1.69654680248048
100
AcDbArc
 50
294.2014009525607
 51
65.79859904743924
  0
ARC
  5
3CF
330
1F
100
AcDbEntity
  8
1
  6
Continuous
 62
     3
100
AcDbCircle
 10
-25.0984241310738
 20
-9.75
 30
0.0
 40
1.901575868926299
100
AcDbArc
 50
122.9956177273214
 51
180.0
  0
ARC
  5
3D0
330
1F
100
AcDbEntity
  8
1
  6
Continuous
 62
     3
100
AcDbCircle
 10
-18.5281990459339
 20
-4.01817603983341
 30
0.0
 40
8.47180095406611
100
AcDbArc
 50
153.867193182895
 51
206.1328068171055
  0
ARC
  5
3D1
330
1F
100
AcDbEntity
  8
1
  6
Continuous
 62
     3
100
AcDbCircle
 10
-18.5281990459339
 20
4.01817603983341
 30
0.0
 40
8.471800954066145
100
AcDbArc
 50
153.8671931828945
 51
206.132806817105
  0
ARC
  5
3D2
330
1F
100
AcDbEntity
  8
1
  6
Continuous
 62
     3
100
AcDbCircle
 10
-25.0984241310738
 20
9.75
 30
0.0
 40
1.901575868926201
100
AcDbArc
 50
180.0
 51
237.0043822726766
  0
ARC
  5
3D3
330
1F
100
AcDbEntity
  8
1
  6
Continuous
 62
     3
100
AcDbCircle
 10
27.0984241310736
 20
9.75
 30
0.0
 40
1.90157586892625
100
AcDbArc
 50
302.9956177273258
 51
0.0
  0
ARC
  5
3D4
330
1F
100
AcDbEntity
  8
1
  6
Continuous
 62
     3
100
AcDbCircle
 10
27.0984241310736
 20
-9.75
 30
0.0
 40
1.9015758689264
100
AcDbArc
 50
0.0
 51
57.00438227267622
  0
ARC
  5
3D5
330
1F
100
AcDbEntity
  8
1
  6
Continuous
 62
     3
100
AcDbCircle
 10
27.0984241310736
 20
9.75
 30
0.0
 40
1.90157586892625
100
AcDbArc
 50
302.9956177273258
 51
0.0
  0
ARC
  5
3D6
330
1F
100
AcDbEntity
  8
1
  6
Continuous
 62
     3
100
AcDbCircle
 10
20.5281990459345
 20
4.01817603983345
 30
0.0
 40
8.471800954065495
100
AcDbArc
 50
333.8671931828926
 51
26.13280681710739
  0
ARC
  5
3D7
330
1F
100
AcDbEntity
  8
1
  6
Continuous
 62
     3
100
AcDbCircle
 10
20.5281990459345
 20
-4.01817603983345
 30
0.0
 40
8.471800954065495
100
AcDbArc
 50
333.8671931828926
 51
26.13280681710739
  0
ARC
  5
3D8
330
1F
100
AcDbEntity
  8
1
  6
Continuous
 62
     3
100
AcDbCircle
 10
31.8870315280022
 20
-0.52707682942003
 30
0.0
 40
25.0
100
AcDbArc
 50
143.6439452140411
 51
177.4710475238223
  0
ARC
  5
3D9
330
1F
100
AcDbEntity
  8
1
  6
Continuous
 62
     3
100
AcDbCircle
 10
-24.7981328529592
 20
-1.43992778774538
 30
0.0
 40
17.99999999999999
100
AcDbArc
 50
34.70257134468119
 51
45.73651760645402
  0
ARC
  5
3DA
330
1F
100
AcDbEntity
  8
1
  6
Continuous
 62
     3
100
AcDbCircle
 10
-24.7981328529592
 20
-1.43992778774538
 30
0.0
 40
17.99999999999998
100
AcDbArc
 50
26.44403368350159
 51
34.70257134468119
  0
ARC
  5
3DB
330
1F
100
AcDbEntity
  8
1
  6
Continuous
 62
     3
100
AcDbCircle
 10
-24.7981328529592
 20
-1.43992778774538
 30
0.0
 40
17.99999999999998
100
AcDbArc
 50
6.43047995471618
 51
26.44403368350159
  0
CIRCLE
  5
3DC
330
1F
100
AcDbEntity
  8
1
  6
Continuous
 62
     3
100
AcDbCircle
 10
-66.4900530943639
 20
0.0
 30
0.0
 40
6.691248438295901
  0
CIRCLE
  5
3DD
330
1F
100
AcDbEntity
  8
1
  6
Continuous
 62
     3
100
AcDbCircle
 10
-66.4900530943639
 20
0.0
 30
0.0
 40
5.691248438295901
  0
CIRCLE
  5
3DE
330
1F
100
AcDbEntity
  8
1
  6
Continuous
 62
     3
100
AcDbCircle
 10
-66.4900530943639
 20
0.0
 30
0.0
 40
4.5
  0
CIRCLE
  5
3DF
330
1F
100
AcDbEntity
  8
1
  6
Continuous
 62
     3
100
AcDbCircle
 10
-66.4900530943639
 20
0.0
 30
0.0
 40
3.5
  0
CIRCLE
  5
3E0
330
1F
100
AcDbEntity
  8
1
  6
Continuous
 62
     3
100
AcDbCircle
 10
-66.4900530943639
 20
0.0
 30
0.0
 40
9.75
  0
CIRCLE
  5
3E1
330
1F
100
AcDbEntity
  8
1
  6
Continuous
 62
     3
100
AcDbCircle
 10
0.0
 20
75.5
 30
0.0
 40
2.5
  0
CIRCLE
  5
3E2
330
1F
100
AcDbEntity
  8
1
  6
Continuous
 62
     3
100
AcDbCircle
 10
0.0
 20
63.5
 30
0.0
 40
6.5
  0
CIRCLE
  5
3E3
102
{ACAD_REACTORS
330
3E6
102
}
330
1F
100
AcDbEntity
  8
1
  6
Continuous
 62
     3
100
AcDbCircle
 10
52.63952
 20
66.15252
 30
0.0
 40
0.528648000000004
  0
CIRCLE
  5
3E4
330
1F
100
AcDbEntity
  8
1
  6
Continuous
 62
     3
100
AcDbCircle
 10
0.0
 20
75.5
 30
0.0
 40
3.000779053585703
  0
XLINE
  5
3E5
330
1F
100
AcDbEntity
  8
1
  6
DOT_CENTER
 62
     3
 60
     1
100
AcDbXline
 10
0.0
 20
23.5
 30
0.0
 11
0.0
 21
1.0
 31
0.0
  0
HATCH
  5
3E6
330
1F
100
AcDbEntity
  8
1
  6
Continuous
 62
     4
100
AcDbHatch
 10
0.0
 20
0.0
 30
0.0
210
0.0
220
0.0
230
1.0
  2
_USER
 70
     0
 71
     1
 91
        1
 92
        1
 93
        1
 72
     2
 10
52.63952
 20
66.15252
 40
0.528648000000004
 50
0.0
 51
360.0
 73
     1
 97
        1
330
3E3
 75
     1
 76
     0
 52
90.00000000000001
 41
0.1
 77
     0
 78
     1
 53
90.00000000000001
 43
0.0
 44
0.0
 45
-0.1
 46
0.0
 79
     0
 98
        1
 10
0.0
 20
0.0
  0
HATCH
  5
3E7
330
1F
100
AcDbEntity
  8
1
  6
Continuous
 62
     4
100
AcDbHatch
 10
0.0
 20
0.0
 30
0.0
210
0.0
220
0.0
230
1.0
  2
_USER
 70
     0
 71
     1
 91
        1
 92
        1
 93
       14
 72
     1
 10
28.6200160000001
 20
64.0
 11
28.1200160000001
 21
64.0
 72
     1
 10
28.1200160000001
 20
64.0
 11
28.1200160000001
 21
62.5
 72
     2
 10
26.1200160000001
 20
62.5
 40
2.0
 50
0.0
 51
90.0
 73
     0
 72
     1
 10
26.1200160000001
 20
60.5
 11
24.8715789032495
 21
60.5
 72
     1
 10
24.8715789032495
 20
60.5
 11
24.8715789032495
 21
60.0
 72
     1
 10
24.8715789032495
 20
60.0
 11
21.8715789032495
 21
61.0
 72
     1
 10
21.8715789032495
 20
61.0
 11
24.8715789032495
 21
62.0
 72
     1
 10
24.8715789032495
 20
62.0
 11
24.8715789032495
 21
61.5
 72
     1
 10
24.8715789032495
 20
61.5
 11
26.1200160000001
 21
61.5
 72
     2
 10
26.1200160000001
 20
62.5
 40
1.0
 50
270.0
 51
360.0
 73
     1
 72
     1
 10
27.1200160000001
 20
62.5
 11
27.1200160000001
 21
64.0
 72
     1
 10
27.1200160000001
 20
64.0
 11
26.6200160000001
 21
64.0
 72
     1
 10
26.6200160000001
 20
64.0
 11
27.6200160000001
 21
67.0
 72
     1
 10
27.6200160000001
 20
67.0
 11
28.6200160000001
 21
64.0
 97
       14
330
134
330
130
330
372
330
135
330
136
330
138
330
139
330
137
330
131
330
373
330
132
330
133
330
13B
330
13A
 75
     1
 76
     0
 52
90.00000000000001
 41
0.1
 77
     0
 78
     1
 53
90.00000000000001
 43
0.0
 44
0.0
 45
-0.1
 46
0.0
 79
     0
 98
        1
 10
0.0
 20
0.0
  0
HATCH
  5
3E8
330
1F
100
AcDbEntity
  8
1
  6
Continuous
 62
     4
100
AcDbHatch
 10
0.0
 20
0.0
 30
0.0
210
0.0
220
0.0
230
1.0
  2
_USER
 70
     0
 71
     1
 91
        1
 92
        1
 93
       15
 72
     1
 10
47.858864
 20
65.43192
 11
47.858864
 21
63.75
 72
     1
 10
47.858864
 20
63.75
 11
47.137904
 21
63.75
 72
     1
 10
47.137904
 20
63.75
 11
47.137904
 21
65.18192
 72
     1
 10
47.137904
 20
65.18192
 11
46.9456348001366
 21
65.18192
 72
     1
 10
46.9456348001366
 20
65.18192
 11
46.4518692828952
 21
63.75
 72
     1
 10
46.4518692828952
 20
63.75
 11
45.5631933441595
 21
63.75
 72
     1
 10
45.5631933441595
 20
63.75
 11
45.020051275194
 21
65.18192
 72
     1
 10
45.020051275194
 20
65.18192
 11
44.83184
 21
65.18192
 72
     1
 10
44.83184
 20
65.18192
 11
44.83184
 21
63.75
 72
     1
 10
44.83184
 20
63.75
 11
44.3991680000001
 21
63.75
 72
     1
 10
44.3991680000001
 20
63.75
 11
44.3991680000001
 21
65.43192
 72
     1
 10
44.3991680000001
 20
65.43192
 11
45.6804330903932
 21
65.43192
 72
     1
 10
45.6804330903932
 20
65.43192
 11
46.1290160000001
 21
63.9964546892582
 72
     1
 10
46.1290160000001
 20
63.9964546892582
 11
46.5775989096068
 21
65.43192
 72
     1
 10
46.5775989096068
 20
65.43192
 11
47.858864
 21
65.43192
 97
       15
330
167
330
168
330
17F
330
17E
330
169
330
16A
330
180
330
17D
330
16B
330
16C
330
16D
330
163
330
164
330
165
330
166
 75
     1
 76
     0
 52
90.00000000000001
 41
0.1
 77
     0
 78
     1
 53
90.00000000000001
 43
0.0
 44
0.0
 45
-0.1
 46
0.0
 79
     0
 98
        1
 10
0.0
 20
0.0
  0
HATCH
  5
3E9
330
1F
100
AcDbEntity
  8
1
  6
Continuous
 62
     4
100
AcDbHatch
 10
0.0
 20
0.0
 30
0.0
210
0.0
220
0.0
230
1.0
  2
_USER
 70
     0
 71
     1
 91
        2
 92
        1
 93
        8
 72
     1
 10
50.6496571545237
 20
65.43192
 11
49.6295703253025
 21
65.43192
 72
     1
 10
49.6295703253025
 20
65.43192
 11
48.5363223253026
 21
63.75
 72
     1
 10
48.5363223253026
 20
63.75
 11
49.0188456746975
 21
63.75
 72
     1
 10
49.0188456746975
 20
63.75
 11
49.2686952746975
 21
64.134384
 72
     1
 10
49.2686952746975
 20
64.134384
 11
50.5549124454763
 21
64.134384
 72
     1
 10
50.5549124454763
 20
64.134384
 11
50.7855428454763
 21
63.75
 72
     1
 10
50.7855428454763
 20
63.75
 11
51.6588091545237
 21
63.75
 72
     1
 10
51.6588091545237
 20
63.75
 11
50.6496571545237
 21
65.43192
 97
        8
330
171
330
172
330
173
330
174
330
175
330
16E
330
16F
330
170
 92
       16
 93
        3
 72
     1
 10
49.3937760746975
 20
64.326816
 11
49.9375282035025
 21
65.1633577366231
 72
     1
 10
49.9375282035025
 20
65.1633577366231
 11
50.4394532454763
 21
64.326816
 72
     1
 10
50.4394532454763
 20
64.326816
 11
49.3937760746975
 21
64.326816
 97
        3
330
177
330
176
330
178
 75
     1
 76
     0
 52
90.00000000000001
 41
0.1
 77
     0
 78
     1
 53
90.00000000000001
 43
0.0
 44
0.0
 45
-0.1
 46
0.0
 79
     0
 98
        1
 10
0.0
 20
0.0
  0
HATCH
  5
3EA
330
1F
100
AcDbEntity
  8
1
  6
Continuous
 62
     4
100
AcDbHatch
 10
0.0
 20
0.0
 30
0.0
210
0.0
220
0.0
230
1.0
  2
_USER
 70
     0
 71
     1
 91
        1
 92
        1
 93
        4
 72
     1
 10
53.0
 20
65.095584
 11
53.0
 21
63.75
 72
     1
 10
53.0
 20
63.75
 11
52.27904
 21
63.75
 72
     1
 10
52.27904
 20
63.75
 11
52.27904
 21
65.095584
 72
     1
 10
52.27904
 20
65.095584
 11
53.0
 21
65.095584
 97
        4
330
17A
330
17B
330
17C
330
179
 75
     1
 76
     0
 52
90.00000000000001
 41
0.1
 77
     0
 78
     1
 53
90.00000000000001
 43
0.0
 44
0.0
 45
-0.1
 46
0.0
 79
     0
 98
        1
 10
0.0
 20
0.0
  0
HATCH
  5
3EB
330
1F
100
AcDbEntity
  8
1
  6
Continuous
 62
     4
100
AcDbHatch
 10
0.0
 20
0.0
 30
0.0
210
0.0
220
0.0
230
1.0
  2
_USER
 70
     0
 71
     1
 91
        1
 92
        1
 93
        4
 72
     1
 10
36.2400160000001
 20
65.3733333333333
 11
36.2400160000001
 21
61.6266666666667
 72
     1
 10
36.2400160000001
 20
61.6266666666667
 11
34.8350160000001
 21
61.6266666666667
 72
     1
 10
34.8350160000001
 20
61.6266666666667
 11
34.8350160000001
 21
65.3733333333333
 72
     1
 10
34.8350160000001
 20
65.3733333333333
 11
36.2400160000001
 21
65.3733333333333
 97
        4
330
152
330
14A
330
151
330
1AC
 75
     1
 76
     0
 52
90.00000000000001
 41
0.1
 77
     0
 78
     1
 53
90.00000000000001
 43
0.0
 44
0.0
 45
-0.1
 46
0.0
 79
     0
 98
        1
 10
0.0
 20
0.0
  0
HATCH
  5
3EC
330
1F
100
AcDbEntity
  8
1
  6
Continuous
 62
     4
100
AcDbHatch
 10
0.0
 20
0.0
 30
0.0
210
0.0
220
0.0
230
1.0
  2
_USER
 70
     0
 71
     1
 91
        2
 92
        1
 93
        8
 72
     1
 10
42.7697851545238
 20
65.43192
 11
41.7496983253025
 21
65.43192
 72
     1
 10
41.7496983253025
 20
65.43192
 11
40.6564503253025
 21
63.75
 72
     1
 10
40.6564503253025
 20
63.75
 11
41.1389736746975
 21
63.75
 72
     1
 10
41.1389736746975
 20
63.75
 11
41.3888232746975
 21
64.134384
 72
     1
 10
41.3888232746975
 20
64.134384
 11
42.6750404454763
 21
64.134384
 72
     1
 10
42.6750404454763
 20
64.134384
 11
42.9056708454763
 21
63.75
 72
     1
 10
42.9056708454763
 20
63.75
 11
43.7789371545237
 21
63.75
 72
     1
 10
43.7789371545237
 20
63.75
 11
42.7697851545238
 21
65.43192
 97
        8
330
15A
330
15B
330
15C
330
15D
330
15E
330
15F
330
1B5
330
159
 92
       16
 93
        3
 72
     1
 10
42.0576562035025
 20
65.1633577366231
 11
42.5595812454763
 21
64.326816
 72
     1
 10
42.5595812454763
 20
64.326816
 11
41.5139040746975
 21
64.326816
 72
     1
 10
41.5139040746975
 20
64.326816
 11
42.0576562035025
 21
65.1633577366231
 97
        3
330
161
330
160
330
162
 75
     1
 76
     0
 52
90.00000000000001
 41
0.1
 77
     0
 78
     1
 53
90.00000000000001
 43
0.0
 44
0.0
 45
-0.1
 46
0.0
 79
     0
 98
        1
 10
0.0
 20
0.0
  0
HATCH
  5
3ED
330
1F
100
AcDbEntity
  8
1
  6
Continuous
 62
     4
100
AcDbHatch
 10
0.0
 20
0.0
 30
0.0
210
0.0
220
0.0
230
1.0
  2
_USER
 70
     0
 71
     1
 91
        1
 92
        1
 93
       12
 72
     1
 10
39.978992
 20
65.43192
 11
39.978992
 21
63.75
 72
     1
 10
39.978992
 20
63.75
 11
39.2580320000001
 21
63.75
 72
     1
 10
39.2580320000001
 20
63.75
 11
39.2580320000001
 21
64.47072
 72
     1
 10
39.2580320000001
 20
64.47072
 11
37.9609760000001
 21
64.47072
 72
     1
 10
37.9609760000001
 20
64.47072
 11
37.9609760000001
 21
63.75
 72
     1
 10
37.9609760000001
 20
63.75
 11
37.2400160000001
 21
63.75
 72
     1
 10
37.2400160000001
 20
63.75
 11
37.2400160000001
 21
65.43192
 72
     1
 10
37.2400160000001
 20
65.43192
 11
37.9609760000001
 21
65.43192
 72
     1
 10
37.9609760000001
 20
65.43192
 11
37.9609760000001
 21
64.7112
 72
     1
 10
37.9609760000001
 20
64.7112
 11
39.2580320000001
 21
64.7112
 72
     1
 10
39.2580320000001
 20
64.7112
 11
39.2580320000001
 21
65.43192
 72
     1
 10
39.2580320000001
 20
65.43192
 11
39.978992
 21
65.43192
 97
       12
330
153
330
154
330
155
330
1B4
330
156
330
157
330
158
330
1AF
330
1B0
330
1B1
330
1B2
330
1B3
 75
     1
 76
     0
 52
90.00000000000001
 41
0.1
 77
     0
 78
     1
 53
90.00000000000001
 43
0.0
 44
0.0
 45
-0.1
 46
0.0
 79
     0
 98
        1
 10
0.0
 20
0.0
  0
HATCH
  5
3EE
330
1F
100
AcDbEntity
  8
1
  6
Continuous
 62
     4
100
AcDbHatch
 10
0.0
 20
0.0
 30
0.0
210
0.0
220
0.0
230
1.0
  2
_USER
 70
     0
 71
     1
 91
        1
 92
        1
 93
        4
 72
     1
 10
32.0250160000001
 20
65.3733333333333
 11
32.0250160000001
 21
61.6266666666667
 72
     1
 10
32.0250160000001
 20
61.6266666666667
 11
30.6200160000001
 21
61.6266666666667
 72
     1
 10
30.6200160000001
 20
61.6266666666667
 11
30.6200160000001
 21
65.3733333333333
 72
     1
 10
30.6200160000001
 20
65.3733333333333
 11
32.0250160000001
 21
65.3733333333333
 97
        4
330
14E
330
14C
330
14D
330
1AE
 75
     1
 76
     0
 52
90.00000000000001
 41
0.1
 77
     0
 78
     1
 53
90.00000000000001
 43
0.0
 44
0.0
 45
-0.1
 46
0.0
 79
     0
 98
        1
 10
0.0
 20
0.0
  0
HATCH
  5
3EF
330
1F
100
AcDbEntity
  8
1
  6
Continuous
 62
     4
100
AcDbHatch
 10
0.0
 20
0.0
 30
0.0
210
0.0
220
0.0
230
1.0
  2
_USER
 70
     0
 71
     1
 91
        1
 92
        1
 93
        4
 72
     1
 10
34.1325160000001
 20
65.3733333333333
 11
34.1325160000001
 21
61.6266666666667
 72
     1
 10
34.1325160000001
 20
61.6266666666667
 11
32.7275160000001
 21
61.6266666666667
 72
     1
 10
32.7275160000001
 20
61.6266666666667
 11
32.7275160000001
 21
65.3733333333333
 72
     1
 10
32.7275160000001
 20
65.3733333333333
 11
34.1325160000001
 21
65.3733333333333
 97
        4
330
150
330
14B
330
14F
330
1AD
 75
     1
 76
     0
 52
90.00000000000001
 41
0.1
 77
     0
 78
     1
 53
90.00000000000001
 43
0.0
 44
0.0
 45
-0.1
 46
0.0
 79
     0
 98
        1
 10
0.0
 20
0.0
  0
HATCH
  5
3F0
330
1F
100
AcDbEntity
  8
1
  6
Continuous
 62
     4
100
AcDbHatch
 10
0.0
 20
0.0
 30
0.0
210
0.0
220
0.0
230
1.0
  2
SOLID
 70
     1
 71
     1
 91
        1
 92
        1
 93
       13
 72
     1
 10
38.1094954908677
 20
63.021163661408
 11
37.8219954908677
 21
63.021163661408
 72
     1
 10
37.8219954908677
 20
63.021163661408
 11
37.7860579908677
 21
62.927413661408
 72
     1
 10
37.7860579908677
 20
62.927413661408
 11
37.6782454908677
 21
62.802413661408
 72
     1
 10
37.6782454908677
 20
62.802413661408
 11
37.5704329908677
 21
62.708663661408
 72
     1
 10
37.5704329908677
 20
62.708663661408
 11
37.4266829908677
 21
62.646163661408
 72
     1
 10
37.4266829908677
 20
62.646163661408
 11
37.3188704908677
 21
62.614913661408
 72
     1
 10
37.3188704908677
 20
62.614913661408
 11
37.1391829908677
 21
62.583663661408
 72
     1
 10
37.1391829908677
 20
62.583663661408
 11
37.0673079908677
 21
62.583663661408
 72
     1
 10
37.0673079908677
 20
62.583663661408
 11
37.0673079908677
 21
62.333663661408
 72
     1
 10
37.0673079908677
 20
62.333663661408
 11
37.7501204908677
 21
62.333663661408
 72
     1
 10
37.7501204908677
 20
62.333663661408
 11
37.7501204908677
 21
60.521163661408
 72
     1
 10
37.7501204908677
 20
60.521163661408
 11
38.1094954908677
 21
60.521163661408
 72
     1
 10
38.1094954908677
 20
60.521163661408
 11
38.1094954908677
 21
63.021163661408
 97
       13
330
1F4
330
1F3
330
1F2
330
1F1
330
1F0
330
1EF
330
1EE
330
1ED
330
1EC
330
1EB
330
1EA
330
1E9
330
1E8
 75
     0
 76
     1
 98
        1
 10
0.0
 20
0.0
  0
HATCH
  5
3F1
330
1F
100
AcDbEntity
  8
1
  6
Continuous
 62
     4
100
AcDbHatch
 10
0.0
 20
0.0
 30
0.0
210
0.0
220
0.0
230
1.0
  2
SOLID
 70
     1
 71
     1
 91
        1
 92
        1
 93
        4
 72
     1
 10
39.0438704908677
 20
60.521163661408
 11
40.1219954908677
 21
62.396163661408
 72
     1
 10
40.1219954908677
 20
62.396163661408
 11
39.7626204908677
 21
62.396163661408
 72
     1
 10
39.7626204908677
 20
62.396163661408
 11
38.6844954908677
 21
60.521163661408
 72
     1
 10
38.6844954908677
 20
60.521163661408
 11
39.0438704908677
 21
60.521163661408
 97
        4
330
1F8
330
1F7
330
1F6
330
1F5
 75
     0
 76
     1
 98
        1
 10
0.0
 20
0.0
  0
HATCH
  5
3F2
330
1F
100
AcDbEntity
  8
1
  6
Continuous
 62
     4
100
AcDbHatch
 10
0.0
 20
0.0
 30
0.0
210
0.0
220
0.0
230
1.0
  2
SOLID
 70
     1
 71
     1
 91
        2
 92
        1
 93
       11
 72
     1
 10
42.3141829908677
 20
63.021163661408
 11
42.3141829908677
 21
61.396163661408
 72
     1
 10
42.3141829908677
 20
61.396163661408
 11
42.6735579908677
 21
61.396163661408
 72
     1
 10
42.6735579908677
 20
61.396163661408
 11
42.6735579908677
 21
61.083663661408
 72
     1
 10
42.6735579908677
 20
61.083663661408
 11
42.3141829908677
 21
61.083663661408
 72
     1
 10
42.3141829908677
 20
61.083663661408
 11
42.3141829908677
 21
60.521163661408
 72
     1
 10
42.3141829908677
 20
60.521163661408
 11
41.9188704908677
 21
60.521163661408
 72
     1
 10
41.9188704908677
 20
60.521163661408
 11
41.9188704908677
 21
61.083663661408
 72
     1
 10
41.9188704908677
 20
61.083663661408
 11
40.6969954908677
 21
61.083663661408
 72
     1
 10
40.6969954908677
 20
61.083663661408
 11
40.6969954908677
 21
61.427413661408
 72
     1
 10
40.6969954908677
 20
61.427413661408
 11
41.9188704908677
 21
63.021163661408
 72
     1
 10
41.9188704908677
 20
63.021163661408
 11
42.3141829908677
 21
63.021163661408
 97
       11
330
203
330
202
330
201
330
200
330
1FF
330
1FE
330
1FD
330
1FC
330
1FB
330
1FA
330
1F9
 92
       16
 93
        3
 72
     1
 10
41.0923079908677
 20
61.396163661408
 11
41.9188704908677
 21
61.396163661408
 72
     1
 10
41.9188704908677
 20
61.396163661408
 11
41.9188704908677
 21
62.458663661408
 72
     1
 10
41.9188704908677
 20
62.458663661408
 11
41.0923079908677
 21
61.396163661408
 97
        3
330
206
330
205
330
204
 75
     0
 76
     1
 98
        1
 10
0.0
 20
0.0
  0
HATCH
  5
3F3
330
1F
100
AcDbEntity
  8
1
  6
Continuous
 62
     4
100
AcDbHatch
 10
0.0
 20
0.0
 30
0.0
210
0.0
220
0.0
230
1.0
  2
SOLID
 70
     1
 71
     1
 91
        1
 92
        1
 93
        4
 72
     1
 10
43.2485579908677
 20
61.708663661408
 11
43.2485579908677
 21
61.427413661408
 72
     1
 10
43.2485579908677
 20
61.427413661408
 11
45.6563704908677
 21
61.427413661408
 72
     1
 10
45.6563704908677
 20
61.427413661408
 11
45.6563704908677
 21
61.708663661408
 72
     1
 10
45.6563704908677
 20
61.708663661408
 11
43.2485579908677
 21
61.708663661408
 97
        4
330
20A
330
209
330
208
330
207
 75
     0
 76
     1
 98
        1
 10
0.0
 20
0.0
  0
HATCH
  5
3F4
330
1F
100
AcDbEntity
  8
1
  6
Continuous
 62
     4
100
AcDbHatch
 10
0.0
 20
0.0
 30
0.0
210
0.0
220
0.0
230
1.0
  2
SOLID
 70
     1
 71
     1
 91
        2
 92
        1
 93
       59
 72
     1
 10
48.0641829908677
 20
61.021163661408
 11
47.9923079908677
 21
60.896163661408
 72
     1
 10
47.9923079908677
 20
60.896163661408
 11
47.8844954908677
 21
60.771163661408
 72
     1
 10
47.8844954908677
 20
60.771163661408
 11
47.7766829908677
 21
60.677413661408
 72
     1
 10
47.7766829908677
 20
60.677413661408
 11
47.6688704908677
 21
60.614913661408
 72
     1
 10
47.6688704908677
 20
60.614913661408
 11
47.4891829908677
 21
60.552413661408
 72
     1
 10
47.4891829908677
 20
60.552413661408
 11
47.3094954908677
 21
60.521163661408
 72
     1
 10
47.3094954908677
 20
60.521163661408
 11
47.1298079908677
 21
60.521163661408
 72
     1
 10
47.1298079908677
 20
60.521163661408
 11
46.9501204908677
 21
60.552413661408
 72
     1
 10
46.9501204908677
 20
60.552413661408
 11
46.7704329908677
 21
60.614913661408
 72
     1
 10
46.7704329908677
 20
60.614913661408
 11
46.6626204908677
 21
60.677413661408
 72
     1
 10
46.6626204908677
 20
60.677413661408
 11
46.5548079908677
 21
60.771163661408
 72
     1
 10
46.5548079908677
 20
60.771163661408
 11
46.4469954908677
 21
60.896163661408
 72
     1
 10
46.4469954908677
 20
60.896163661408
 11
46.3751204908677
 21
61.021163661408
 72
     1
 10
46.3751204908677
 20
61.021163661408
 11
46.3032454908677
 21
61.177413661408
 72
     1
 10
46.3032454908677
 20
61.177413661408
 11
46.2673079908677
 21
61.364913661408
 72
     1
 10
46.2673079908677
 20
61.364913661408
 11
46.2313704908677
 21
61.646163661408
 72
     1
 10
46.2313704908677
 20
61.646163661408
 11
46.2313704908677
 21
61.896163661408
 72
     1
 10
46.2313704908677
 20
61.896163661408
 11
46.2673079908677
 21
62.177413661408
 72
     1
 10
46.2673079908677
 20
62.177413661408
 11
46.3032454908677
 21
62.364913661408
 72
     1
 10
46.3032454908677
 20
62.364913661408
 11
46.3751204908677
 21
62.521163661408
 72
     1
 10
46.3751204908677
 20
62.521163661408
 11
46.4469954908677
 21
62.646163661408
 72
     1
 10
46.4469954908677
 20
62.646163661408
 11
46.5548079908677
 21
62.771163661408
 72
     1
 10
46.5548079908677
 20
62.771163661408
 11
46.6626204908677
 21
62.864913661408
 72
     1
 10
46.6626204908677
 20
62.864913661408
 11
46.7704329908677
 21
62.927413661408
 72
     1
 10
46.7704329908677
 20
62.927413661408
 11
46.9501204908677
 21
62.989913661408
 72
     1
 10
46.9501204908677
 20
62.989913661408
 11
47.0938704908677
 21
63.021163661408
 72
     1
 10
47.0938704908677
 20
63.021163661408
 11
47.3454329908677
 21
63.021163661408
 72
     1
 10
47.3454329908677
 20
63.021163661408
 11
47.4891829908677
 21
62.989913661408
 72
     1
 10
47.4891829908677
 20
62.989913661408
 11
47.6688704908677
 21
62.927413661408
 72
     1
 10
47.6688704908677
 20
62.927413661408
 11
47.7766829908677
 21
62.864913661408
 72
     1
 10
47.7766829908677
 20
62.864913661408
 11
47.8844954908677
 21
62.771163661408
 72
     1
 10
47.8844954908677
 20
62.771163661408
 11
47.9923079908677
 21
62.646163661408
 72
     1
 10
47.9923079908677
 20
62.646163661408
 11
48.0641829908677
 21
62.521163661408
 72
     1
 10
48.0641829908677
 20
62.521163661408
 11
48.1001204908677
 21
62.364913661408
 72
     1
 10
48.1001204908677
 20
62.364913661408
 11
48.1001204908677
 21
62.302413661408
 72
     1
 10
48.1001204908677
 20
62.302413661408
 11
47.7407454908677
 21
62.302413661408
 72
     1
 10
47.7407454908677
 20
62.302413661408
 11
47.7048079908677
 21
62.458663661408
 72
     1
 10
47.7048079908677
 20
62.458663661408
 11
47.6329329908677
 21
62.552413661408
 72
     1
 10
47.6329329908677
 20
62.552413661408
 11
47.4891829908677
 21
62.646163661408
 72
     1
 10
47.4891829908677
 20
62.646163661408
 11
47.3454329908677
 21
62.708663661408
 72
     1
 10
47.3454329908677
 20
62.708663661408
 11
47.0938704908677
 21
62.708663661408
 72
     1
 10
47.0938704908677
 20
62.708663661408
 11
46.9501204908677
 21
62.646163661408
 72
     1
 10
46.9501204908677
 20
62.646163661408
 11
46.8063704908677
 21
62.552413661408
 72
     1
 10
46.8063704908677
 20
62.552413661408
 11
46.7344954908677
 21
62.458663661408
 72
     1
 10
46.7344954908677
 20
62.458663661408
 11
46.6626204908677
 21
62.302413661408
 72
     1
 10
46.6626204908677
 20
62.302413661408
 11
46.5907454908677
 21
61.864913661408
 72
     1
 10
46.5907454908677
 20
61.864913661408
 11
46.7704329908677
 21
62.021163661408
 72
     1
 10
46.7704329908677
 20
62.021163661408
 11
46.9501204908677
 21
62.114913661408
 72
     1
 10
46.9501204908677
 20
62.114913661408
 11
47.1298079908677
 21
62.146163661408
 72
     1
 10
47.1298079908677
 20
62.146163661408
 11
47.3094954908677
 21
62.146163661408
 72
     1
 10
47.3094954908677
 20
62.146163661408
 11
47.4891829908677
 21
62.114913661408
 72
     1
 10
47.4891829908677
 20
62.114913661408
 11
47.6688704908677
 21
62.052413661408
 72
     1
 10
47.6688704908677
 20
62.052413661408
 11
47.7766829908677
 21
61.989913661408
 72
     1
 10
47.7766829908677
 20
61.989913661408
 11
47.8844954908677
 21
61.896163661408
 72
     1
 10
47.8844954908677
 20
61.896163661408
 11
47.9923079908677
 21
61.771163661408
 72
     1
 10
47.9923079908677
 20
61.771163661408
 11
48.0641829908677
 21
61.646163661408
 72
     1
 10
48.0641829908677
 20
61.646163661408
 11
48.1360579908677
 21
61.458663661408
 72
     1
 10
48.1360579908677
 20
61.458663661408
 11
48.1360579908677
 21
61.208663661408
 72
     1
 10
48.1360579908677
 20
61.208663661408
 11
48.0641829908677
 21
61.021163661408
 97
       59
330
259
330
258
330
257
330
256
330
255
330
254
330
253
330
252
330
251
330
250
330
24F
330
24E
330
24D
330
24C
330
24B
330
24A
330
249
330
248
330
247
330
246
330
245
330
244
330
243
330
242
330
241
330
240
330
23F
330
23E
330
23D
330
23C
330
23B
330
23A
330
239
330
238
330
237
330
236
330
235
330
234
330
233
330
232
330
231
330
230
330
22F
330
22E
330
22D
330
22C
330
22B
330
22A
330
229
330
228
330
227
330
226
330
225
330
224
330
223
330
222
330
221
330
220
330
21F
 92
       16
 93
       20
 72
     1
 10
47.7048079908677
 20
61.083663661408
 11
47.7766829908677
 21
61.239913661408
 72
     1
 10
47.7766829908677
 20
61.239913661408
 11
47.7766829908677
 21
61.427413661408
 72
     1
 10
47.7766829908677
 20
61.427413661408
 11
47.7048079908677
 21
61.583663661408
 72
     1
 10
47.7048079908677
 20
61.583663661408
 11
47.6329329908677
 21
61.677413661408
 72
     1
 10
47.6329329908677
 20
61.677413661408
 11
47.4891829908677
 21
61.771163661408
 72
     1
 10
47.4891829908677
 20
61.771163661408
 11
47.3094954908677
 21
61.833663661408
 72
     1
 10
47.3094954908677
 20
61.833663661408
 11
47.1298079908677
 21
61.833663661408
 72
     1
 10
47.1298079908677
 20
61.833663661408
 11
46.9501204908677
 21
61.771163661408
 72
     1
 10
46.9501204908677
 20
61.771163661408
 11
46.8063704908677
 21
61.677413661408
 72
     1
 10
46.8063704908677
 20
61.677413661408
 11
46.7344954908677
 21
61.583663661408
 72
     1
 10
46.7344954908677
 20
61.583663661408
 11
46.6626204908677
 21
61.427413661408
 72
     1
 10
46.6626204908677
 20
61.427413661408
 11
46.6626204908677
 21
61.239913661408
 72
     1
 10
46.6626204908677
 20
61.239913661408
 11
46.7344954908677
 21
61.083663661408
 72
     1
 10
46.7344954908677
 20
61.083663661408
 11
46.8063704908677
 21
60.989913661408
 72
     1
 10
46.8063704908677
 20
60.989913661408
 11
46.9501204908677
 21
60.896163661408
 72
     1
 10
46.9501204908677
 20
60.896163661408
 11
47.1298079908677
 21
60.833663661408
 72
     1
 10
47.1298079908677
 20
60.833663661408
 11
47.3094954908677
 21
60.833663661408
 72
     1
 10
47.3094954908677
 20
60.833663661408
 11
47.4891829908677
 21
60.896163661408
 72
     1
 10
47.4891829908677
 20
60.896163661408
 11
47.6329329908677
 21
60.989913661408
 72
     1
 10
47.6329329908677
 20
60.989913661408
 11
47.7048079908677
 21
61.083663661408
 97
       20
330
21E
330
21D
330
21C
330
21B
330
21A
330
219
330
218
330
217
330
216
330
215
330
214
330
213
330
212
330
211
330
210
330
20F
330
20E
330
20D
330
20C
330
20B
 75
     0
 76
     1
 98
        1
 10
0.0
 20
0.0
  0
HATCH
  5
3F5
330
1F
100
AcDbEntity
  8
1
  6
Continuous
 62
     4
100
AcDbHatch
 10
0.0
 20
0.0
 30
0.0
210
0.0
220
0.0
230
1.0
  2
SOLID
 70
     1
 71
     1
 91
        2
 92
        1
 93
       40
 72
     1
 10
50.3641829908677
 20
60.771163661408
 11
50.4719954908677
 21
60.896163661408
 72
     1
 10
50.4719954908677
 20
60.896163661408
 11
50.5438704908677
 21
61.021163661408
 72
     1
 10
50.5438704908677
 20
61.021163661408
 11
50.6157454908677
 21
61.177413661408
 72
     1
 10
50.6157454908677
 20
61.177413661408
 11
50.6516829908677
 21
61.364913661408
 72
     1
 10
50.6516829908677
 20
61.364913661408
 11
50.6876204908677
 21
61.646163661408
 72
     1
 10
50.6876204908677
 20
61.646163661408
 11
50.6876204908677
 21
61.896163661408
 72
     1
 10
50.6876204908677
 20
61.896163661408
 11
50.6516829908677
 21
62.177413661408
 72
     1
 10
50.6516829908677
 20
62.177413661408
 11
50.6157454908677
 21
62.364913661408
 72
     1
 10
50.6157454908677
 20
62.364913661408
 11
50.5438704908677
 21
62.521163661408
 72
     1
 10
50.5438704908677
 20
62.521163661408
 11
50.4719954908677
 21
62.646163661408
 72
     1
 10
50.4719954908677
 20
62.646163661408
 11
50.3641829908677
 21
62.771163661408
 72
     1
 10
50.3641829908677
 20
62.771163661408
 11
50.2563704908677
 21
62.864913661408
 72
     1
 10
50.2563704908677
 20
62.864913661408
 11
50.1485579908677
 21
62.927413661408
 72
     1
 10
50.1485579908677
 20
62.927413661408
 11
49.9688704908677
 21
62.989913661408
 72
     1
 10
49.9688704908677
 20
62.989913661408
 11
49.8251204908677
 21
63.021163661408
 72
     1
 10
49.8251204908677
 20
63.021163661408
 11
49.5735579908677
 21
63.021163661408
 72
     1
 10
49.5735579908677
 20
63.021163661408
 11
49.4298079908677
 21
62.989913661408
 72
     1
 10
49.4298079908677
 20
62.989913661408
 11
49.2501204908677
 21
62.927413661408
 72
     1
 10
49.2501204908677
 20
62.927413661408
 11
49.1423079908677
 21
62.864913661408
 72
     1
 10
49.1423079908677
 20
62.864913661408
 11
49.0344954908677
 21
62.771163661408
 72
     1
 10
49.0344954908677
 20
62.771163661408
 11
48.9266829908677
 21
62.646163661408
 72
     1
 10
48.9266829908677
 20
62.646163661408
 11
48.8548079908677
 21
62.521163661408
 72
     1
 10
48.8548079908677
 20
62.521163661408
 11
48.7829329908677
 21
62.364913661408
 72
     1
 10
48.7829329908677
 20
62.364913661408
 11
48.7469954908677
 21
62.177413661408
 72
     1
 10
48.7469954908677
 20
62.177413661408
 11
48.7110579908677
 21
61.896163661408
 72
     1
 10
48.7110579908677
 20
61.896163661408
 11
48.7110579908677
 21
61.646163661408
 72
     1
 10
48.7110579908677
 20
61.646163661408
 11
48.7469954908677
 21
61.364913661408
 72
     1
 10
48.7469954908677
 20
61.364913661408
 11
48.7829329908677
 21
61.177413661408
 72
     1
 10
48.7829329908677
 20
61.177413661408
 11
48.8548079908677
 21
61.021163661408
 72
     1
 10
48.8548079908677
 20
61.021163661408
 11
48.9266829908677
 21
60.896163661408
 72
     1
 10
48.9266829908677
 20
60.896163661408
 11
49.0344954908677
 21
60.771163661408
 72
     1
 10
49.0344954908677
 20
60.771163661408
 11
49.1423079908677
 21
60.677413661408
 72
     1
 10
49.1423079908677
 20
60.677413661408
 11
49.2501204908677
 21
60.614913661408
 72
     1
 10
49.2501204908677
 20
60.614913661408
 11
49.4298079908677
 21
60.552413661408
 72
     1
 10
49.4298079908677
 20
60.552413661408
 11
49.5735579908677
 21
60.521163661408
 72
     1
 10
49.5735579908677
 20
60.521163661408
 11
49.8251204908677
 21
60.521163661408
 72
     1
 10
49.8251204908677
 20
60.521163661408
 11
49.9688704908677
 21
60.552413661408
 72
     1
 10
49.9688704908677
 20
60.552413661408
 11
50.1485579908677
 21
60.614913661408
 72
     1
 10
50.1485579908677
 20
60.614913661408
 11
50.2563704908677
 21
60.677413661408
 72
     1
 10
50.2563704908677
 20
60.677413661408
 11
50.3641829908677
 21
60.771163661408
 97
       40
330
299
330
298
330
297
330
296
330
295
330
294
330
293
330
292
330
291
330
290
330
28F
330
28E
330
28D
330
28C
330
28B
330
28A
330
289
330
288
330
287
330
286
330
285
330
284
330
283
330
282
330
281
330
280
330
27F
330
27E
330
27D
330
27C
330
27B
330
27A
330
279
330
278
330
277
330
276
330
275
330
274
330
273
330
272
 92
       16
 93
       24
 72
     1
 10
49.8251204908677
 20
60.833663661408
 11
49.9688704908677
 21
60.896163661408
 72
     1
 10
49.9688704908677
 20
60.896163661408
 11
50.1126204908677
 21
60.989913661408
 72
     1
 10
50.1126204908677
 20
60.989913661408
 11
50.1844954908677
 21
61.083663661408
 72
     1
 10
50.1844954908677
 20
61.083663661408
 11
50.2563704908677
 21
61.239913661408
 72
     1
 10
50.2563704908677
 20
61.239913661408
 11
50.2923079908677
 21
61.583663661408
 72
     1
 10
50.2923079908677
 20
61.583663661408
 11
50.2923079908677
 21
61.958663661408
 72
     1
 10
50.2923079908677
 20
61.958663661408
 11
50.2563704908677
 21
62.302413661408
 72
     1
 10
50.2563704908677
 20
62.302413661408
 11
50.1844954908677
 21
62.458663661408
 72
     1
 10
50.1844954908677
 20
62.458663661408
 11
50.1126204908677
 21
62.552413661408
 72
     1
 10
50.1126204908677
 20
62.552413661408
 11
49.9688704908677
 21
62.646163661408
 72
     1
 10
49.9688704908677
 20
62.646163661408
 11
49.8251204908677
 21
62.708663661408
 72
     1
 10
49.8251204908677
 20
62.708663661408
 11
49.5735579908677
 21
62.708663661408
 72
     1
 10
49.5735579908677
 20
62.708663661408
 11
49.4298079908677
 21
62.646163661408
 72
     1
 10
49.4298079908677
 20
62.646163661408
 11
49.2860579908677
 21
62.552413661408
 72
     1
 10
49.2860579908677
 20
62.552413661408
 11
49.2141829908677
 21
62.458663661408
 72
     1
 10
49.2141829908677
 20
62.458663661408
 11
49.1423079908677
 21
62.302413661408
 72
     1
 10
49.1423079908677
 20
62.302413661408
 11
49.1063704908677
 21
61.958663661408
 72
     1
 10
49.1063704908677
 20
61.958663661408
 11
49.1063704908677
 21
61.583663661408
 72
     1
 10
49.1063704908677
 20
61.583663661408
 11
49.1423079908677
 21
61.239913661408
 72
     1
 10
49.1423079908677
 20
61.239913661408
 11
49.2141829908677
 21
61.083663661408
 72
     1
 10
49.2141829908677
 20
61.083663661408
 11
49.2860579908677
 21
60.989913661408
 72
     1
 10
49.2860579908677
 20
60.989913661408
 11
49.4298079908677
 21
60.896163661408
 72
     1
 10
49.4298079908677
 20
60.896163661408
 11
49.5735579908677
 21
60.833663661408
 72
     1
 10
49.5735579908677
 20
60.833663661408
 11
49.8251204908677
 21
60.833663661408
 97
       24
330
271
330
270
330
26F
330
26E
330
26D
330
26C
330
26B
330
26A
330
269
330
268
330
267
330
266
330
265
330
264
330
263
330
262
330
261
330
260
330
25F
330
25E
330
25D
330
25C
330
25B
330
25A
 75
     0
 76
     1
 98
        1
 10
0.0
 20
0.0
  0
HATCH
  5
3F6
330
1F
100
AcDbEntity
  8
1
  6
Continuous
 62
     4
100
AcDbHatch
 10
0.0
 20
0.0
 30
0.0
210
0.0
220
0.0
230
1.0
  2
SOLID
 70
     1
 71
     1
 91
        2
 92
        1
 93
       40
 72
     1
 10
52.9157454908677
 20
60.771163661408
 11
53.0235579908677
 21
60.896163661408
 72
     1
 10
53.0235579908677
 20
60.896163661408
 11
53.0954329908677
 21
61.021163661408
 72
     1
 10
53.0954329908677
 20
61.021163661408
 11
53.1673079908677
 21
61.177413661408
 72
     1
 10
53.1673079908677
 20
61.177413661408
 11
53.2032454908677
 21
61.364913661408
 72
     1
 10
53.2032454908677
 20
61.364913661408
 11
53.2391829908677
 21
61.646163661408
 72
     1
 10
53.2391829908677
 20
61.646163661408
 11
53.2391829908677
 21
61.896163661408
 72
     1
 10
53.2391829908677
 20
61.896163661408
 11
53.2032454908677
 21
62.177413661408
 72
     1
 10
53.2032454908677
 20
62.177413661408
 11
53.1673079908677
 21
62.364913661408
 72
     1
 10
53.1673079908677
 20
62.364913661408
 11
53.0954329908677
 21
62.521163661408
 72
     1
 10
53.0954329908677
 20
62.521163661408
 11
53.0235579908677
 21
62.646163661408
 72
     1
 10
53.0235579908677
 20
62.646163661408
 11
52.9157454908677
 21
62.771163661408
 72
     1
 10
52.9157454908677
 20
62.771163661408
 11
52.8079329908677
 21
62.864913661408
 72
     1
 10
52.8079329908677
 20
62.864913661408
 11
52.7001204908677
 21
62.927413661408
 72
     1
 10
52.7001204908677
 20
62.927413661408
 11
52.5204329908677
 21
62.989913661408
 72
     1
 10
52.5204329908677
 20
62.989913661408
 11
52.3766829908677
 21
63.021163661408
 72
     1
 10
52.3766829908677
 20
63.021163661408
 11
52.1251204908677
 21
63.021163661408
 72
     1
 10
52.1251204908677
 20
63.021163661408
 11
51.9813704908677
 21
62.989913661408
 72
     1
 10
51.9813704908677
 20
62.989913661408
 11
51.8016829908677
 21
62.927413661408
 72
     1
 10
51.8016829908677
 20
62.927413661408
 11
51.6938704908677
 21
62.864913661408
 72
     1
 10
51.6938704908677
 20
62.864913661408
 11
51.5860579908677
 21
62.771163661408
 72
     1
 10
51.5860579908677
 20
62.771163661408
 11
51.4782454908677
 21
62.646163661408
 72
     1
 10
51.4782454908677
 20
62.646163661408
 11
51.4063704908677
 21
62.521163661408
 72
     1
 10
51.4063704908677
 20
62.521163661408
 11
51.3344954908677
 21
62.364913661408
 72
     1
 10
51.3344954908677
 20
62.364913661408
 11
51.2985579908677
 21
62.177413661408
 72
     1
 10
51.2985579908677
 20
62.177413661408
 11
51.2626204908677
 21
61.896163661408
 72
     1
 10
51.2626204908677
 20
61.896163661408
 11
51.2626204908677
 21
61.646163661408
 72
     1
 10
51.2626204908677
 20
61.646163661408
 11
51.2985579908677
 21
61.364913661408
 72
     1
 10
51.2985579908677
 20
61.364913661408
 11
51.3344954908677
 21
61.177413661408
 72
     1
 10
51.3344954908677
 20
61.177413661408
 11
51.4063704908677
 21
61.021163661408
 72
     1
 10
51.4063704908677
 20
61.021163661408
 11
51.4782454908677
 21
60.896163661408
 72
     1
 10
51.4782454908677
 20
60.896163661408
 11
51.5860579908677
 21
60.771163661408
 72
     1
 10
51.5860579908677
 20
60.771163661408
 11
51.6938704908677
 21
60.677413661408
 72
     1
 10
51.6938704908677
 20
60.677413661408
 11
51.8016829908677
 21
60.614913661408
 72
     1
 10
51.8016829908677
 20
60.614913661408
 11
51.9813704908677
 21
60.552413661408
 72
     1
 10
51.9813704908677
 20
60.552413661408
 11
52.1251204908677
 21
60.521163661408
 72
     1
 10
52.1251204908677
 20
60.521163661408
 11
52.3766829908677
 21
60.521163661408
 72
     1
 10
52.3766829908677
 20
60.521163661408
 11
52.5204329908677
 21
60.552413661408
 72
     1
 10
52.5204329908677
 20
60.552413661408
 11
52.7001204908677
 21
60.614913661408
 72
     1
 10
52.7001204908677
 20
60.614913661408
 11
52.8079329908677
 21
60.677413661408
 72
     1
 10
52.8079329908677
 20
60.677413661408
 11
52.9157454908677
 21
60.771163661408
 97
       40
330
2D9
330
2D8
330
2D7
330
2D6
330
2D5
330
2D4
330
2D3
330
2D2
330
2D1
330
2D0
330
2CF
330
2CE
330
2CD
330
2CC
330
2CB
330
2CA
330
2C9
330
2C8
330
2C7
330
2C6
330
2C5
330
2C4
330
2C3
330
2C2
330
2C1
330
2C0
330
2BF
330
2BE
330
2BD
330
2BC
330
2BB
330
2BA
330
2B9
330
2B8
330
2B7
330
2B6
330
2B5
330
2B4
330
2B3
330
2B2
 92
       16
 93
       24
 72
     1
 10
52.3766829908677
 20
60.833663661408
 11
52.5204329908677
 21
60.896163661408
 72
     1
 10
52.5204329908677
 20
60.896163661408
 11
52.6641829908677
 21
60.989913661408
 72
     1
 10
52.6641829908677
 20
60.989913661408
 11
52.7360579908677
 21
61.083663661408
 72
     1
 10
52.7360579908677
 20
61.083663661408
 11
52.8079329908677
 21
61.239913661408
 72
     1
 10
52.8079329908677
 20
61.239913661408
 11
52.8438704908677
 21
61.583663661408
 72
     1
 10
52.8438704908677
 20
61.583663661408
 11
52.8438704908677
 21
61.958663661408
 72
     1
 10
52.8438704908677
 20
61.958663661408
 11
52.8079329908677
 21
62.302413661408
 72
     1
 10
52.8079329908677
 20
62.302413661408
 11
52.7360579908677
 21
62.458663661408
 72
     1
 10
52.7360579908677
 20
62.458663661408
 11
52.6641829908677
 21
62.552413661408
 72
     1
 10
52.6641829908677
 20
62.552413661408
 11
52.5204329908677
 21
62.646163661408
 72
     1
 10
52.5204329908677
 20
62.646163661408
 11
52.3766829908677
 21
62.708663661408
 72
     1
 10
52.3766829908677
 20
62.708663661408
 11
52.1251204908677
 21
62.708663661408
 72
     1
 10
52.1251204908677
 20
62.708663661408
 11
51.9813704908677
 21
62.646163661408
 72
     1
 10
51.9813704908677
 20
62.646163661408
 11
51.8376204908677
 21
62.552413661408
 72
     1
 10
51.8376204908677
 20
62.552413661408
 11
51.7657454908677
 21
62.458663661408
 72
     1
 10
51.7657454908677
 20
62.458663661408
 11
51.6938704908677
 21
62.302413661408
 72
     1
 10
51.6938704908677
 20
62.302413661408
 11
51.6579329908677
 21
61.958663661408
 72
     1
 10
51.6579329908677
 20
61.958663661408
 11
51.6579329908677
 21
61.583663661408
 72
     1
 10
51.6579329908677
 20
61.583663661408
 11
51.6938704908677
 21
61.239913661408
 72
     1
 10
51.6938704908677
 20
61.239913661408
 11
51.7657454908677
 21
61.083663661408
 72
     1
 10
51.7657454908677
 20
61.083663661408
 11
51.8376204908677
 21
60.989913661408
 72
     1
 10
51.8376204908677
 20
60.989913661408
 11
51.9813704908677
 21
60.896163661408
 72
     1
 10
51.9813704908677
 20
60.896163661408
 11
52.1251204908677
 21
60.833663661408
 72
     1
 10
52.1251204908677
 20
60.833663661408
 11
52.3766829908677
 21
60.833663661408
 97
       24
330
2B1
330
2B0
330
2AF
330
2AE
330
2AD
330
2AC
330
2AB
330
2AA
330
2A9
330
2A8
330
2A7
330
2A6
330
2A5
330
2A4
330
2A3
330
2A2
330
2A1
330
2A0
330
29F
330
29E
330
29D
330
29C
330
29B
330
29A
 75
     0
 76
     1
 98
        1
 10
0.0
 20
0.0
  0
ENDSEC
  0
SECTION
  2
OBJECTS
  0
DICTIONARY
  5
C
330
0
100
AcDbDictionary
281
     1
  3
ACAD_GROUP
350
D
  3
ACAD_LAYOUT
350
1A
  3
ACAD_MATERIAL
350
43
  3
ACAD_MLEADERSTYLE
350
3F9
  3
ACAD_MLINESTYLE
350
17
  3
ACAD_PLOTSETTINGS
350
19
  3
ACAD_PLOTSTYLENAME
350
E
  3
ACAD_SCALELIST
350
47
  3
ACAD_VISUALSTYLE
350
2A
  3
AcDbVariableDictionary
350
3F7
  0
DICTIONARY
  5
D
102
{ACAD_REACTORS
330
C
102
}
330
C
100
AcDbDictionary
281
     1
  0
DICTIONARY
  5
1A
102
{ACAD_REACTORS
330
C
102
}
330
C
100
AcDbDictionary
281
     1
  3
Layout1
350
1E
  3
Layout2
350
26
  3
Model
350
22
  0
DICTIONARY
  5
43
102
{ACAD_REACTORS
330
C
102
}
330
C
100
AcDbDictionary
281
     1
  3
ByBlock
350
45
  3
ByLayer
350
44
  3
Global
350
46
  0
DICTIONARY
  5
3F9
102
{ACAD_REACTORS
330
C
102
}
330
C
100
AcDbDictionary
281
     1
  0
DICTIONARY
  5
17
102
{ACAD_REACTORS
330
C
102
}
330
C
100
AcDbDictionary
281
     1
  3
Standard
350
18
  0
DICTIONARY
  5
19
102
{ACAD_REACTORS
330
C
102
}
330
C
100
AcDbDictionary
281
     1
  0
ACDBDICTIONARYWDFLT
  5
E
102
{ACAD_REACTORS
330
C
102
}
330
C
100
AcDbDictionary
281
     1
  3
Normal
350
F
100
AcDbDictionaryWithDefault
340
F
  0
DICTIONARY
  5
47
102
{ACAD_REACTORS
330
C
102
}
330
C
100
AcDbDictionary
281
     1
  3
A0
350
48
  3
A1
350
49
  3
A2
350
4A
  3
A3
350
4B
  3
A4
350
4C
  3
A5
350
4D
  3
A6
350
4E
  3
A7
350
4F
  3
A8
350
50
  3
A9
350
51
  3
B0
350
52
  3
B1
350
53
  3
B2
350
54
  3
B3
350
55
  3
B4
350
56
  3
B5
350
57
  3
B6
350
58
  3
B7
350
59
  3
B8
350
5A
  3
B9
350
5B
  3
C0
350
5C
  3
C1
350
5D
  3
C2
350
5E
  3
C3
350
5F
  3
C4
350
60
  3
C5
350
61
  3
C6
350
62
  3
C7
350
63
  3
C8
350
64
  3
C9
350
65
  3
D0
350
66
  3
D1
350
67
  3
D2
350
68
  0
DICTIONARY
  5
2A
102
{ACAD_REACTORS
330
C
102
}
330
C
100
AcDbDictionary
281
     1
  3
2dWireframe
350
2F
  3
Basic
350
32
  3
Brighten
350
36
  3
ColorChange
350
3A
  3
Conceptual
350
34
  3
Dim
350
35
  3
EdgeColorOff
350
3D
  3
Facepattern
350
39
  3
Flat
350
2B
  3
FlatWithEdges
350
2C
  3
Gouraud
350
2D
  3
GouraudWithEdges
350
2E
  3
Hidden
350
31
  3
JitterOff
350
3B
  3
Linepattern
350
38
  3
OverhangOff
350
3C
  3
Realistic
350
33
  3
Shaded
350
42
  3
Shaded with edges
350
41
  3
Shades of Gray
350
3E
  3
Sketchy
350
3F
  3
Thicken
350
37
  3
Wireframe
350
30
  3
X-Ray
350
40
  0
DICTIONARY
  5
3F7
102
{ACAD_REACTORS
330
C
102
}
330
C
100
AcDbDictionary
281
     1
  3
CANNOSCALE
350
3FE
  3
DIMASSOC
350
3FC
  3
HIDETEXT
350
3FD
  3
MSLTSCALE
350
3FF
  0
LAYOUT
  5
1E
102
{ACAD_REACTORS
330
1A
102
}
330
1A
100
AcDbPlotSettings
  1

  2
none_device
  4

  6

 40
0.0
 41
0.0
 42
0.0
 43
0.0
 44
0.0
 45
0.0
 46
0.0
 47
0.0
 48
0.0
 49
0.0
140
0.0
141
0.0
142
1.0
143
1.0
 70
   688
 72
     0
 73
     0
 74
     5
  7

 75
    16
147
1.0
148
0.0
149
0.0
100
AcDbLayout
  1
Layout1
 70
     1
 71
     1
 10
0.0
 20
0.0
 11
12.0
 21
9.0
 12
0.0
 22
0.0
 32
0.0
 14
1.00000000000000E+20
 24
1.00000000000000E+20
 34
1.00000000000000E+20
 15
-1.00000000000000E+20
 25
-1.00000000000000E+20
 35
-1.00000000000000E+20
146
0.0
 13
0.0
 23
0.0
 33
0.0
 16
1.0
 26
0.0
 36
0.0
 17
0.0
 27
1.0
 37
0.0
 76
     0
330
1B
  0
LAYOUT
  5
26
102
{ACAD_REACTORS
330
1A
102
}
330
1A
100
AcDbPlotSettings
  1

  2
none_device
  4

  6

 40
0.0
 41
0.0
 42
0.0
 43
0.0
 44
0.0
 45
0.0
 46
0.0
 47
0.0
 48
0.0
 49
0.0
140
0.0
141
0.0
142
1.0
143
1.0
 70
   688
 72
     0
 73
     0
 74
     5
  7

 75
    16
147
1.0
148
0.0
149
0.0
100
AcDbLayout
  1
Layout2
 70
     1
 71
     2
 10
0.0
 20
0.0
 11
0.0
 21
0.0
 12
0.0
 22
0.0
 32
0.0
 14
0.0
 24
0.0
 34
0.0
 15
0.0
 25
0.0
 35
0.0
146
0.0
 13
0.0
 23
0.0
 33
0.0
 16
1.0
 26
0.0
 36
0.0
 17
0.0
 27
1.0
 37
0.0
 76
     0
330
23
  0
LAYOUT
  5
22
102
{ACAD_REACTORS
330
1A
102
}
330
1A
100
AcDbPlotSettings
  1

  2
none_device
  4
Letter_(8.50_x_11.00_Inches)
  6

 40
6.35
 41
6.35
 42
6.35000508
 43
6.35000508
 44
215.9
 45
279.4
 46
0.0
 47
0.0
 48
0.0
 49
0.0
140
0.0
141
0.0
142
1.0
143
1.0
 70
  1712
 72
     0
 73
     0
 74
     0
  7

 75
     0
147
1.0
148
0.0
149
0.0
100
AcDbLayout
  1
Model
 70
     1
 71
     0
 10
0.0
 20
0.0
 11
12.0
 21
9.0
 12
0.0
 22
0.0
 32
0.0
 14
-94.8993410679274
 24
-23.3894643871077
 34
0.0
 15
62.3834230620597
 25
92.309345864551
 35
0.0
146
0.0
 13
0.0
 23
0.0
 33
0.0
 16
1.0
 26
0.0
 36
0.0
 17
0.0
 27
1.0
 37
0.0
 76
     0
330
1F
331
29
  0
MATERIAL
  5
45
102
{ACAD_REACTORS
330
43
102
}
102
{ACAD_XDICTIONARY
360
432
102
}
330
43
100
AcDbMaterial
  1
ByBlock
  0
MATERIAL
  5
44
102
{ACAD_REACTORS
330
43
102
}
102
{ACAD_XDICTIONARY
360
430
102
}
330
43
100
AcDbMaterial
  1
ByLayer
  0
MATERIAL
  5
46
102
{ACAD_REACTORS
330
43
102
}
102
{ACAD_XDICTIONARY
360
434
102
}
330
43
100
AcDbMaterial
  1
Global
  0
MLINESTYLE
  5
18
102
{ACAD_REACTORS
330
17
102
}
330
17
100
AcDbMlineStyle
  2
Standard
 70
     0
  3

 62
   256
 51
90.0
 52
90.0
 71
     2
 49
0.5
 62
   256
  6
BYLAYER
 49
-0.5
 62
   256
  6
BYLAYER
  0
ACDBPLACEHOLDER
  5
F
102
{ACAD_REACTORS
330
E
102
}
330
E
  0
SCALE
  5
48
102
{ACAD_REACTORS
330
47
102
}
330
47
100
AcDbScale
 70
     0
300
1:1
140
1.0
141
1.0
290
     1
  0
SCALE
  5
49
102
{ACAD_REACTORS
330
47
102
}
330
47
100
AcDbScale
 70
     0
300
1:2
140
1.0
141
2.0
290
     0
  0
SCALE
  5
4A
102
{ACAD_REACTORS
330
47
102
}
330
47
100
AcDbScale
 70
     0
300
1:4
140
1.0
141
4.0
290
     0
  0
SCALE
  5
4B
102
{ACAD_REACTORS
330
47
102
}
330
47
100
AcDbScale
 70
     0
300
1:5
140
1.0
141
5.0
290
     0
  0
SCALE
  5
4C
102
{ACAD_REACTORS
330
47
102
}
330
47
100
AcDbScale
 70
     0
300
1:8
140
1.0
141
8.0
290
     0
  0
SCALE
  5
4D
102
{ACAD_REACTORS
330
47
102
}
330
47
100
AcDbScale
 70
     0
300
1:10
140
1.0
141
10.0
290
     0
  0
SCALE
  5
4E
102
{ACAD_REACTORS
330
47
102
}
330
47
100
AcDbScale
 70
     0
300
1:16
140
1.0
141
16.0
290
     0
  0
SCALE
  5
4F
102
{ACAD_REACTORS
330
47
102
}
330
47
100
AcDbScale
 70
     0
300
1:20
140
1.0
141
20.0
290
     0
  0
SCALE
  5
50
102
{ACAD_REACTORS
330
47
102
}
330
47
100
AcDbScale
 70
     0
300
1:30
140
1.0
141
30.0
290
     0
  0
SCALE
  5
51
102
{ACAD_REACTORS
330
47
102
}
330
47
100
AcDbScale
 70
     0
300
1:40
140
1.0
141
40.0
290
     0
  0
SCALE
  5
52
102
{ACAD_REACTORS
330
47
102
}
330
47
100
AcDbScale
 70
     0
300
1:50
140
1.0
141
50.0
290
     0
  0
SCALE
  5
53
102
{ACAD_REACTORS
330
47
102
}
330
47
100
AcDbScale
 70
     0
300
1:100
140
1.0
141
100.0
290
     0
  0
SCALE
  5
54
102
{ACAD_REACTORS
330
47
102
}
330
47
100
AcDbScale
 70
     0
300
2:1
140
2.0
141
1.0
290
     0
  0
SCALE
  5
55
102
{ACAD_REACTORS
330
47
102
}
330
47
100
AcDbScale
 70
     0
300
4:1
140
4.0
141
1.0
290
     0
  0
SCALE
  5
56
102
{ACAD_REACTORS
330
47
102
}
330
47
100
AcDbScale
 70
     0
300
8:1
140
8.0
141
1.0
290
     0
  0
SCALE
  5
57
102
{ACAD_REACTORS
330
47
102
}
330
47
100
AcDbScale
 70
     0
300
10:1
140
10.0
141
1.0
290
     0
  0
SCALE
  5
58
102
{ACAD_REACTORS
330
47
102
}
330
47
100
AcDbScale
 70
     0
300
100:1
140
100.0
141
1.0
290
     0
  0
SCALE
  5
59
102
{ACAD_REACTORS
330
47
102
}
330
47
100
AcDbScale
 70
     0
300
1/128" = 1'-0"
140
0.0078125
141
12.0
290
     0
  0
SCALE
  5
5A
102
{ACAD_REACTORS
330
47
102
}
330
47
100
AcDbScale
 70
     0
300
1/64" = 1'-0"
140
0.015625
141
12.0
290
     0
  0
SCALE
  5
5B
102
{ACAD_REACTORS
330
47
102
}
330
47
100
AcDbScale
 70
     0
300
1/32" = 1'-0"
140
0.03125
141
12.0
290
     0
  0
SCALE
  5
5C
102
{ACAD_REACTORS
330
47
102
}
330
47
100
AcDbScale
 70
     0
300
1/16" = 1'-0"
140
0.0625
141
12.0
290
     0
  0
SCALE
  5
5D
102
{ACAD_REACTORS
330
47
102
}
330
47
100
AcDbScale
 70
     0
300
3/32" = 1'-0"
140
0.09375
141
12.0
290
     0
  0
SCALE
  5
5E
102
{ACAD_REACTORS
330
47
102
}
330
47
100
AcDbScale
 70
     0
300
1/8" = 1'-0"
140
0.125
141
12.0
290
     0
  0
SCALE
  5
5F
102
{ACAD_REACTORS
330
47
102
}
330
47
100
AcDbScale
 70
     0
300
3/16" = 1'-0"
140
0.1875
141
12.0
290
     0
  0
SCALE
  5
60
102
{ACAD_REACTORS
330
47
102
}
330
47
100
AcDbScale
 70
     0
300
1/4" = 1'-0"
140
0.25
141
12.0
290
     0
  0
SCALE
  5
61
102
{ACAD_REACTORS
330
47
102
}
330
47
100
AcDbScale
 70
     0
300
3/8" = 1'-0"
140
0.375
141
12.0
290
     0
  0
SCALE
  5
62
102
{ACAD_REACTORS
330
47
102
}
330
47
100
AcDbScale
 70
     0
300
1/2" = 1'-0"
140
0.5
141
12.0
290
     0
  0
SCALE
  5
63
102
{ACAD_REACTORS
330
47
102
}
330
47
100
AcDbScale
 70
     0
300
3/4" = 1'-0"
140
0.75
141
12.0
290
     0
  0
SCALE
  5
64
102
{ACAD_REACTORS
330
47
102
}
330
47
100
AcDbScale
 70
     0
300
1" = 1'-0"
140
1.0
141
12.0
290
     0
  0
SCALE
  5
65
102
{ACAD_REACTORS
330
47
102
}
330
47
100
AcDbScale
 70
     0
300
1-1/2" = 1'-0"
140
1.5
141
12.0
290
     0
  0
SCALE
  5
66
102
{ACAD_REACTORS
330
47
102
}
330
47
100
AcDbScale
 70
     0
300
3" = 1'-0"
140
3.0
141
12.0
290
     0
  0
SCALE
  5
67
102
{ACAD_REACTORS
330
47
102
}
330
47
100
AcDbScale
 70
     0
300
6" = 1'-0"
140
6.0
141
12.0
290
     0
  0
SCALE
  5
68
102
{ACAD_REACTORS
330
47
102
}
330
47
100
AcDbScale
 70
     0
300
1'-0" = 1'-0"
140
12.0
141
12.0
290
     0
  0
VISUALSTYLE
  5
2F
102
{ACAD_REACTORS
330
2A
102
}
102
{ACAD_XDICTIONARY
360
408
102
}
330
2A
100
AcDbVisualStyle
  2
2dWireframe
 70
     4
 71
     0
 72
     2
 73
     0
 90
        0
 40
0.6
 41
30.0
 62
     5
 63
     7
 74
     1
 91
        4
 64
     7
 65
   257
 75
     1
175
     1
 42
1.0
 92
        0
 66
   257
 43
1.0
 76
     1
 77
     6
 78
     2
 67
     7
 79
     5
170
     0
171
     0
290
     0
174
     0
 93
        1
 44
0.0
173
     0
291
     0
 45
0.0
1001
ACAD
1000
AcDbSavedByObjectVersion
1070
     0
  0
VISUALSTYLE
  5
32
102
{ACAD_REACTORS
330
2A
102
}
102
{ACAD_XDICTIONARY
360
40E
102
}
330
2A
100
AcDbVisualStyle
  2
Basic
 70
     7
 71
     1
 72
     0
 73
     1
 90
        0
 40
0.6
 41
30.0
 62
     5
 63
     7
 74
     0
 91
        4
 64
     7
 65
   257
 75
     1
175
     1
 42
1.0
 92
        8
 66
     7
 43
1.0
 76
     1
 77
     6
 78
     2
 67
     7
 79
     5
170
     0
171
     0
290
     0
174
     0
 93
        1
 44
0.0
173
     0
291
     1
 45
0.0
1001
ACAD
1000
AcDbSavedByObjectVersion
1070
     0
  0
VISUALSTYLE
  5
36
102
{ACAD_REACTORS
330
2A
102
}
102
{ACAD_XDICTIONARY
360
416
102
}
330
2A
100
AcDbVisualStyle
  2
Brighten
 70
    12
 71
     2
 72
     2
 73
     0
 90
        0
 40
0.6
 41
30.0
 62
     5
 63
     7
 74
     1
 91
        4
 64
     7
 65
   257
 75
     1
175
     1
 42
1.0
 92
        8
 66
     7
 43
1.0
 76
     1
 77
     6
 78
     2
 67
     7
 79
     5
170
     0
171
     0
290
     0
174
     0
 93
        1
 44
50.0
173
     0
291
     1
 45
0.0
1001
ACAD
1000
AcDbSavedByObjectVersion
1070
     0
  0
VISUALSTYLE
  5
3A
102
{ACAD_REACTORS
330
2A
102
}
102
{ACAD_XDICTIONARY
360
41E
102
}
330
2A
100
AcDbVisualStyle
  2
ColorChange
 70
    16
 71
     2
 72
     2
 73
     3
 90
        0
 40
0.6
 41
30.0
 62
     5
 63
     8
 74
     1
 91
        4
 64
     7
 65
   257
 75
     1
175
     1
 42
1.0
 92
        8
 66
     8
 43
1.0
 76
     1
 77
     6
 78
     2
 67
     7
 79
     5
170
     0
171
     0
290
     0
174
     0
 93
        1
 44
0.0
173
     0
291
     1
 45
0.0
1001
ACAD
1000
AcDbSavedByObjectVersion
1070
     0
  0
VISUALSTYLE
  5
34
102
{ACAD_REACTORS
330
2A
102
}
102
{ACAD_XDICTIONARY
360
412
102
}
330
2A
100
AcDbVisualStyle
  2
Conceptual
 70
     9
 71
     3
 72
     2
 73
     0
 90
        0
 40
0.6
 41
30.0
 62
     5
 63
     7
 74
     2
 91
        2
 64
     7
 65
   257
 75
     1
175
     1
 42
179.0
 92
        8
 66
     7
 43
1.0
 76
     1
 77
     6
 78
     2
 67
     7
 79
     3
170
     0
171
     0
290
     0
174
     0
 93
        1
 44
0.0
173
     0
291
     0
 45
0.0
1001
ACAD
1000
AcDbSavedByObjectVersion
1070
     0
  0
VISUALSTYLE
  5
35
102
{ACAD_REACTORS
330
2A
102
}
102
{ACAD_XDICTIONARY
360
414
102
}
330
2A
100
AcDbVisualStyle
  2
Dim
 70
    11
 71
     2
 72
     2
 73
     0
 90
        0
 40
0.6
 41
30.0
 62
     5
 63
     7
 74
     1
 91
        4
 64
     7
 65
   257
 75
     1
175
     1
 42
1.0
 92
        8
 66
     7
 43
1.0
 76
     1
 77
     6
 78
     2
 67
     7
 79
     5
170
     0
171
     0
290
     0
174
     0
 93
        1
 44
-50.0
173
     0
291
     1
 45
0.0
1001
ACAD
1000
AcDbSavedByObjectVersion
1070
     0
  0
VISUALSTYLE
  5
3D
102
{ACAD_REACTORS
330
2A
102
}
102
{ACAD_XDICTIONARY
360
424
102
}
330
2A
100
AcDbVisualStyle
  2
EdgeColorOff
 70
    22
 71
     2
 72
     2
 73
     0
 90
        0
 40
0.6
 41
30.0
 62
     5
 63
     7
 74
     1
 91
        4
 64
     7
 65
   257
 75
     1
175
     1
 42
1.0
 92
        8
 66
     7
 43
1.0
 76
     1
 77
     6
 78
     2
 67
     7
 79
     5
170
     0
171
     0
290
     0
174
     0
 93
        1
 44
0.0
173
     0
291
     1
 45
0.0
1001
ACAD
1000
AcDbSavedByObjectVersion
1070
     0
  0
VISUALSTYLE
  5
39
102
{ACAD_REACTORS
330
2A
102
}
102
{ACAD_XDICTIONARY
360
41C
102
}
330
2A
100
AcDbVisualStyle
  2
Facepattern
 70
    15
 71
     2
 72
     2
 73
     0
 90
        0
 40
0.6
 41
30.0
 62
     5
 63
     7
 74
     1
 91
        4
 64
     7
 65
   257
 75
     1
175
     1
 42
1.0
 92
        8
 66
     7
 43
1.0
 76
     1
 77
     6
 78
     2
 67
     7
 79
     5
170
     0
171
     0
290
     0
174
     0
 93
        1
 44
0.0
173
     0
291
     1
 45
0.0
1001
ACAD
1000
AcDbSavedByObjectVersion
1070
     0
  0
VISUALSTYLE
  5
2B
102
{ACAD_REACTORS
330
2A
102
}
102
{ACAD_XDICTIONARY
360
400
102
}
330
2A
100
AcDbVisualStyle
  2
Flat
 70
     0
 71
     2
 72
     1
 73
     1
 90
        2
 40
0.6
 41
30.0
 62
     5
 63
     7
 74
     0
 91
        0
 64
     7
 65
   257
 75
     1
175
     1
 42
1.0
 92
        8
 66
     7
 43
1.0
 76
     1
 77
     6
 78
     2
 67
     7
 79
     5
170
     0
171
     0
290
     0
174
     0
 93
       13
 44
0.0
173
     0
291
     1
 45
0.0
1001
ACAD
1000
AcDbSavedByObjectVersion
1070
     0
  0
VISUALSTYLE
  5
2C
102
{ACAD_REACTORS
330
2A
102
}
102
{ACAD_XDICTIONARY
360
402
102
}
330
2A
100
AcDbVisualStyle
  2
FlatWithEdges
 70
     1
 71
     2
 72
     1
 73
     1
 90
        2
 40
0.6
 41
30.0
 62
     5
 63
     7
 74
     1
 91
        0
 64
     7
 65
   257
 75
     1
175
     1
 42
1.0
 92
        0
 66
   257
 43
1.0
 76
     1
 77
     6
 78
     2
 67
     7
 79
     5
170
     0
171
     0
290
     0
174
     0
 93
       13
 44
0.0
173
     0
291
     1
 45
0.0
1001
ACAD
1000
AcDbSavedByObjectVersion
1070
     0
  0
VISUALSTYLE
  5
2D
102
{ACAD_REACTORS
330
2A
102
}
102
{ACAD_XDICTIONARY
360
404
102
}
330
2A
100
AcDbVisualStyle
  2
Gouraud
 70
     2
 71
     2
 72
     2
 73
     1
 90
        2
 40
0.6
 41
30.0
 62
     5
 63
     7
 74
     0
 91
        0
 64
     7
 65
   257
 75
     1
175
     1
 42
1.0
 92
        0
 66
     7
 43
1.0
 76
     1
 77
     6
 78
     2
 67
     7
 79
     5
170
     0
171
     0
290
     0
174
     0
 93
       13
 44
0.0
173
     0
291
     1
 45
0.0
1001
ACAD
1000
AcDbSavedByObjectVersion
1070
     0
  0
VISUALSTYLE
  5
2E
102
{ACAD_REACTORS
330
2A
102
}
102
{ACAD_XDICTIONARY
360
406
102
}
330
2A
100
AcDbVisualStyle
  2
GouraudWithEdges
 70
     3
 71
     2
 72
     2
 73
     1
 90
        2
 40
0.6
 41
30.0
 62
     5
 63
     7
 74
     1
 91
        0
 64
     7
 65
   257
 75
     1
175
     1
 42
1.0
 92
        0
 66
   257
 43
1.0
 76
     1
 77
     6
 78
     2
 67
     7
 79
     5
170
     0
171
     0
290
     0
174
     0
 93
       13
 44
0.0
173
     0
291
     1
 45
0.0
1001
ACAD
1000
AcDbSavedByObjectVersion
1070
     0
  0
VISUALSTYLE
  5
31
102
{ACAD_REACTORS
330
2A
102
}
102
{ACAD_XDICTIONARY
360
40C
102
}
330
2A
100
AcDbVisualStyle
  2
Hidden
 70
     6
 71
     1
 72
     2
 73
     2
 90
        0
 40
0.6
 41
30.0
 62
     5
 63
     7
 74
     2
 91
        2
 64
     7
 65
   257
 75
     2
175
     1
 42
40.0
 92
        0
 66
   257
 43
1.0
 76
     1
 77
     6
 78
     2
 67
     7
 79
     3
170
     0
171
     0
290
     0
174
     0
 93
        1
 44
0.0
173
     0
291
     0
 45
0.0
1001
ACAD
1000
AcDbSavedByObjectVersion
1070
     0
  0
VISUALSTYLE
  5
3B
102
{ACAD_REACTORS
330
2A
102
}
102
{ACAD_XDICTIONARY
360
420
102
}
330
2A
100
AcDbVisualStyle
  2
JitterOff
 70
    20
 71
     2
 72
     2
 73
     0
 90
        0
 40
0.6
 41
30.0
 62
     5
 63
     7
 74
     1
 91
        4
 64
     7
 65
   257
 75
     1
175
     1
 42
1.0
 92
       10
 66
     7
 43
1.0
 76
     1
 77
     6
 78
     2
 67
     7
 79
     5
170
     0
171
     0
290
     0
174
     0
 93
        1
 44
0.0
173
     0
291
     1
 45
0.0
1001
ACAD
1000
AcDbSavedByObjectVersion
1070
     0
  0
VISUALSTYLE
  5
38
102
{ACAD_REACTORS
330
2A
102
}
102
{ACAD_XDICTIONARY
360
41A
102
}
330
2A
100
AcDbVisualStyle
  2
Linepattern
 70
    14
 71
     2
 72
     2
 73
     0
 90
        0
 40
0.6
 41
30.0
 62
     5
 63
     7
 74
     1
 91
        4
 64
     7
 65
   257
 75
     7
175
     7
 42
1.0
 92
        8
 66
     7
 43
1.0
 76
     1
 77
     6
 78
     2
 67
     7
 79
     5
170
     0
171
     0
290
     0
174
     0
 93
        1
 44
0.0
173
     0
291
     1
 45
0.0
1001
ACAD
1000
AcDbSavedByObjectVersion
1070
     0
  0
VISUALSTYLE
  5
3C
102
{ACAD_REACTORS
330
2A
102
}
102
{ACAD_XDICTIONARY
360
422
102
}
330
2A
100
AcDbVisualStyle
  2
OverhangOff
 70
    21
 71
     2
 72
     2
 73
     0
 90
        0
 40
0.6
 41
30.0
 62
     5
 63
     7
 74
     1
 91
        4
 64
     7
 65
   257
 75
     1
175
     1
 42
1.0
 92
        9
 66
     7
 43
1.0
 76
     1
 77
     6
 78
     2
 67
     7
 79
     5
170
     0
171
     0
290
     0
174
     0
 93
        1
 44
0.0
173
     0
291
     1
 45
0.0
1001
ACAD
1000
AcDbSavedByObjectVersion
1070
     0
  0
VISUALSTYLE
  5
33
102
{ACAD_REACTORS
330
2A
102
}
102
{ACAD_XDICTIONARY
360
410
102
}
330
2A
100
AcDbVisualStyle
  2
Realistic
 70
     8
 71
     2
 72
     3
 73
     0
 90
        2
 40
0.6
 41
30.0
 62
     5
 63
     7
 74
     0
 91
        0
 64
     7
 65
   257
 75
     1
175
     1
 42
1.0
 92
        8
 66
   257
 43
1.0
 76
     1
 77
     6
 78
     2
 67
     7
 79
     3
170
     0
171
     0
290
     0
174
     0
 93
       13
 44
0.0
173
     0
291
     0
 45
0.0
1001
ACAD
1000
AcDbSavedByObjectVersion
1070
     0
  0
VISUALSTYLE
  5
42
102
{ACAD_REACTORS
330
2A
102
}
102
{ACAD_XDICTIONARY
360
42E
102
}
330
2A
100
AcDbVisualStyle
  2
Shaded
 70
    27
 71
     2
 72
     2
 73
     1
 90
        2
 40
0.6
 41
30.0
 62
     5
 63
     7
 74
     0
 91
        4
 64
     7
 65
   257
 75
     1
175
     1
 42
1.0
 92
        8
 66
   257
 43
1.0
 76
     1
 77
     6
 78
     2
 67
     8
 79
     3
170
     0
171
     0
290
     0
174
     0
 93
        5
 44
0.0
173
     0
291
     0
 45
0.0
1001
ACAD
1000
AcDbSavedByObjectVersion
1070
     0
  0
VISUALSTYLE
  5
41
102
{ACAD_REACTORS
330
2A
102
}
102
{ACAD_XDICTIONARY
360
42C
102
}
330
2A
100
AcDbVisualStyle
  2
Shaded with edges
 70
    26
 71
     2
 72
     2
 73
     1
 90
        2
 40
0.6
 41
30.0
 62
     5
 63
     7
 74
     1
 91
       10
 64
     7
 65
   257
 75
     2
175
     1
 42
1.0
 92
        8
 66
   257
 43
1.0
 76
     1
 77
     6
 78
     2
 67
     7
 79
     3
170
     0
171
     0
290
     0
174
     0
 93
        5
 44
0.0
173
     0
291
     0
 45
0.0
1001
ACAD
1000
AcDbSavedByObjectVersion
1070
     0
  0
VISUALSTYLE
  5
3E
102
{ACAD_REACTORS
330
2A
102
}
102
{ACAD_XDICTIONARY
360
426
102
}
330
2A
100
AcDbVisualStyle
  2
Shades of Gray
 70
    23
 71
     2
 72
     2
 73
     3
 90
        0
 40
0.6
 41
30.0
 62
     5
 63
     7
 74
     2
 91
        2
 64
     7
 65
     7
 75
     1
175
     1
 42
40.0
 92
        8
 66
     7
 43
1.0
 76
     1
 77
     6
 78
     2
 67
     7
 79
     3
170
     0
171
     0
290
     0
174
     0
 93
        1
 44
0.0
173
     0
291
     0
 45
0.0
1001
ACAD
1000
AcDbSavedByObjectVersion
1070
     0
  0
VISUALSTYLE
  5
3F
102
{ACAD_REACTORS
330
2A
102
}
102
{ACAD_XDICTIONARY
360
428
102
}
330
2A
100
AcDbVisualStyle
  2
Sketchy
 70
    24
 71
     1
 72
     2
 73
     2
 90
        0
 40
0.6
 41
30.0
 62
     5
 63
     7
 74
     2
 91
        2
 64
     7
 65
     7
 75
     1
175
     1
 42
40.0
 92
       11
 66
     7
 43
1.0
 76
     1
 77
     6
 78
     2
 67
     7
 79
     6
170
     0
171
     0
290
     0
174
     0
 93
        1
 44
0.0
173
     0
291
     0
 45
0.0
1001
ACAD
1000
AcDbSavedByObjectVersion
1070
     0
  0
VISUALSTYLE
  5
37
102
{ACAD_REACTORS
330
2A
102
}
102
{ACAD_XDICTIONARY
360
418
102
}
330
2A
100
AcDbVisualStyle
  2
Thicken
 70
    13
 71
     2
 72
     2
 73
     0
 90
        0
 40
0.6
 41
30.0
 62
     5
 63
     7
 74
     1
 91
        4
 64
     7
 65
   257
 75
     1
175
     1
 42
1.0
 92
       12
 66
     7
 43
1.0
 76
     1
 77
     6
 78
     2
 67
     7
 79
     5
170
     0
171
     0
290
     0
174
     0
 93
        1
 44
0.0
173
     0
291
     1
 45
0.0
1001
ACAD
1000
AcDbSavedByObjectVersion
1070
     0
  0
VISUALSTYLE
  5
30
102
{ACAD_REACTORS
330
2A
102
}
102
{ACAD_XDICTIONARY
360
40A
102
}
330
2A
100
AcDbVisualStyle
  2
Wireframe
 70
     5
 71
     0
 72
     2
 73
     0
 90
        0
 40
0.6
 41
30.0
 62
     5
 63
     7
 74
     1
 91
        4
 64
     7
 65
   257
 75
     1
175
     1
 42
1.0
 92
        0
 66
   257
 43
1.0
 76
     1
 77
     6
 78
     2
 67
     7
 79
     3
170
     0
171
     0
290
     0
174
     0
 93
        1
 44
0.0
173
     0
291
     0
 45
0.0
1001
ACAD
1000
AcDbSavedByObjectVersion
1070
     0
  0
VISUALSTYLE
  5
40
102
{ACAD_REACTORS
330
2A
102
}
102
{ACAD_XDICTIONARY
360
42A
102
}
330
2A
100
AcDbVisualStyle
  2
X-Ray
 70
    25
 71
     2
 72
     2
 73
     1
 90
        1
 40
0.5
 41
30.0
 62
     5
 63
     7
 74
     1
 91
        0
 64
     7
 65
   257
 75
     1
175
     1
 42
1.0
 92
        8
 66
     7
 43
1.0
 76
     1
 77
     6
 78
     2
 67
     7
 79
     3
170
     0
171
     0
290
     0
174
     0
 93
       13
 44
0.0
173
     0
291
     0
 45
0.0
1001
ACAD
1000
AcDbSavedByObjectVersion
1070
     0
  0
DICTIONARYVAR
  5
3FE
102
{ACAD_REACTORS
330
3F7
102
}
330
3F7
100
DictionaryVariables
280
     0
  1
1:1
  0
DICTIONARYVAR
  5
3FC
102
{ACAD_REACTORS
330
3F7
102
}
330
3F7
100
DictionaryVariables
280
     0
  1
2
  0
DICTIONARYVAR
  5
3FD
102
{ACAD_REACTORS
330
3F7
102
}
330
3F7
100
DictionaryVariables
280
     0
  1
1
  0
DICTIONARYVAR
  5
3FF
102
{ACAD_REACTORS
330
3F7
102
}
330
3F7
100
DictionaryVariables
280
     0
  1
1
  0
DICTIONARY
  5
432
330
45
100
AcDbDictionary
280
     1
281
     1
  3
ACAD_XREC_ROUNDTRIP
360
433
  0
DICTIONARY
  5
430
330
44
100
AcDbDictionary
280
     1
281
     1
  3
ACAD_XREC_ROUNDTRIP
360
431
  0
DICTIONARY
  5
434
330
46
100
AcDbDictionary
280
     1
281
     1
  3
ACAD_XREC_ROUNDTRIP
360
435
  0
DICTIONARY
  5
408
330
2F
100
AcDbDictionary
280
     1
281
     1
  3
ACAD_XREC_ROUNDTRIP
360
409
  0
DICTIONARY
  5
40E
330
32
100
AcDbDictionary
280
     1
281
     1
  3
ACAD_XREC_ROUNDTRIP
360
40F
  0
DICTIONARY
  5
416
330
36
100
AcDbDictionary
280
     1
281
     1
  3
ACAD_XREC_ROUNDTRIP
360
417
  0
DICTIONARY
  5
41E
330
3A
100
AcDbDictionary
280
     1
281
     1
  3
ACAD_XREC_ROUNDTRIP
360
41F
  0
DICTIONARY
  5
412
330
34
100
AcDbDictionary
280
     1
281
     1
  3
ACAD_XREC_ROUNDTRIP
360
413
  0
DICTIONARY
  5
414
330
35
100
AcDbDictionary
280
     1
281
     1
  3
ACAD_XREC_ROUNDTRIP
360
415
  0
DICTIONARY
  5
424
330
3D
100
AcDbDictionary
280
     1
281
     1
  3
ACAD_XREC_ROUNDTRIP
360
425
  0
DICTIONARY
  5
41C
330
39
100
AcDbDictionary
280
     1
281
     1
  3
ACAD_XREC_ROUNDTRIP
360
41D
  0
DICTIONARY
  5
400
330
2B
100
AcDbDictionary
280
     1
281
     1
  3
ACAD_XREC_ROUNDTRIP
360
401
  0
DICTIONARY
  5
402
330
2C
100
AcDbDictionary
280
     1
281
     1
  3
ACAD_XREC_ROUNDTRIP
360
403
  0
DICTIONARY
  5
404
330
2D
100
AcDbDictionary
280
     1
281
     1
  3
ACAD_XREC_ROUNDTRIP
360
405
  0
DICTIONARY
  5
406
330
2E
100
AcDbDictionary
280
     1
281
     1
  3
ACAD_XREC_ROUNDTRIP
360
407
  0
DICTIONARY
  5
40C
330
31
100
AcDbDictionary
280
     1
281
     1
  3
ACAD_XREC_ROUNDTRIP
360
40D
  0
DICTIONARY
  5
420
330
3B
100
AcDbDictionary
280
     1
281
     1
  3
ACAD_XREC_ROUNDTRIP
360
421
  0
DICTIONARY
  5
41A
330
38
100
AcDbDictionary
280
     1
281
     1
  3
ACAD_XREC_ROUNDTRIP
360
41B
  0
DICTIONARY
  5
422
330
3C
100
AcDbDictionary
280
     1
281
     1
  3
ACAD_XREC_ROUNDTRIP
360
423
  0
DICTIONARY
  5
410
330
33
100
AcDbDictionary
280
     1
281
     1
  3
ACAD_XREC_ROUNDTRIP
360
411
  0
DICTIONARY
  5
42E
330
42
100
AcDbDictionary
280
     1
281
     1
  3
ACAD_XREC_ROUNDTRIP
360
42F
  0
DICTIONARY
  5
42C
330
41
100
AcDbDictionary
280
     1
281
     1
  3
ACAD_XREC_ROUNDTRIP
360
42D
  0
DICTIONARY
  5
426
330
3E
100
AcDbDictionary
280
     1
281
     1
  3
ACAD_XREC_ROUNDTRIP
360
427
  0
DICTIONARY
  5
428
330
3F
100
AcDbDictionary
280
     1
281
     1
  3
ACAD_XREC_ROUNDTRIP
360
429
  0
DICTIONARY
  5
418
330
37
100
AcDbDictionary
280
     1
281
     1
  3
ACAD_XREC_ROUNDTRIP
360
419
  0
DICTIONARY
  5
40A
330
30
100
AcDbDictionary
280
     1
281
     1
  3
ACAD_XREC_ROUNDTRIP
360
40B
  0
DICTIONARY
  5
42A
330
40
100
AcDbDictionary
280
     1
281
     1
  3
ACAD_XREC_ROUNDTRIP
360
42B
  0
XRECORD
  5
433
102
{ACAD_REACTORS
330
432
102
}
330
432
100
AcDbXrecord
280
     1
102
MATERIAL
148
0.0
149
0.0
149
0.0
 93
        0
 94
      127
282
     0
 72
     1
 77
     1
171
     1
175
     1
179
     1
273
     0
  0
XRECORD
  5
431
102
{ACAD_REACTORS
330
430
102
}
330
430
100
AcDbXrecord
280
     1
102
MATERIAL
148
0.0
149
0.0
149
0.0
 93
        0
 94
      127
282
     0
 72
     1
 77
     1
171
     1
175
     1
179
     1
273
     0
  0
XRECORD
  5
435
102
{ACAD_REACTORS
330
434
102
}
330
434
100
AcDbXrecord
280
     1
102
MATERIAL
148
0.0
149
0.0
149
0.0
 93
        0
 94
      127
282
     0
 72
     1
 77
     1
171
     1
175
     1
179
     1
273
     0
  0
XRECORD
  5
409
102
{ACAD_REACTORS
330
408
102
}
330
408
100
AcDbXrecord
280
     1
102
RTVSPropertyOp0
 70
     1
102
RTVSPropertyOp1
 70
     1
102
RTVSPropertyOp2
 70
     1
102
RTVSPropertyOp3
 70
     1
102
RTVSPropertyOp4
 70
     1
102
RTVSPropertyOp5
 70
     1
102
RTVSPropertyOp6
 70
     1
102
RTVSPropertyOp7
 70
     1
102
RTVSPropertyOp8
 70
     1
102
RTVSPropertyOp9
 70
     1
102
RTVSPropertyOp10
 70
     1
102
RTVSPropertyOp11
 70
     1
102
RTVSPropertyOp12
 70
     1
102
RTVSPropertyOp13
 70
     1
102
RTVSPropertyOp14
 70
     1
102
RTVSPropertyOp15
 70
     1
102
RTVSPropertyOp16
 70
     1
102
RTVSPropertyOp17
 70
     1
102
RTVSPropertyOp18
 70
     1
102
RTVSPropertyOp19
 70
     1
102
RTVSPropertyOp20
 70
     1
102
RTVSPropertyOp21
 70
     1
102
RTVSPropertyOp22
 70
     1
102
RTVSPropertyOp23
 70
     1
102
RTVSPropertyOp24
 70
     1
102
RTVSPropertyOp25
 70
     1
102
RTVSPropertyOp26
 70
     1
102
RTVSPropertyOp27
 70
     1
102
RTVSPropertyOp28
 70
     1
102
RTVSPropertyOp29
 70
     1
102
RTVSPropertyOp30
 70
     1
102
RTVSPropertyOp31
 70
     1
102
RTVSPropertyOp32
 70
     1
102
RTVSPropertyOp33
 70
     1
102
RTVSPropertyOp34
 70
     1
102
RTVSPropertyOp35
 70
     1
102
RTVSPropertyOp36
 70
     1
102
RTVSPropertyOp37
 70
     1
102
RTVSPropertyOp38
 70
     1
102
RTVSPropertyOp39
 70
     1
102
RTVSPropertyOp40
 70
     1
102
RTVSPropertyOp41
 70
     1
102
RTVSPropertyOp42
 70
     1
102
RTVSPropertyOp43
 70
     1
102
RTVSPropertyOp44
 70
     1
102
RTVSPropertyOp45
 70
     1
102
RTVSPropertyOp46
 70
     1
102
RTVSPropertyOp47
 70
     1
102
RTVSPropertyOp48
 70
     1
102
RTVSPropertyOp49
 70
     1
102
RTVSPropertyOp50
 70
     1
102
RTVSPropertyOp51
 70
     0
102
RTVSPropertyOp52
 70
     0
102
RTVSPropertyOp53
 70
     1
102
RTVSPropertyOp54
 70
     1
102
RTVSPropertyOp55
 70
     1
102
RTVSPropertyOp56
 70
     1
102
RTVSPropertyOp57
 70
     1
102
RTVSPost2010Prop28
280
     1
102
RTVSPost2010PropOp28
 70
     1
102
RTVSPost2010Prop29
280
     1
102
RTVSPost2010PropOp29
 70
     1
102
RTVSPost2010Prop30
280
     0
102
RTVSPost2010PropOp30
 70
     1
102
RTVSPost2010Prop31
280
     0
102
RTVSPost2010PropOp31
 70
     1
102
RTVSPost2010Prop32
280
     0
102
RTVSPost2010PropOp32
 70
     1
102
RTVSPost2010Prop33
280
     0
102
RTVSPost2010PropOp33
 70
     1
102
RTVSPost2010Prop34
280
     0
102
RTVSPost2010PropOp34
 70
     1
102
RTVSPost2010Prop35
280
     0
102
RTVSPost2010PropOp35
 70
     1
102
RTVSPost2010Prop36
280
     0
102
RTVSPost2010PropOp36
 70
     1
102
RTVSPost2010Prop37
 90
       50
102
RTVSPost2010PropOp37
 70
     1
102
RTVSPost2010Prop38
140
0.0
102
RTVSPost2010PropOp38
 70
     1
102
RTVSPost2010Prop39
140
1.0
102
RTVSPost2010PropOp39
 70
     1
102
RTVSPost2010Prop40
 90
        0
102
RTVSPost2010PropOp40
 70
     1
102
RTVSPost2010Prop41ColorIndex
 90
       18
102
RTVSPost2010Prop41ColorRGB
 90
        0
102
RTVSPost2010PropOp41
 70
     1
102
RTVSPost2010Prop42
 90
       50
102
RTVSPost2010PropOp42
 70
     1
102
RTVSPost2010Prop43
 90
        3
102
RTVSPost2010PropOp43
 70
     1
102
RTVSPost2010Prop44ColorIndex
 90
        5
102
RTVSPost2010Prop44ColorRGB
 90
      255
102
RTVSPost2010PropOp44
 70
     1
102
RTVSPost2010Prop45
280
     0
102
RTVSPost2010PropOp45
 70
     1
102
RTVSPost2010Prop46
 90
       50
102
RTVSPost2010PropOp46
 70
     1
102
RTVSPost2010Prop47
 90
       50
102
RTVSPost2010PropOp47
 70
     1
102
RTVSPost2010Prop48
 90
       50
102
RTVSPost2010PropOp48
 70
     1
102
RTVSPost2010Prop49
280
     0
102
RTVSPost2010PropOp49
 70
     1
102
RTVSPost2010Prop50
 90
       50
102
RTVSPost2010PropOp50
 70
     1
102
RTVSPost2010Prop51ColorIndex
 90
      256
102
RTVSPost2010Prop51ColorRGB
 90
-16777216
102
RTVSPost2010PropOp51
 70
     0
102
RTVSPost2010Prop52
140
1.0
102
RTVSPost2010PropOp52
 70
     0
102
RTVSPost2010Prop53
 90
        2
102
RTVSPost2010PropOp53
 70
     1
102
RTVSPost2010Prop54
  1
strokes_ogs.tif
102
RTVSPost2010PropOp54
 70
     1
102
RTVSPost2010Prop55
280
     0
102
RTVSPost2010PropOp55
 70
     1
102
RTVSPost2010Prop56
140
1.0
102
RTVSPost2010PropOp56
 70
     1
102
RTVSPost2010Prop57
140
1.0
102
RTVSPost2010PropOp57
 70
     1
  0
XRECORD
  5
40F
102
{ACAD_REACTORS
330
40E
102
}
330
40E
100
AcDbXrecord
280
     1
102
RTVSPropertyOp0
 70
     1
102
RTVSPropertyOp1
 70
     1
102
RTVSPropertyOp2
 70
     1
102
RTVSPropertyOp3
 70
     1
102
RTVSPropertyOp4
 70
     1
102
RTVSPropertyOp5
 70
     1
102
RTVSPropertyOp6
 70
     1
102
RTVSPropertyOp7
 70
     1
102
RTVSPropertyOp8
 70
     1
102
RTVSPropertyOp9
 70
     1
102
RTVSPropertyOp10
 70
     1
102
RTVSPropertyOp11
 70
     1
102
RTVSPropertyOp12
 70
     1
102
RTVSPropertyOp13
 70
     1
102
RTVSPropertyOp14
 70
     1
102
RTVSPropertyOp15
 70
     1
102
RTVSPropertyOp16
 70
     1
102
RTVSPropertyOp17
 70
     1
102
RTVSPropertyOp18
 70
     1
102
RTVSPropertyOp19
 70
     1
102
RTVSPropertyOp20
 70
     1
102
RTVSPropertyOp21
 70
     1
102
RTVSPropertyOp22
 70
     1
102
RTVSPropertyOp23
 70
     1
102
RTVSPropertyOp24
 70
     1
102
RTVSPropertyOp25
 70
     1
102
RTVSPropertyOp26
 70
     1
102
RTVSPropertyOp27
 70
     1
102
RTVSPropertyOp28
 70
     1
102
RTVSPropertyOp29
 70
     1
102
RTVSPropertyOp30
 70
     1
102
RTVSPropertyOp31
 70
     1
102
RTVSPropertyOp32
 70
     1
102
RTVSPropertyOp33
 70
     1
102
RTVSPropertyOp34
 70
     1
102
RTVSPropertyOp35
 70
     1
102
RTVSPropertyOp36
 70
     1
102
RTVSPropertyOp37
 70
     1
102
RTVSPropertyOp38
 70
     1
102
RTVSPropertyOp39
 70
     1
102
RTVSPropertyOp40
 70
     1
102
RTVSPropertyOp41
 70
     1
102
RTVSPropertyOp42
 70
     1
102
RTVSPropertyOp43
 70
     1
102
RTVSPropertyOp44
 70
     1
102
RTVSPropertyOp45
 70
     1
102
RTVSPropertyOp46
 70
     1
102
RTVSPropertyOp47
 70
     1
102
RTVSPropertyOp48
 70
     1
102
RTVSPropertyOp49
 70
     1
102
RTVSPropertyOp50
 70
     1
102
RTVSPropertyOp51
 70
     0
102
RTVSPropertyOp52
 70
     0
102
RTVSPropertyOp53
 70
     1
102
RTVSPropertyOp54
 70
     1
102
RTVSPropertyOp55
 70
     1
102
RTVSPropertyOp56
 70
     1
102
RTVSPropertyOp57
 70
     1
102
RTVSPost2010Prop28
280
     0
102
RTVSPost2010PropOp28
 70
     1
102
RTVSPost2010Prop29
280
     1
102
RTVSPost2010PropOp29
 70
     1
102
RTVSPost2010Prop30
280
     1
102
RTVSPost2010PropOp30
 70
     1
102
RTVSPost2010Prop31
280
     0
102
RTVSPost2010PropOp31
 70
     1
102
RTVSPost2010Prop32
280
     0
102
RTVSPost2010PropOp32
 70
     1
102
RTVSPost2010Prop33
280
     0
102
RTVSPost2010PropOp33
 70
     1
102
RTVSPost2010Prop34
280
     0
102
RTVSPost2010PropOp34
 70
     1
102
RTVSPost2010Prop35
280
     0
102
RTVSPost2010PropOp35
 70
     1
102
RTVSPost2010Prop36
280
     0
102
RTVSPost2010PropOp36
 70
     1
102
RTVSPost2010Prop37
 90
       50
102
RTVSPost2010PropOp37
 70
     1
102
RTVSPost2010Prop38
140
0.0
102
RTVSPost2010PropOp38
 70
     1
102
RTVSPost2010Prop39
140
1.0
102
RTVSPost2010PropOp39
 70
     1
102
RTVSPost2010Prop40
 90
        0
102
RTVSPost2010PropOp40
 70
     1
102
RTVSPost2010Prop41ColorIndex
 90
       18
102
RTVSPost2010Prop41ColorRGB
 90
        0
102
RTVSPost2010PropOp41
 70
     1
102
RTVSPost2010Prop42
 90
       50
102
RTVSPost2010PropOp42
 70
     1
102
RTVSPost2010Prop43
 90
        3
102
RTVSPost2010PropOp43
 70
     1
102
RTVSPost2010Prop44ColorIndex
 90
        5
102
RTVSPost2010Prop44ColorRGB
 90
      255
102
RTVSPost2010PropOp44
 70
     1
102
RTVSPost2010Prop45
280
     0
102
RTVSPost2010PropOp45
 70
     1
102
RTVSPost2010Prop46
 90
       50
102
RTVSPost2010PropOp46
 70
     1
102
RTVSPost2010Prop47
 90
       50
102
RTVSPost2010PropOp47
 70
     1
102
RTVSPost2010Prop48
 90
       50
102
RTVSPost2010PropOp48
 70
     1
102
RTVSPost2010Prop49
280
     0
102
RTVSPost2010PropOp49
 70
     1
102
RTVSPost2010Prop50
 90
       50
102
RTVSPost2010PropOp50
 70
     1
102
RTVSPost2010Prop51ColorIndex
 90
      256
102
RTVSPost2010Prop51ColorRGB
 90
-16777216
102
RTVSPost2010PropOp51
 70
     0
102
RTVSPost2010Prop52
140
1.0
102
RTVSPost2010PropOp52
 70
     0
102
RTVSPost2010Prop53
 90
        2
102
RTVSPost2010PropOp53
 70
     1
102
RTVSPost2010Prop54
  1
strokes_ogs.tif
102
RTVSPost2010PropOp54
 70
     1
102
RTVSPost2010Prop55
280
     0
102
RTVSPost2010PropOp55
 70
     1
102
RTVSPost2010Prop56
140
1.0
102
RTVSPost2010PropOp56
 70
     1
102
RTVSPost2010Prop57
140
1.0
102
RTVSPost2010PropOp57
 70
     1
  0
XRECORD
  5
417
102
{ACAD_REACTORS
330
416
102
}
330
416
100
AcDbXrecord
280
     1
102
RTVSPropertyOp0
 70
     1
102
RTVSPropertyOp1
 70
     1
102
RTVSPropertyOp2
 70
     1
102
RTVSPropertyOp3
 70
     1
102
RTVSPropertyOp4
 70
     1
102
RTVSPropertyOp5
 70
     1
102
RTVSPropertyOp6
 70
     1
102
RTVSPropertyOp7
 70
     1
102
RTVSPropertyOp8
 70
     1
102
RTVSPropertyOp9
 70
     1
102
RTVSPropertyOp10
 70
     1
102
RTVSPropertyOp11
 70
     1
102
RTVSPropertyOp12
 70
     1
102
RTVSPropertyOp13
 70
     1
102
RTVSPropertyOp14
 70
     1
102
RTVSPropertyOp15
 70
     1
102
RTVSPropertyOp16
 70
     1
102
RTVSPropertyOp17
 70
     1
102
RTVSPropertyOp18
 70
     1
102
RTVSPropertyOp19
 70
     1
102
RTVSPropertyOp20
 70
     1
102
RTVSPropertyOp21
 70
     1
102
RTVSPropertyOp22
 70
     1
102
RTVSPropertyOp23
 70
     1
102
RTVSPropertyOp24
 70
     1
102
RTVSPropertyOp25
 70
     1
102
RTVSPropertyOp26
 70
     1
102
RTVSPropertyOp27
 70
     1
102
RTVSPropertyOp28
 70
     1
102
RTVSPropertyOp29
 70
     1
102
RTVSPropertyOp30
 70
     1
102
RTVSPropertyOp31
 70
     1
102
RTVSPropertyOp32
 70
     1
102
RTVSPropertyOp33
 70
     1
102
RTVSPropertyOp34
 70
     1
102
RTVSPropertyOp35
 70
     1
102
RTVSPropertyOp36
 70
     1
102
RTVSPropertyOp37
 70
     1
102
RTVSPropertyOp38
 70
     1
102
RTVSPropertyOp39
 70
     1
102
RTVSPropertyOp40
 70
     1
102
RTVSPropertyOp41
 70
     1
102
RTVSPropertyOp42
 70
     1
102
RTVSPropertyOp43
 70
     1
102
RTVSPropertyOp44
 70
     1
102
RTVSPropertyOp45
 70
     1
102
RTVSPropertyOp46
 70
     1
102
RTVSPropertyOp47
 70
     1
102
RTVSPropertyOp48
 70
     1
102
RTVSPropertyOp49
 70
     1
102
RTVSPropertyOp50
 70
     1
102
RTVSPropertyOp51
 70
     0
102
RTVSPropertyOp52
 70
     0
102
RTVSPropertyOp53
 70
     1
102
RTVSPropertyOp54
 70
     1
102
RTVSPropertyOp55
 70
     1
102
RTVSPropertyOp56
 70
     1
102
RTVSPropertyOp57
 70
     1
102
RTVSPost2010Prop28
280
     0
102
RTVSPost2010PropOp28
 70
     1
102
RTVSPost2010Prop29
280
     1
102
RTVSPost2010PropOp29
 70
     1
102
RTVSPost2010Prop30
280
     1
102
RTVSPost2010PropOp30
 70
     1
102
RTVSPost2010Prop31
280
     0
102
RTVSPost2010PropOp31
 70
     1
102
RTVSPost2010Prop32
280
     0
102
RTVSPost2010PropOp32
 70
     1
102
RTVSPost2010Prop33
280
     0
102
RTVSPost2010PropOp33
 70
     1
102
RTVSPost2010Prop34
280
     0
102
RTVSPost2010PropOp34
 70
     1
102
RTVSPost2010Prop35
280
     0
102
RTVSPost2010PropOp35
 70
     1
102
RTVSPost2010Prop36
280
     0
102
RTVSPost2010PropOp36
 70
     1
102
RTVSPost2010Prop37
 90
       50
102
RTVSPost2010PropOp37
 70
     1
102
RTVSPost2010Prop38
140
0.0
102
RTVSPost2010PropOp38
 70
     1
102
RTVSPost2010Prop39
140
1.0
102
RTVSPost2010PropOp39
 70
     1
102
RTVSPost2010Prop40
 90
        0
102
RTVSPost2010PropOp40
 70
     1
102
RTVSPost2010Prop41ColorIndex
 90
       18
102
RTVSPost2010Prop41ColorRGB
 90
        0
102
RTVSPost2010PropOp41
 70
     1
102
RTVSPost2010Prop42
 90
       50
102
RTVSPost2010PropOp42
 70
     1
102
RTVSPost2010Prop43
 90
        3
102
RTVSPost2010PropOp43
 70
     1
102
RTVSPost2010Prop44ColorIndex
 90
        5
102
RTVSPost2010Prop44ColorRGB
 90
      255
102
RTVSPost2010PropOp44
 70
     1
102
RTVSPost2010Prop45
280
     0
102
RTVSPost2010PropOp45
 70
     1
102
RTVSPost2010Prop46
 90
       50
102
RTVSPost2010PropOp46
 70
     1
102
RTVSPost2010Prop47
 90
       50
102
RTVSPost2010PropOp47
 70
     1
102
RTVSPost2010Prop48
 90
       50
102
RTVSPost2010PropOp48
 70
     1
102
RTVSPost2010Prop49
280
     0
102
RTVSPost2010PropOp49
 70
     1
102
RTVSPost2010Prop50
 90
       50
102
RTVSPost2010PropOp50
 70
     1
102
RTVSPost2010Prop51ColorIndex
 90
      256
102
RTVSPost2010Prop51ColorRGB
 90
-16777216
102
RTVSPost2010PropOp51
 70
     0
102
RTVSPost2010Prop52
140
1.0
102
RTVSPost2010PropOp52
 70
     0
102
RTVSPost2010Prop53
 90
        2
102
RTVSPost2010PropOp53
 70
     1
102
RTVSPost2010Prop54
  1
strokes_ogs.tif
102
RTVSPost2010PropOp54
 70
     1
102
RTVSPost2010Prop55
280
     0
102
RTVSPost2010PropOp55
 70
     1
102
RTVSPost2010Prop56
140
1.0
102
RTVSPost2010PropOp56
 70
     1
102
RTVSPost2010Prop57
140
1.0
102
RTVSPost2010PropOp57
 70
     1
  0
XRECORD
  5
41F
102
{ACAD_REACTORS
330
41E
102
}
330
41E
100
AcDbXrecord
280
     1
102
RTVSPropertyOp0
 70
     1
102
RTVSPropertyOp1
 70
     1
102
RTVSPropertyOp2
 70
     1
102
RTVSPropertyOp3
 70
     1
102
RTVSPropertyOp4
 70
     1
102
RTVSPropertyOp5
 70
     1
102
RTVSPropertyOp6
 70
     1
102
RTVSPropertyOp7
 70
     1
102
RTVSPropertyOp8
 70
     1
102
RTVSPropertyOp9
 70
     1
102
RTVSPropertyOp10
 70
     1
102
RTVSPropertyOp11
 70
     1
102
RTVSPropertyOp12
 70
     1
102
RTVSPropertyOp13
 70
     1
102
RTVSPropertyOp14
 70
     1
102
RTVSPropertyOp15
 70
     1
102
RTVSPropertyOp16
 70
     1
102
RTVSPropertyOp17
 70
     1
102
RTVSPropertyOp18
 70
     1
102
RTVSPropertyOp19
 70
     1
102
RTVSPropertyOp20
 70
     1
102
RTVSPropertyOp21
 70
     1
102
RTVSPropertyOp22
 70
     1
102
RTVSPropertyOp23
 70
     1
102
RTVSPropertyOp24
 70
     1
102
RTVSPropertyOp25
 70
     1
102
RTVSPropertyOp26
 70
     1
102
RTVSPropertyOp27
 70
     1
102
RTVSPropertyOp28
 70
     1
102
RTVSPropertyOp29
 70
     1
102
RTVSPropertyOp30
 70
     1
102
RTVSPropertyOp31
 70
     1
102
RTVSPropertyOp32
 70
     1
102
RTVSPropertyOp33
 70
     1
102
RTVSPropertyOp34
 70
     1
102
RTVSPropertyOp35
 70
     1
102
RTVSPropertyOp36
 70
     1
102
RTVSPropertyOp37
 70
     1
102
RTVSPropertyOp38
 70
     1
102
RTVSPropertyOp39
 70
     1
102
RTVSPropertyOp40
 70
     1
102
RTVSPropertyOp41
 70
     1
102
RTVSPropertyOp42
 70
     1
102
RTVSPropertyOp43
 70
     1
102
RTVSPropertyOp44
 70
     1
102
RTVSPropertyOp45
 70
     1
102
RTVSPropertyOp46
 70
     1
102
RTVSPropertyOp47
 70
     1
102
RTVSPropertyOp48
 70
     1
102
RTVSPropertyOp49
 70
     1
102
RTVSPropertyOp50
 70
     1
102
RTVSPropertyOp51
 70
     0
102
RTVSPropertyOp52
 70
     0
102
RTVSPropertyOp53
 70
     1
102
RTVSPropertyOp54
 70
     1
102
RTVSPropertyOp55
 70
     1
102
RTVSPropertyOp56
 70
     1
102
RTVSPropertyOp57
 70
     1
102
RTVSPost2010Prop28
280
     0
102
RTVSPost2010PropOp28
 70
     1
102
RTVSPost2010Prop29
280
     1
102
RTVSPost2010PropOp29
 70
     1
102
RTVSPost2010Prop30
280
     1
102
RTVSPost2010PropOp30
 70
     1
102
RTVSPost2010Prop31
280
     0
102
RTVSPost2010PropOp31
 70
     1
102
RTVSPost2010Prop32
280
     0
102
RTVSPost2010PropOp32
 70
     1
102
RTVSPost2010Prop33
280
     0
102
RTVSPost2010PropOp33
 70
     1
102
RTVSPost2010Prop34
280
     0
102
RTVSPost2010PropOp34
 70
     1
102
RTVSPost2010Prop35
280
     0
102
RTVSPost2010PropOp35
 70
     1
102
RTVSPost2010Prop36
280
     0
102
RTVSPost2010PropOp36
 70
     1
102
RTVSPost2010Prop37
 90
       50
102
RTVSPost2010PropOp37
 70
     1
102
RTVSPost2010Prop38
140
0.0
102
RTVSPost2010PropOp38
 70
     1
102
RTVSPost2010Prop39
140
1.0
102
RTVSPost2010PropOp39
 70
     1
102
RTVSPost2010Prop40
 90
        0
102
RTVSPost2010PropOp40
 70
     1
102
RTVSPost2010Prop41ColorIndex
 90
       18
102
RTVSPost2010Prop41ColorRGB
 90
        0
102
RTVSPost2010PropOp41
 70
     1
102
RTVSPost2010Prop42
 90
       50
102
RTVSPost2010PropOp42
 70
     1
102
RTVSPost2010Prop43
 90
        3
102
RTVSPost2010PropOp43
 70
     1
102
RTVSPost2010Prop44ColorIndex
 90
        5
102
RTVSPost2010Prop44ColorRGB
 90
      255
102
RTVSPost2010PropOp44
 70
     1
102
RTVSPost2010Prop45
280
     0
102
RTVSPost2010PropOp45
 70
     1
102
RTVSPost2010Prop46
 90
       50
102
RTVSPost2010PropOp46
 70
     1
102
RTVSPost2010Prop47
 90
       50
102
RTVSPost2010PropOp47
 70
     1
102
RTVSPost2010Prop48
 90
       50
102
RTVSPost2010PropOp48
 70
     1
102
RTVSPost2010Prop49
280
     0
102
RTVSPost2010PropOp49
 70
     1
102
RTVSPost2010Prop50
 90
       50
102
RTVSPost2010PropOp50
 70
     1
102
RTVSPost2010Prop51ColorIndex
 90
      256
102
RTVSPost2010Prop51ColorRGB
 90
-16777216
102
RTVSPost2010PropOp51
 70
     0
102
RTVSPost2010Prop52
140
1.0
102
RTVSPost2010PropOp52
 70
     0
102
RTVSPost2010Prop53
 90
        2
102
RTVSPost2010PropOp53
 70
     1
102
RTVSPost2010Prop54
  1
strokes_ogs.tif
102
RTVSPost2010PropOp54
 70
     1
102
RTVSPost2010Prop55
280
     0
102
RTVSPost2010PropOp55
 70
     1
102
RTVSPost2010Prop56
140
1.0
102
RTVSPost2010PropOp56
 70
     1
102
RTVSPost2010Prop57
140
1.0
102
RTVSPost2010PropOp57
 70
     1
  0
XRECORD
  5
413
102
{ACAD_REACTORS
330
412
102
}
330
412
100
AcDbXrecord
280
     1
102
RTVSPropertyOp0
 70
     1
102
RTVSPropertyOp1
 70
     1
102
RTVSPropertyOp2
 70
     1
102
RTVSPropertyOp3
 70
     1
102
RTVSPropertyOp4
 70
     1
102
RTVSPropertyOp5
 70
     1
102
RTVSPropertyOp6
 70
     1
102
RTVSPropertyOp7
 70
     1
102
RTVSPropertyOp8
 70
     1
102
RTVSPropertyOp9
 70
     1
102
RTVSPropertyOp10
 70
     1
102
RTVSPropertyOp11
 70
     1
102
RTVSPropertyOp12
 70
     1
102
RTVSPropertyOp13
 70
     1
102
RTVSPropertyOp14
 70
     1
102
RTVSPropertyOp15
 70
     1
102
RTVSPropertyOp16
 70
     1
102
RTVSPropertyOp17
 70
     1
102
RTVSPropertyOp18
 70
     1
102
RTVSPropertyOp19
 70
     1
102
RTVSPropertyOp20
 70
     1
102
RTVSPropertyOp21
 70
     1
102
RTVSPropertyOp22
 70
     1
102
RTVSPropertyOp23
 70
     1
102
RTVSPropertyOp24
 70
     1
102
RTVSPropertyOp25
 70
     1
102
RTVSPropertyOp26
 70
     1
102
RTVSPropertyOp27
 70
     1
102
RTVSPropertyOp28
 70
     1
102
RTVSPropertyOp29
 70
     1
102
RTVSPropertyOp30
 70
     1
102
RTVSPropertyOp31
 70
     1
102
RTVSPropertyOp32
 70
     1
102
RTVSPropertyOp33
 70
     1
102
RTVSPropertyOp34
 70
     1
102
RTVSPropertyOp35
 70
     1
102
RTVSPropertyOp36
 70
     1
102
RTVSPropertyOp37
 70
     1
102
RTVSPropertyOp38
 70
     1
102
RTVSPropertyOp39
 70
     1
102
RTVSPropertyOp40
 70
     1
102
RTVSPropertyOp41
 70
     1
102
RTVSPropertyOp42
 70
     1
102
RTVSPropertyOp43
 70
     1
102
RTVSPropertyOp44
 70
     1
102
RTVSPropertyOp45
 70
     1
102
RTVSPropertyOp46
 70
     1
102
RTVSPropertyOp47
 70
     1
102
RTVSPropertyOp48
 70
     1
102
RTVSPropertyOp49
 70
     1
102
RTVSPropertyOp50
 70
     1
102
RTVSPropertyOp51
 70
     0
102
RTVSPropertyOp52
 70
     0
102
RTVSPropertyOp53
 70
     1
102
RTVSPropertyOp54
 70
     1
102
RTVSPropertyOp55
 70
     1
102
RTVSPropertyOp56
 70
     1
102
RTVSPropertyOp57
 70
     1
102
RTVSPost2010Prop28
280
     0
102
RTVSPost2010PropOp28
 70
     1
102
RTVSPost2010Prop29
280
     1
102
RTVSPost2010PropOp29
 70
     1
102
RTVSPost2010Prop30
280
     1
102
RTVSPost2010PropOp30
 70
     1
102
RTVSPost2010Prop31
280
     0
102
RTVSPost2010PropOp31
 70
     1
102
RTVSPost2010Prop32
280
     0
102
RTVSPost2010PropOp32
 70
     1
102
RTVSPost2010Prop33
280
     0
102
RTVSPost2010PropOp33
 70
     1
102
RTVSPost2010Prop34
280
     0
102
RTVSPost2010PropOp34
 70
     1
102
RTVSPost2010Prop35
280
     0
102
RTVSPost2010PropOp35
 70
     1
102
RTVSPost2010Prop36
280
     0
102
RTVSPost2010PropOp36
 70
     1
102
RTVSPost2010Prop37
 90
       50
102
RTVSPost2010PropOp37
 70
     1
102
RTVSPost2010Prop38
140
0.0
102
RTVSPost2010PropOp38
 70
     1
102
RTVSPost2010Prop39
140
1.0
102
RTVSPost2010PropOp39
 70
     1
102
RTVSPost2010Prop40
 90
        0
102
RTVSPost2010PropOp40
 70
     1
102
RTVSPost2010Prop41ColorIndex
 90
       18
102
RTVSPost2010Prop41ColorRGB
 90
        0
102
RTVSPost2010PropOp41
 70
     1
102
RTVSPost2010Prop42
 90
       50
102
RTVSPost2010PropOp42
 70
     1
102
RTVSPost2010Prop43
 90
        3
102
RTVSPost2010PropOp43
 70
     1
102
RTVSPost2010Prop44ColorIndex
 90
        5
102
RTVSPost2010Prop44ColorRGB
 90
      255
102
RTVSPost2010PropOp44
 70
     1
102
RTVSPost2010Prop45
280
     0
102
RTVSPost2010PropOp45
 70
     1
102
RTVSPost2010Prop46
 90
       50
102
RTVSPost2010PropOp46
 70
     1
102
RTVSPost2010Prop47
 90
       50
102
RTVSPost2010PropOp47
 70
     1
102
RTVSPost2010Prop48
 90
       50
102
RTVSPost2010PropOp48
 70
     1
102
RTVSPost2010Prop49
280
     0
102
RTVSPost2010PropOp49
 70
     1
102
RTVSPost2010Prop50
 90
       50
102
RTVSPost2010PropOp50
 70
     1
102
RTVSPost2010Prop51ColorIndex
 90
      256
102
RTVSPost2010Prop51ColorRGB
 90
-16777216
102
RTVSPost2010PropOp51
 70
     0
102
RTVSPost2010Prop52
140
1.0
102
RTVSPost2010PropOp52
 70
     0
102
RTVSPost2010Prop53
 90
        2
102
RTVSPost2010PropOp53
 70
     1
102
RTVSPost2010Prop54
  1
strokes_ogs.tif
102
RTVSPost2010PropOp54
 70
     1
102
RTVSPost2010Prop55
280
     0
102
RTVSPost2010PropOp55
 70
     1
102
RTVSPost2010Prop56
140
1.0
102
RTVSPost2010PropOp56
 70
     1
102
RTVSPost2010Prop57
140
1.0
102
RTVSPost2010PropOp57
 70
     1
  0
XRECORD
  5
415
102
{ACAD_REACTORS
330
414
102
}
330
414
100
AcDbXrecord
280
     1
102
RTVSPropertyOp0
 70
     1
102
RTVSPropertyOp1
 70
     1
102
RTVSPropertyOp2
 70
     1
102
RTVSPropertyOp3
 70
     1
102
RTVSPropertyOp4
 70
     1
102
RTVSPropertyOp5
 70
     1
102
RTVSPropertyOp6
 70
     1
102
RTVSPropertyOp7
 70
     1
102
RTVSPropertyOp8
 70
     1
102
RTVSPropertyOp9
 70
     1
102
RTVSPropertyOp10
 70
     1
102
RTVSPropertyOp11
 70
     1
102
RTVSPropertyOp12
 70
     1
102
RTVSPropertyOp13
 70
     1
102
RTVSPropertyOp14
 70
     1
102
RTVSPropertyOp15
 70
     1
102
RTVSPropertyOp16
 70
     1
102
RTVSPropertyOp17
 70
     1
102
RTVSPropertyOp18
 70
     1
102
RTVSPropertyOp19
 70
     1
102
RTVSPropertyOp20
 70
     1
102
RTVSPropertyOp21
 70
     1
102
RTVSPropertyOp22
 70
     1
102
RTVSPropertyOp23
 70
     1
102
RTVSPropertyOp24
 70
     1
102
RTVSPropertyOp25
 70
     1
102
RTVSPropertyOp26
 70
     1
102
RTVSPropertyOp27
 70
     1
102
RTVSPropertyOp28
 70
     1
102
RTVSPropertyOp29
 70
     1
102
RTVSPropertyOp30
 70
     1
102
RTVSPropertyOp31
 70
     1
102
RTVSPropertyOp32
 70
     1
102
RTVSPropertyOp33
 70
     1
102
RTVSPropertyOp34
 70
     1
102
RTVSPropertyOp35
 70
     1
102
RTVSPropertyOp36
 70
     1
102
RTVSPropertyOp37
 70
     1
102
RTVSPropertyOp38
 70
     1
102
RTVSPropertyOp39
 70
     1
102
RTVSPropertyOp40
 70
     1
102
RTVSPropertyOp41
 70
     1
102
RTVSPropertyOp42
 70
     1
102
RTVSPropertyOp43
 70
     1
102
RTVSPropertyOp44
 70
     1
102
RTVSPropertyOp45
 70
     1
102
RTVSPropertyOp46
 70
     1
102
RTVSPropertyOp47
 70
     1
102
RTVSPropertyOp48
 70
     1
102
RTVSPropertyOp49
 70
     1
102
RTVSPropertyOp50
 70
     1
102
RTVSPropertyOp51
 70
     0
102
RTVSPropertyOp52
 70
     0
102
RTVSPropertyOp53
 70
     1
102
RTVSPropertyOp54
 70
     1
102
RTVSPropertyOp55
 70
     1
102
RTVSPropertyOp56
 70
     1
102
RTVSPropertyOp57
 70
     1
102
RTVSPost2010Prop28
280
     0
102
RTVSPost2010PropOp28
 70
     1
102
RTVSPost2010Prop29
280
     1
102
RTVSPost2010PropOp29
 70
     1
102
RTVSPost2010Prop30
280
     1
102
RTVSPost2010PropOp30
 70
     1
102
RTVSPost2010Prop31
280
     0
102
RTVSPost2010PropOp31
 70
     1
102
RTVSPost2010Prop32
280
     0
102
RTVSPost2010PropOp32
 70
     1
102
RTVSPost2010Prop33
280
     0
102
RTVSPost2010PropOp33
 70
     1
102
RTVSPost2010Prop34
280
     0
102
RTVSPost2010PropOp34
 70
     1
102
RTVSPost2010Prop35
280
     0
102
RTVSPost2010PropOp35
 70
     1
102
RTVSPost2010Prop36
280
     0
102
RTVSPost2010PropOp36
 70
     1
102
RTVSPost2010Prop37
 90
       50
102
RTVSPost2010PropOp37
 70
     1
102
RTVSPost2010Prop38
140
0.0
102
RTVSPost2010PropOp38
 70
     1
102
RTVSPost2010Prop39
140
1.0
102
RTVSPost2010PropOp39
 70
     1
102
RTVSPost2010Prop40
 90
        0
102
RTVSPost2010PropOp40
 70
     1
102
RTVSPost2010Prop41ColorIndex
 90
       18
102
RTVSPost2010Prop41ColorRGB
 90
        0
102
RTVSPost2010PropOp41
 70
     1
102
RTVSPost2010Prop42
 90
       50
102
RTVSPost2010PropOp42
 70
     1
102
RTVSPost2010Prop43
 90
        3
102
RTVSPost2010PropOp43
 70
     1
102
RTVSPost2010Prop44ColorIndex
 90
        5
102
RTVSPost2010Prop44ColorRGB
 90
      255
102
RTVSPost2010PropOp44
 70
     1
102
RTVSPost2010Prop45
280
     0
102
RTVSPost2010PropOp45
 70
     1
102
RTVSPost2010Prop46
 90
       50
102
RTVSPost2010PropOp46
 70
     1
102
RTVSPost2010Prop47
 90
       50
102
RTVSPost2010PropOp47
 70
     1
102
RTVSPost2010Prop48
 90
       50
102
RTVSPost2010PropOp48
 70
     1
102
RTVSPost2010Prop49
280
     0
102
RTVSPost2010PropOp49
 70
     1
102
RTVSPost2010Prop50
 90
       50
102
RTVSPost2010PropOp50
 70
     1
102
RTVSPost2010Prop51ColorIndex
 90
      256
102
RTVSPost2010Prop51ColorRGB
 90
-16777216
102
RTVSPost2010PropOp51
 70
     0
102
RTVSPost2010Prop52
140
1.0
102
RTVSPost2010PropOp52
 70
     0
102
RTVSPost2010Prop53
 90
        2
102
RTVSPost2010PropOp53
 70
     1
102
RTVSPost2010Prop54
  1
strokes_ogs.tif
102
RTVSPost2010PropOp54
 70
     1
102
RTVSPost2010Prop55
280
     0
102
RTVSPost2010PropOp55
 70
     1
102
RTVSPost2010Prop56
140
1.0
102
RTVSPost2010PropOp56
 70
     1
102
RTVSPost2010Prop57
140
1.0
102
RTVSPost2010PropOp57
 70
     1
  0
XRECORD
  5
425
102
{ACAD_REACTORS
330
424
102
}
330
424
100
AcDbXrecord
280
     1
102
RTVSPropertyOp0
 70
     0
102
RTVSPropertyOp1
 70
     0
102
RTVSPropertyOp2
 70
     0
102
RTVSPropertyOp3
 70
     0
102
RTVSPropertyOp4
 70
     0
102
RTVSPropertyOp5
 70
     0
102
RTVSPropertyOp6
 70
     0
102
RTVSPropertyOp7
 70
     0
102
RTVSPropertyOp8
 70
     0
102
RTVSPropertyOp9
 70
     0
102
RTVSPropertyOp10
 70
     0
102
RTVSPropertyOp11
 70
     0
102
RTVSPropertyOp12
 70
     0
102
RTVSPropertyOp13
 70
     0
102
RTVSPropertyOp14
 70
     2
102
RTVSPropertyOp15
 70
     0
102
RTVSPropertyOp16
 70
     0
102
RTVSPropertyOp17
 70
     0
102
RTVSPropertyOp18
 70
     0
102
RTVSPropertyOp19
 70
     0
102
RTVSPropertyOp20
 70
     0
102
RTVSPropertyOp21
 70
     0
102
RTVSPropertyOp22
 70
     0
102
RTVSPropertyOp23
 70
     0
102
RTVSPropertyOp24
 70
     0
102
RTVSPropertyOp25
 70
     0
102
RTVSPropertyOp26
 70
     0
102
RTVSPropertyOp27
 70
     0
102
RTVSPropertyOp28
 70
     0
102
RTVSPropertyOp29
 70
     0
102
RTVSPropertyOp30
 70
     0
102
RTVSPropertyOp31
 70
     0
102
RTVSPropertyOp32
 70
     0
102
RTVSPropertyOp33
 70
     0
102
RTVSPropertyOp34
 70
     0
102
RTVSPropertyOp35
 70
     0
102
RTVSPropertyOp36
 70
     0
102
RTVSPropertyOp37
 70
     0
102
RTVSPropertyOp38
 70
     0
102
RTVSPropertyOp39
 70
     0
102
RTVSPropertyOp40
 70
     0
102
RTVSPropertyOp41
 70
     0
102
RTVSPropertyOp42
 70
     0
102
RTVSPropertyOp43
 70
     0
102
RTVSPropertyOp44
 70
     0
102
RTVSPropertyOp45
 70
     0
102
RTVSPropertyOp46
 70
     0
102
RTVSPropertyOp47
 70
     0
102
RTVSPropertyOp48
 70
     0
102
RTVSPropertyOp49
 70
     0
102
RTVSPropertyOp50
 70
     0
102
RTVSPropertyOp51
 70
     0
102
RTVSPropertyOp52
 70
     0
102
RTVSPropertyOp53
 70
     0
102
RTVSPropertyOp54
 70
     0
102
RTVSPropertyOp55
 70
     0
102
RTVSPropertyOp56
 70
     0
102
RTVSPropertyOp57
 70
     0
102
RTVSPost2010Prop28
280
     0
102
RTVSPost2010PropOp28
 70
     0
102
RTVSPost2010Prop29
280
     1
102
RTVSPost2010PropOp29
 70
     0
102
RTVSPost2010Prop30
280
     1
102
RTVSPost2010PropOp30
 70
     0
102
RTVSPost2010Prop31
280
     0
102
RTVSPost2010PropOp31
 70
     0
102
RTVSPost2010Prop32
280
     0
102
RTVSPost2010PropOp32
 70
     0
102
RTVSPost2010Prop33
280
     0
102
RTVSPost2010PropOp33
 70
     0
102
RTVSPost2010Prop34
280
     0
102
RTVSPost2010PropOp34
 70
     0
102
RTVSPost2010Prop35
280
     0
102
RTVSPost2010PropOp35
 70
     0
102
RTVSPost2010Prop36
280
     0
102
RTVSPost2010PropOp36
 70
     0
102
RTVSPost2010Prop37
 90
       50
102
RTVSPost2010PropOp37
 70
     0
102
RTVSPost2010Prop38
140
0.0
102
RTVSPost2010PropOp38
 70
     0
102
RTVSPost2010Prop39
140
1.0
102
RTVSPost2010PropOp39
 70
     0
102
RTVSPost2010Prop40
 90
        0
102
RTVSPost2010PropOp40
 70
     0
102
RTVSPost2010Prop41ColorIndex
 90
       18
102
RTVSPost2010Prop41ColorRGB
 90
        0
102
RTVSPost2010PropOp41
 70
     0
102
RTVSPost2010Prop42
 90
       50
102
RTVSPost2010PropOp42
 70
     0
102
RTVSPost2010Prop43
 90
        3
102
RTVSPost2010PropOp43
 70
     0
102
RTVSPost2010Prop44ColorIndex
 90
        5
102
RTVSPost2010Prop44ColorRGB
 90
      255
102
RTVSPost2010PropOp44
 70
     0
102
RTVSPost2010Prop45
280
     0
102
RTVSPost2010PropOp45
 70
     0
102
RTVSPost2010Prop46
 90
       50
102
RTVSPost2010PropOp46
 70
     0
102
RTVSPost2010Prop47
 90
       50
102
RTVSPost2010PropOp47
 70
     0
102
RTVSPost2010Prop48
 90
       50
102
RTVSPost2010PropOp48
 70
     0
102
RTVSPost2010Prop49
280
     0
102
RTVSPost2010PropOp49
 70
     0
102
RTVSPost2010Prop50
 90
       50
102
RTVSPost2010PropOp50
 70
     0
102
RTVSPost2010Prop51ColorIndex
 90
      256
102
RTVSPost2010Prop51ColorRGB
 90
-16777216
102
RTVSPost2010PropOp51
 70
     0
102
RTVSPost2010Prop52
140
1.0
102
RTVSPost2010PropOp52
 70
     0
102
RTVSPost2010Prop53
 90
        2
102
RTVSPost2010PropOp53
 70
     0
102
RTVSPost2010Prop54
  1
strokes_ogs.tif
102
RTVSPost2010PropOp54
 70
     0
102
RTVSPost2010Prop55
280
     0
102
RTVSPost2010PropOp55
 70
     0
102
RTVSPost2010Prop56
140
1.0
102
RTVSPost2010PropOp56
 70
     0
102
RTVSPost2010Prop57
140
1.0
102
RTVSPost2010PropOp57
 70
     0
  0
XRECORD
  5
41D
102
{ACAD_REACTORS
330
41C
102
}
330
41C
100
AcDbXrecord
280
     1
102
RTVSPropertyOp0
 70
     1
102
RTVSPropertyOp1
 70
     1
102
RTVSPropertyOp2
 70
     1
102
RTVSPropertyOp3
 70
     1
102
RTVSPropertyOp4
 70
     1
102
RTVSPropertyOp5
 70
     1
102
RTVSPropertyOp6
 70
     1
102
RTVSPropertyOp7
 70
     1
102
RTVSPropertyOp8
 70
     1
102
RTVSPropertyOp9
 70
     1
102
RTVSPropertyOp10
 70
     1
102
RTVSPropertyOp11
 70
     1
102
RTVSPropertyOp12
 70
     1
102
RTVSPropertyOp13
 70
     1
102
RTVSPropertyOp14
 70
     1
102
RTVSPropertyOp15
 70
     1
102
RTVSPropertyOp16
 70
     1
102
RTVSPropertyOp17
 70
     1
102
RTVSPropertyOp18
 70
     1
102
RTVSPropertyOp19
 70
     1
102
RTVSPropertyOp20
 70
     1
102
RTVSPropertyOp21
 70
     1
102
RTVSPropertyOp22
 70
     1
102
RTVSPropertyOp23
 70
     1
102
RTVSPropertyOp24
 70
     1
102
RTVSPropertyOp25
 70
     1
102
RTVSPropertyOp26
 70
     1
102
RTVSPropertyOp27
 70
     1
102
RTVSPropertyOp28
 70
     1
102
RTVSPropertyOp29
 70
     1
102
RTVSPropertyOp30
 70
     1
102
RTVSPropertyOp31
 70
     1
102
RTVSPropertyOp32
 70
     1
102
RTVSPropertyOp33
 70
     1
102
RTVSPropertyOp34
 70
     1
102
RTVSPropertyOp35
 70
     1
102
RTVSPropertyOp36
 70
     1
102
RTVSPropertyOp37
 70
     1
102
RTVSPropertyOp38
 70
     1
102
RTVSPropertyOp39
 70
     1
102
RTVSPropertyOp40
 70
     1
102
RTVSPropertyOp41
 70
     1
102
RTVSPropertyOp42
 70
     1
102
RTVSPropertyOp43
 70
     1
102
RTVSPropertyOp44
 70
     1
102
RTVSPropertyOp45
 70
     1
102
RTVSPropertyOp46
 70
     1
102
RTVSPropertyOp47
 70
     1
102
RTVSPropertyOp48
 70
     1
102
RTVSPropertyOp49
 70
     1
102
RTVSPropertyOp50
 70
     1
102
RTVSPropertyOp51
 70
     0
102
RTVSPropertyOp52
 70
     0
102
RTVSPropertyOp53
 70
     1
102
RTVSPropertyOp54
 70
     1
102
RTVSPropertyOp55
 70
     1
102
RTVSPropertyOp56
 70
     1
102
RTVSPropertyOp57
 70
     1
102
RTVSPost2010Prop28
280
     0
102
RTVSPost2010PropOp28
 70
     1
102
RTVSPost2010Prop29
280
     1
102
RTVSPost2010PropOp29
 70
     1
102
RTVSPost2010Prop30
280
     1
102
RTVSPost2010PropOp30
 70
     1
102
RTVSPost2010Prop31
280
     0
102
RTVSPost2010PropOp31
 70
     1
102
RTVSPost2010Prop32
280
     0
102
RTVSPost2010PropOp32
 70
     1
102
RTVSPost2010Prop33
280
     0
102
RTVSPost2010PropOp33
 70
     1
102
RTVSPost2010Prop34
280
     0
102
RTVSPost2010PropOp34
 70
     1
102
RTVSPost2010Prop35
280
     0
102
RTVSPost2010PropOp35
 70
     1
102
RTVSPost2010Prop36
280
     0
102
RTVSPost2010PropOp36
 70
     1
102
RTVSPost2010Prop37
 90
       50
102
RTVSPost2010PropOp37
 70
     1
102
RTVSPost2010Prop38
140
0.0
102
RTVSPost2010PropOp38
 70
     1
102
RTVSPost2010Prop39
140
1.0
102
RTVSPost2010PropOp39
 70
     1
102
RTVSPost2010Prop40
 90
        0
102
RTVSPost2010PropOp40
 70
     1
102
RTVSPost2010Prop41ColorIndex
 90
       18
102
RTVSPost2010Prop41ColorRGB
 90
        0
102
RTVSPost2010PropOp41
 70
     1
102
RTVSPost2010Prop42
 90
       50
102
RTVSPost2010PropOp42
 70
     1
102
RTVSPost2010Prop43
 90
        3
102
RTVSPost2010PropOp43
 70
     1
102
RTVSPost2010Prop44ColorIndex
 90
        5
102
RTVSPost2010Prop44ColorRGB
 90
      255
102
RTVSPost2010PropOp44
 70
     1
102
RTVSPost2010Prop45
280
     0
102
RTVSPost2010PropOp45
 70
     1
102
RTVSPost2010Prop46
 90
       50
102
RTVSPost2010PropOp46
 70
     1
102
RTVSPost2010Prop47
 90
       50
102
RTVSPost2010PropOp47
 70
     1
102
RTVSPost2010Prop48
 90
       50
102
RTVSPost2010PropOp48
 70
     1
102
RTVSPost2010Prop49
280
     0
102
RTVSPost2010PropOp49
 70
     1
102
RTVSPost2010Prop50
 90
       50
102
RTVSPost2010PropOp50
 70
     1
102
RTVSPost2010Prop51ColorIndex
 90
      256
102
RTVSPost2010Prop51ColorRGB
 90
-16777216
102
RTVSPost2010PropOp51
 70
     0
102
RTVSPost2010Prop52
140
1.0
102
RTVSPost2010PropOp52
 70
     0
102
RTVSPost2010Prop53
 90
        2
102
RTVSPost2010PropOp53
 70
     1
102
RTVSPost2010Prop54
  1
strokes_ogs.tif
102
RTVSPost2010PropOp54
 70
     1
102
RTVSPost2010Prop55
280
     0
102
RTVSPost2010PropOp55
 70
     1
102
RTVSPost2010Prop56
140
1.0
102
RTVSPost2010PropOp56
 70
     1
102
RTVSPost2010Prop57
140
1.0
102
RTVSPost2010PropOp57
 70
     1
  0
XRECORD
  5
401
102
{ACAD_REACTORS
330
400
102
}
330
400
100
AcDbXrecord
280
     1
102
RTVSPropertyOp0
 70
     1
102
RTVSPropertyOp1
 70
     1
102
RTVSPropertyOp2
 70
     1
102
RTVSPropertyOp3
 70
     1
102
RTVSPropertyOp4
 70
     1
102
RTVSPropertyOp5
 70
     1
102
RTVSPropertyOp6
 70
     1
102
RTVSPropertyOp7
 70
     1
102
RTVSPropertyOp8
 70
     1
102
RTVSPropertyOp9
 70
     1
102
RTVSPropertyOp10
 70
     1
102
RTVSPropertyOp11
 70
     1
102
RTVSPropertyOp12
 70
     1
102
RTVSPropertyOp13
 70
     1
102
RTVSPropertyOp14
 70
     1
102
RTVSPropertyOp15
 70
     1
102
RTVSPropertyOp16
 70
     1
102
RTVSPropertyOp17
 70
     1
102
RTVSPropertyOp18
 70
     1
102
RTVSPropertyOp19
 70
     1
102
RTVSPropertyOp20
 70
     1
102
RTVSPropertyOp21
 70
     1
102
RTVSPropertyOp22
 70
     1
102
RTVSPropertyOp23
 70
     1
102
RTVSPropertyOp24
 70
     1
102
RTVSPropertyOp25
 70
     1
102
RTVSPropertyOp26
 70
     1
102
RTVSPropertyOp27
 70
     1
102
RTVSPropertyOp28
 70
     1
102
RTVSPropertyOp29
 70
     1
102
RTVSPropertyOp30
 70
     1
102
RTVSPropertyOp31
 70
     1
102
RTVSPropertyOp32
 70
     1
102
RTVSPropertyOp33
 70
     1
102
RTVSPropertyOp34
 70
     1
102
RTVSPropertyOp35
 70
     1
102
RTVSPropertyOp36
 70
     1
102
RTVSPropertyOp37
 70
     1
102
RTVSPropertyOp38
 70
     1
102
RTVSPropertyOp39
 70
     1
102
RTVSPropertyOp40
 70
     1
102
RTVSPropertyOp41
 70
     1
102
RTVSPropertyOp42
 70
     1
102
RTVSPropertyOp43
 70
     1
102
RTVSPropertyOp44
 70
     1
102
RTVSPropertyOp45
 70
     1
102
RTVSPropertyOp46
 70
     1
102
RTVSPropertyOp47
 70
     1
102
RTVSPropertyOp48
 70
     1
102
RTVSPropertyOp49
 70
     1
102
RTVSPropertyOp50
 70
     1
102
RTVSPropertyOp51
 70
     0
102
RTVSPropertyOp52
 70
     0
102
RTVSPropertyOp53
 70
     1
102
RTVSPropertyOp54
 70
     1
102
RTVSPropertyOp55
 70
     1
102
RTVSPropertyOp56
 70
     1
102
RTVSPropertyOp57
 70
     1
102
RTVSPost2010Prop28
280
     0
102
RTVSPost2010PropOp28
 70
     1
102
RTVSPost2010Prop29
280
     1
102
RTVSPost2010PropOp29
 70
     1
102
RTVSPost2010Prop30
280
     1
102
RTVSPost2010PropOp30
 70
     1
102
RTVSPost2010Prop31
280
     0
102
RTVSPost2010PropOp31
 70
     1
102
RTVSPost2010Prop32
280
     0
102
RTVSPost2010PropOp32
 70
     1
102
RTVSPost2010Prop33
280
     0
102
RTVSPost2010PropOp33
 70
     1
102
RTVSPost2010Prop34
280
     0
102
RTVSPost2010PropOp34
 70
     1
102
RTVSPost2010Prop35
280
     0
102
RTVSPost2010PropOp35
 70
     1
102
RTVSPost2010Prop36
280
     0
102
RTVSPost2010PropOp36
 70
     1
102
RTVSPost2010Prop37
 90
       50
102
RTVSPost2010PropOp37
 70
     1
102
RTVSPost2010Prop38
140
0.0
102
RTVSPost2010PropOp38
 70
     1
102
RTVSPost2010Prop39
140
1.0
102
RTVSPost2010PropOp39
 70
     1
102
RTVSPost2010Prop40
 90
        0
102
RTVSPost2010PropOp40
 70
     1
102
RTVSPost2010Prop41ColorIndex
 90
       18
102
RTVSPost2010Prop41ColorRGB
 90
        0
102
RTVSPost2010PropOp41
 70
     1
102
RTVSPost2010Prop42
 90
       50
102
RTVSPost2010PropOp42
 70
     1
102
RTVSPost2010Prop43
 90
        3
102
RTVSPost2010PropOp43
 70
     1
102
RTVSPost2010Prop44ColorIndex
 90
        5
102
RTVSPost2010Prop44ColorRGB
 90
      255
102
RTVSPost2010PropOp44
 70
     1
102
RTVSPost2010Prop45
280
     0
102
RTVSPost2010PropOp45
 70
     1
102
RTVSPost2010Prop46
 90
       50
102
RTVSPost2010PropOp46
 70
     1
102
RTVSPost2010Prop47
 90
       50
102
RTVSPost2010PropOp47
 70
     1
102
RTVSPost2010Prop48
 90
       50
102
RTVSPost2010PropOp48
 70
     1
102
RTVSPost2010Prop49
280
     0
102
RTVSPost2010PropOp49
 70
     1
102
RTVSPost2010Prop50
 90
       50
102
RTVSPost2010PropOp50
 70
     1
102
RTVSPost2010Prop51ColorIndex
 90
      256
102
RTVSPost2010Prop51ColorRGB
 90
-16777216
102
RTVSPost2010PropOp51
 70
     0
102
RTVSPost2010Prop52
140
1.0
102
RTVSPost2010PropOp52
 70
     0
102
RTVSPost2010Prop53
 90
        2
102
RTVSPost2010PropOp53
 70
     1
102
RTVSPost2010Prop54
  1
strokes_ogs.tif
102
RTVSPost2010PropOp54
 70
     1
102
RTVSPost2010Prop55
280
     0
102
RTVSPost2010PropOp55
 70
     1
102
RTVSPost2010Prop56
140
1.0
102
RTVSPost2010PropOp56
 70
     1
102
RTVSPost2010Prop57
140
1.0
102
RTVSPost2010PropOp57
 70
     1
  0
XRECORD
  5
403
102
{ACAD_REACTORS
330
402
102
}
330
402
100
AcDbXrecord
280
     1
102
RTVSPropertyOp0
 70
     1
102
RTVSPropertyOp1
 70
     1
102
RTVSPropertyOp2
 70
     1
102
RTVSPropertyOp3
 70
     1
102
RTVSPropertyOp4
 70
     1
102
RTVSPropertyOp5
 70
     1
102
RTVSPropertyOp6
 70
     1
102
RTVSPropertyOp7
 70
     1
102
RTVSPropertyOp8
 70
     1
102
RTVSPropertyOp9
 70
     1
102
RTVSPropertyOp10
 70
     1
102
RTVSPropertyOp11
 70
     1
102
RTVSPropertyOp12
 70
     1
102
RTVSPropertyOp13
 70
     1
102
RTVSPropertyOp14
 70
     1
102
RTVSPropertyOp15
 70
     1
102
RTVSPropertyOp16
 70
     1
102
RTVSPropertyOp17
 70
     1
102
RTVSPropertyOp18
 70
     1
102
RTVSPropertyOp19
 70
     1
102
RTVSPropertyOp20
 70
     1
102
RTVSPropertyOp21
 70
     1
102
RTVSPropertyOp22
 70
     1
102
RTVSPropertyOp23
 70
     1
102
RTVSPropertyOp24
 70
     1
102
RTVSPropertyOp25
 70
     1
102
RTVSPropertyOp26
 70
     1
102
RTVSPropertyOp27
 70
     1
102
RTVSPropertyOp28
 70
     1
102
RTVSPropertyOp29
 70
     1
102
RTVSPropertyOp30
 70
     1
102
RTVSPropertyOp31
 70
     1
102
RTVSPropertyOp32
 70
     1
102
RTVSPropertyOp33
 70
     1
102
RTVSPropertyOp34
 70
     1
102
RTVSPropertyOp35
 70
     1
102
RTVSPropertyOp36
 70
     1
102
RTVSPropertyOp37
 70
     1
102
RTVSPropertyOp38
 70
     1
102
RTVSPropertyOp39
 70
     1
102
RTVSPropertyOp40
 70
     1
102
RTVSPropertyOp41
 70
     1
102
RTVSPropertyOp42
 70
     1
102
RTVSPropertyOp43
 70
     1
102
RTVSPropertyOp44
 70
     1
102
RTVSPropertyOp45
 70
     1
102
RTVSPropertyOp46
 70
     1
102
RTVSPropertyOp47
 70
     1
102
RTVSPropertyOp48
 70
     1
102
RTVSPropertyOp49
 70
     1
102
RTVSPropertyOp50
 70
     1
102
RTVSPropertyOp51
 70
     0
102
RTVSPropertyOp52
 70
     0
102
RTVSPropertyOp53
 70
     1
102
RTVSPropertyOp54
 70
     1
102
RTVSPropertyOp55
 70
     1
102
RTVSPropertyOp56
 70
     1
102
RTVSPropertyOp57
 70
     1
102
RTVSPost2010Prop28
280
     0
102
RTVSPost2010PropOp28
 70
     1
102
RTVSPost2010Prop29
280
     1
102
RTVSPost2010PropOp29
 70
     1
102
RTVSPost2010Prop30
280
     1
102
RTVSPost2010PropOp30
 70
     1
102
RTVSPost2010Prop31
280
     0
102
RTVSPost2010PropOp31
 70
     1
102
RTVSPost2010Prop32
280
     0
102
RTVSPost2010PropOp32
 70
     1
102
RTVSPost2010Prop33
280
     0
102
RTVSPost2010PropOp33
 70
     1
102
RTVSPost2010Prop34
280
     0
102
RTVSPost2010PropOp34
 70
     1
102
RTVSPost2010Prop35
280
     0
102
RTVSPost2010PropOp35
 70
     1
102
RTVSPost2010Prop36
280
     0
102
RTVSPost2010PropOp36
 70
     1
102
RTVSPost2010Prop37
 90
       50
102
RTVSPost2010PropOp37
 70
     1
102
RTVSPost2010Prop38
140
0.0
102
RTVSPost2010PropOp38
 70
     1
102
RTVSPost2010Prop39
140
1.0
102
RTVSPost2010PropOp39
 70
     1
102
RTVSPost2010Prop40
 90
        0
102
RTVSPost2010PropOp40
 70
     1
102
RTVSPost2010Prop41ColorIndex
 90
       18
102
RTVSPost2010Prop41ColorRGB
 90
        0
102
RTVSPost2010PropOp41
 70
     1
102
RTVSPost2010Prop42
 90
       50
102
RTVSPost2010PropOp42
 70
     1
102
RTVSPost2010Prop43
 90
        3
102
RTVSPost2010PropOp43
 70
     1
102
RTVSPost2010Prop44ColorIndex
 90
        5
102
RTVSPost2010Prop44ColorRGB
 90
      255
102
RTVSPost2010PropOp44
 70
     1
102
RTVSPost2010Prop45
280
     0
102
RTVSPost2010PropOp45
 70
     1
102
RTVSPost2010Prop46
 90
       50
102
RTVSPost2010PropOp46
 70
     1
102
RTVSPost2010Prop47
 90
       50
102
RTVSPost2010PropOp47
 70
     1
102
RTVSPost2010Prop48
 90
       50
102
RTVSPost2010PropOp48
 70
     1
102
RTVSPost2010Prop49
280
     0
102
RTVSPost2010PropOp49
 70
     1
102
RTVSPost2010Prop50
 90
       50
102
RTVSPost2010PropOp50
 70
     1
102
RTVSPost2010Prop51ColorIndex
 90
      256
102
RTVSPost2010Prop51ColorRGB
 90
-16777216
102
RTVSPost2010PropOp51
 70
     0
102
RTVSPost2010Prop52
140
1.0
102
RTVSPost2010PropOp52
 70
     0
102
RTVSPost2010Prop53
 90
        2
102
RTVSPost2010PropOp53
 70
     1
102
RTVSPost2010Prop54
  1
strokes_ogs.tif
102
RTVSPost2010PropOp54
 70
     1
102
RTVSPost2010Prop55
280
     0
102
RTVSPost2010PropOp55
 70
     1
102
RTVSPost2010Prop56
140
1.0
102
RTVSPost2010PropOp56
 70
     1
102
RTVSPost2010Prop57
140
1.0
102
RTVSPost2010PropOp57
 70
     1
  0
XRECORD
  5
405
102
{ACAD_REACTORS
330
404
102
}
330
404
100
AcDbXrecord
280
     1
102
RTVSPropertyOp0
 70
     1
102
RTVSPropertyOp1
 70
     1
102
RTVSPropertyOp2
 70
     1
102
RTVSPropertyOp3
 70
     1
102
RTVSPropertyOp4
 70
     1
102
RTVSPropertyOp5
 70
     1
102
RTVSPropertyOp6
 70
     1
102
RTVSPropertyOp7
 70
     1
102
RTVSPropertyOp8
 70
     1
102
RTVSPropertyOp9
 70
     1
102
RTVSPropertyOp10
 70
     1
102
RTVSPropertyOp11
 70
     1
102
RTVSPropertyOp12
 70
     1
102
RTVSPropertyOp13
 70
     1
102
RTVSPropertyOp14
 70
     1
102
RTVSPropertyOp15
 70
     1
102
RTVSPropertyOp16
 70
     1
102
RTVSPropertyOp17
 70
     1
102
RTVSPropertyOp18
 70
     1
102
RTVSPropertyOp19
 70
     1
102
RTVSPropertyOp20
 70
     1
102
RTVSPropertyOp21
 70
     1
102
RTVSPropertyOp22
 70
     1
102
RTVSPropertyOp23
 70
     1
102
RTVSPropertyOp24
 70
     1
102
RTVSPropertyOp25
 70
     1
102
RTVSPropertyOp26
 70
     1
102
RTVSPropertyOp27
 70
     1
102
RTVSPropertyOp28
 70
     1
102
RTVSPropertyOp29
 70
     1
102
RTVSPropertyOp30
 70
     1
102
RTVSPropertyOp31
 70
     1
102
RTVSPropertyOp32
 70
     1
102
RTVSPropertyOp33
 70
     1
102
RTVSPropertyOp34
 70
     1
102
RTVSPropertyOp35
 70
     1
102
RTVSPropertyOp36
 70
     1
102
RTVSPropertyOp37
 70
     1
102
RTVSPropertyOp38
 70
     1
102
RTVSPropertyOp39
 70
     1
102
RTVSPropertyOp40
 70
     1
102
RTVSPropertyOp41
 70
     1
102
RTVSPropertyOp42
 70
     1
102
RTVSPropertyOp43
 70
     1
102
RTVSPropertyOp44
 70
     1
102
RTVSPropertyOp45
 70
     1
102
RTVSPropertyOp46
 70
     1
102
RTVSPropertyOp47
 70
     1
102
RTVSPropertyOp48
 70
     1
102
RTVSPropertyOp49
 70
     1
102
RTVSPropertyOp50
 70
     1
102
RTVSPropertyOp51
 70
     0
102
RTVSPropertyOp52
 70
     0
102
RTVSPropertyOp53
 70
     1
102
RTVSPropertyOp54
 70
     1
102
RTVSPropertyOp55
 70
     1
102
RTVSPropertyOp56
 70
     1
102
RTVSPropertyOp57
 70
     1
102
RTVSPost2010Prop28
280
     0
102
RTVSPost2010PropOp28
 70
     1
102
RTVSPost2010Prop29
280
     1
102
RTVSPost2010PropOp29
 70
     1
102
RTVSPost2010Prop30
280
     1
102
RTVSPost2010PropOp30
 70
     1
102
RTVSPost2010Prop31
280
     0
102
RTVSPost2010PropOp31
 70
     1
102
RTVSPost2010Prop32
280
     0
102
RTVSPost2010PropOp32
 70
     1
102
RTVSPost2010Prop33
280
     0
102
RTVSPost2010PropOp33
 70
     1
102
RTVSPost2010Prop34
280
     0
102
RTVSPost2010PropOp34
 70
     1
102
RTVSPost2010Prop35
280
     0
102
RTVSPost2010PropOp35
 70
     1
102
RTVSPost2010Prop36
280
     0
102
RTVSPost2010PropOp36
 70
     1
102
RTVSPost2010Prop37
 90
       50
102
RTVSPost2010PropOp37
 70
     1
102
RTVSPost2010Prop38
140
0.0
102
RTVSPost2010PropOp38
 70
     1
102
RTVSPost2010Prop39
140
1.0
102
RTVSPost2010PropOp39
 70
     1
102
RTVSPost2010Prop40
 90
        0
102
RTVSPost2010PropOp40
 70
     1
102
RTVSPost2010Prop41ColorIndex
 90
       18
102
RTVSPost2010Prop41ColorRGB
 90
        0
102
RTVSPost2010PropOp41
 70
     1
102
RTVSPost2010Prop42
 90
       50
102
RTVSPost2010PropOp42
 70
     1
102
RTVSPost2010Prop43
 90
        3
102
RTVSPost2010PropOp43
 70
     1
102
RTVSPost2010Prop44ColorIndex
 90
        5
102
RTVSPost2010Prop44ColorRGB
 90
      255
102
RTVSPost2010PropOp44
 70
     1
102
RTVSPost2010Prop45
280
     0
102
RTVSPost2010PropOp45
 70
     1
102
RTVSPost2010Prop46
 90
       50
102
RTVSPost2010PropOp46
 70
     1
102
RTVSPost2010Prop47
 90
       50
102
RTVSPost2010PropOp47
 70
     1
102
RTVSPost2010Prop48
 90
       50
102
RTVSPost2010PropOp48
 70
     1
102
RTVSPost2010Prop49
280
     0
102
RTVSPost2010PropOp49
 70
     1
102
RTVSPost2010Prop50
 90
       50
102
RTVSPost2010PropOp50
 70
     1
102
RTVSPost2010Prop51ColorIndex
 90
      256
102
RTVSPost2010Prop51ColorRGB
 90
-16777216
102
RTVSPost2010PropOp51
 70
     0
102
RTVSPost2010Prop52
140
1.0
102
RTVSPost2010PropOp52
 70
     0
102
RTVSPost2010Prop53
 90
        2
102
RTVSPost2010PropOp53
 70
     1
102
RTVSPost2010Prop54
  1
strokes_ogs.tif
102
RTVSPost2010PropOp54
 70
     1
102
RTVSPost2010Prop55
280
     0
102
RTVSPost2010PropOp55
 70
     1
102
RTVSPost2010Prop56
140
1.0
102
RTVSPost2010PropOp56
 70
     1
102
RTVSPost2010Prop57
140
1.0
102
RTVSPost2010PropOp57
 70
     1
  0
XRECORD
  5
407
102
{ACAD_REACTORS
330
406
102
}
330
406
100
AcDbXrecord
280
     1
102
RTVSPropertyOp0
 70
     1
102
RTVSPropertyOp1
 70
     1
102
RTVSPropertyOp2
 70
     1
102
RTVSPropertyOp3
 70
     1
102
RTVSPropertyOp4
 70
     1
102
RTVSPropertyOp5
 70
     1
102
RTVSPropertyOp6
 70
     1
102
RTVSPropertyOp7
 70
     1
102
RTVSPropertyOp8
 70
     1
102
RTVSPropertyOp9
 70
     1
102
RTVSPropertyOp10
 70
     1
102
RTVSPropertyOp11
 70
     1
102
RTVSPropertyOp12
 70
     1
102
RTVSPropertyOp13
 70
     1
102
RTVSPropertyOp14
 70
     1
102
RTVSPropertyOp15
 70
     1
102
RTVSPropertyOp16
 70
     1
102
RTVSPropertyOp17
 70
     1
102
RTVSPropertyOp18
 70
     1
102
RTVSPropertyOp19
 70
     1
102
RTVSPropertyOp20
 70
     1
102
RTVSPropertyOp21
 70
     1
102
RTVSPropertyOp22
 70
     1
102
RTVSPropertyOp23
 70
     1
102
RTVSPropertyOp24
 70
     1
102
RTVSPropertyOp25
 70
     1
102
RTVSPropertyOp26
 70
     1
102
RTVSPropertyOp27
 70
     1
102
RTVSPropertyOp28
 70
     1
102
RTVSPropertyOp29
 70
     1
102
RTVSPropertyOp30
 70
     1
102
RTVSPropertyOp31
 70
     1
102
RTVSPropertyOp32
 70
     1
102
RTVSPropertyOp33
 70
     1
102
RTVSPropertyOp34
 70
     1
102
RTVSPropertyOp35
 70
     1
102
RTVSPropertyOp36
 70
     1
102
RTVSPropertyOp37
 70
     1
102
RTVSPropertyOp38
 70
     1
102
RTVSPropertyOp39
 70
     1
102
RTVSPropertyOp40
 70
     1
102
RTVSPropertyOp41
 70
     1
102
RTVSPropertyOp42
 70
     1
102
RTVSPropertyOp43
 70
     1
102
RTVSPropertyOp44
 70
     1
102
RTVSPropertyOp45
 70
     1
102
RTVSPropertyOp46
 70
     1
102
RTVSPropertyOp47
 70
     1
102
RTVSPropertyOp48
 70
     1
102
RTVSPropertyOp49
 70
     1
102
RTVSPropertyOp50
 70
     1
102
RTVSPropertyOp51
 70
     0
102
RTVSPropertyOp52
 70
     0
102
RTVSPropertyOp53
 70
     1
102
RTVSPropertyOp54
 70
     1
102
RTVSPropertyOp55
 70
     1
102
RTVSPropertyOp56
 70
     1
102
RTVSPropertyOp57
 70
     1
102
RTVSPost2010Prop28
280
     0
102
RTVSPost2010PropOp28
 70
     1
102
RTVSPost2010Prop29
280
     1
102
RTVSPost2010PropOp29
 70
     1
102
RTVSPost2010Prop30
280
     1
102
RTVSPost2010PropOp30
 70
     1
102
RTVSPost2010Prop31
280
     0
102
RTVSPost2010PropOp31
 70
     1
102
RTVSPost2010Prop32
280
     0
102
RTVSPost2010PropOp32
 70
     1
102
RTVSPost2010Prop33
280
     0
102
RTVSPost2010PropOp33
 70
     1
102
RTVSPost2010Prop34
280
     0
102
RTVSPost2010PropOp34
 70
     1
102
RTVSPost2010Prop35
280
     0
102
RTVSPost2010PropOp35
 70
     1
102
RTVSPost2010Prop36
280
     0
102
RTVSPost2010PropOp36
 70
     1
102
RTVSPost2010Prop37
 90
       50
102
RTVSPost2010PropOp37
 70
     1
102
RTVSPost2010Prop38
140
0.0
102
RTVSPost2010PropOp38
 70
     1
102
RTVSPost2010Prop39
140
1.0
102
RTVSPost2010PropOp39
 70
     1
102
RTVSPost2010Prop40
 90
        0
102
RTVSPost2010PropOp40
 70
     1
102
RTVSPost2010Prop41ColorIndex
 90
       18
102
RTVSPost2010Prop41ColorRGB
 90
        0
102
RTVSPost2010PropOp41
 70
     1
102
RTVSPost2010Prop42
 90
       50
102
RTVSPost2010PropOp42
 70
     1
102
RTVSPost2010Prop43
 90
        3
102
RTVSPost2010PropOp43
 70
     1
102
RTVSPost2010Prop44ColorIndex
 90
        5
102
RTVSPost2010Prop44ColorRGB
 90
      255
102
RTVSPost2010PropOp44
 70
     1
102
RTVSPost2010Prop45
280
     0
102
RTVSPost2010PropOp45
 70
     1
102
RTVSPost2010Prop46
 90
       50
102
RTVSPost2010PropOp46
 70
     1
102
RTVSPost2010Prop47
 90
       50
102
RTVSPost2010PropOp47
 70
     1
102
RTVSPost2010Prop48
 90
       50
102
RTVSPost2010PropOp48
 70
     1
102
RTVSPost2010Prop49
280
     0
102
RTVSPost2010PropOp49
 70
     1
102
RTVSPost2010Prop50
 90
       50
102
RTVSPost2010PropOp50
 70
     1
102
RTVSPost2010Prop51ColorIndex
 90
      256
102
RTVSPost2010Prop51ColorRGB
 90
-16777216
102
RTVSPost2010PropOp51
 70
     0
102
RTVSPost2010Prop52
140
1.0
102
RTVSPost2010PropOp52
 70
     0
102
RTVSPost2010Prop53
 90
        2
102
RTVSPost2010PropOp53
 70
     1
102
RTVSPost2010Prop54
  1
strokes_ogs.tif
102
RTVSPost2010PropOp54
 70
     1
102
RTVSPost2010Prop55
280
     0
102
RTVSPost2010PropOp55
 70
     1
102
RTVSPost2010Prop56
140
1.0
102
RTVSPost2010PropOp56
 70
     1
102
RTVSPost2010Prop57
140
1.0
102
RTVSPost2010PropOp57
 70
     1
  0
XRECORD
  5
40D
102
{ACAD_REACTORS
330
40C
102
}
330
40C
100
AcDbXrecord
280
     1
102
RTVSPropertyOp0
 70
     1
102
RTVSPropertyOp1
 70
     1
102
RTVSPropertyOp2
 70
     1
102
RTVSPropertyOp3
 70
     1
102
RTVSPropertyOp4
 70
     1
102
RTVSPropertyOp5
 70
     1
102
RTVSPropertyOp6
 70
     1
102
RTVSPropertyOp7
 70
     1
102
RTVSPropertyOp8
 70
     1
102
RTVSPropertyOp9
 70
     1
102
RTVSPropertyOp10
 70
     1
102
RTVSPropertyOp11
 70
     1
102
RTVSPropertyOp12
 70
     1
102
RTVSPropertyOp13
 70
     1
102
RTVSPropertyOp14
 70
     1
102
RTVSPropertyOp15
 70
     1
102
RTVSPropertyOp16
 70
     1
102
RTVSPropertyOp17
 70
     1
102
RTVSPropertyOp18
 70
     1
102
RTVSPropertyOp19
 70
     1
102
RTVSPropertyOp20
 70
     1
102
RTVSPropertyOp21
 70
     1
102
RTVSPropertyOp22
 70
     1
102
RTVSPropertyOp23
 70
     1
102
RTVSPropertyOp24
 70
     1
102
RTVSPropertyOp25
 70
     1
102
RTVSPropertyOp26
 70
     1
102
RTVSPropertyOp27
 70
     1
102
RTVSPropertyOp28
 70
     1
102
RTVSPropertyOp29
 70
     1
102
RTVSPropertyOp30
 70
     1
102
RTVSPropertyOp31
 70
     1
102
RTVSPropertyOp32
 70
     1
102
RTVSPropertyOp33
 70
     1
102
RTVSPropertyOp34
 70
     1
102
RTVSPropertyOp35
 70
     1
102
RTVSPropertyOp36
 70
     1
102
RTVSPropertyOp37
 70
     1
102
RTVSPropertyOp38
 70
     1
102
RTVSPropertyOp39
 70
     1
102
RTVSPropertyOp40
 70
     1
102
RTVSPropertyOp41
 70
     1
102
RTVSPropertyOp42
 70
     1
102
RTVSPropertyOp43
 70
     1
102
RTVSPropertyOp44
 70
     1
102
RTVSPropertyOp45
 70
     1
102
RTVSPropertyOp46
 70
     1
102
RTVSPropertyOp47
 70
     1
102
RTVSPropertyOp48
 70
     1
102
RTVSPropertyOp49
 70
     1
102
RTVSPropertyOp50
 70
     1
102
RTVSPropertyOp51
 70
     0
102
RTVSPropertyOp52
 70
     0
102
RTVSPropertyOp53
 70
     1
102
RTVSPropertyOp54
 70
     1
102
RTVSPropertyOp55
 70
     1
102
RTVSPropertyOp56
 70
     1
102
RTVSPropertyOp57
 70
     1
102
RTVSPost2010Prop28
280
     0
102
RTVSPost2010PropOp28
 70
     1
102
RTVSPost2010Prop29
280
     1
102
RTVSPost2010PropOp29
 70
     1
102
RTVSPost2010Prop30
280
     1
102
RTVSPost2010PropOp30
 70
     1
102
RTVSPost2010Prop31
280
     0
102
RTVSPost2010PropOp31
 70
     1
102
RTVSPost2010Prop32
280
     0
102
RTVSPost2010PropOp32
 70
     1
102
RTVSPost2010Prop33
280
     0
102
RTVSPost2010PropOp33
 70
     1
102
RTVSPost2010Prop34
280
     0
102
RTVSPost2010PropOp34
 70
     1
102
RTVSPost2010Prop35
280
     0
102
RTVSPost2010PropOp35
 70
     1
102
RTVSPost2010Prop36
280
     0
102
RTVSPost2010PropOp36
 70
     1
102
RTVSPost2010Prop37
 90
       50
102
RTVSPost2010PropOp37
 70
     1
102
RTVSPost2010Prop38
140
0.0
102
RTVSPost2010PropOp38
 70
     1
102
RTVSPost2010Prop39
140
1.0
102
RTVSPost2010PropOp39
 70
     1
102
RTVSPost2010Prop40
 90
        0
102
RTVSPost2010PropOp40
 70
     1
102
RTVSPost2010Prop41ColorIndex
 90
       18
102
RTVSPost2010Prop41ColorRGB
 90
        0
102
RTVSPost2010PropOp41
 70
     1
102
RTVSPost2010Prop42
 90
       50
102
RTVSPost2010PropOp42
 70
     1
102
RTVSPost2010Prop43
 90
        3
102
RTVSPost2010PropOp43
 70
     1
102
RTVSPost2010Prop44ColorIndex
 90
        5
102
RTVSPost2010Prop44ColorRGB
 90
      255
102
RTVSPost2010PropOp44
 70
     1
102
RTVSPost2010Prop45
280
     0
102
RTVSPost2010PropOp45
 70
     1
102
RTVSPost2010Prop46
 90
       50
102
RTVSPost2010PropOp46
 70
     1
102
RTVSPost2010Prop47
 90
       50
102
RTVSPost2010PropOp47
 70
     1
102
RTVSPost2010Prop48
 90
       50
102
RTVSPost2010PropOp48
 70
     1
102
RTVSPost2010Prop49
280
     0
102
RTVSPost2010PropOp49
 70
     1
102
RTVSPost2010Prop50
 90
       50
102
RTVSPost2010PropOp50
 70
     1
102
RTVSPost2010Prop51ColorIndex
 90
      256
102
RTVSPost2010Prop51ColorRGB
 90
-16777216
102
RTVSPost2010PropOp51
 70
     0
102
RTVSPost2010Prop52
140
1.0
102
RTVSPost2010PropOp52
 70
     0
102
RTVSPost2010Prop53
 90
        2
102
RTVSPost2010PropOp53
 70
     1
102
RTVSPost2010Prop54
  1
strokes_ogs.tif
102
RTVSPost2010PropOp54
 70
     1
102
RTVSPost2010Prop55
280
     0
102
RTVSPost2010PropOp55
 70
     1
102
RTVSPost2010Prop56
140
1.0
102
RTVSPost2010PropOp56
 70
     1
102
RTVSPost2010Prop57
140
1.0
102
RTVSPost2010PropOp57
 70
     1
  0
XRECORD
  5
421
102
{ACAD_REACTORS
330
420
102
}
330
420
100
AcDbXrecord
280
     1
102
RTVSPropertyOp0
 70
     0
102
RTVSPropertyOp1
 70
     0
102
RTVSPropertyOp2
 70
     0
102
RTVSPropertyOp3
 70
     0
102
RTVSPropertyOp4
 70
     0
102
RTVSPropertyOp5
 70
     0
102
RTVSPropertyOp6
 70
     0
102
RTVSPropertyOp7
 70
     0
102
RTVSPropertyOp8
 70
     0
102
RTVSPropertyOp9
 70
     0
102
RTVSPropertyOp10
 70
     0
102
RTVSPropertyOp11
 70
     0
102
RTVSPropertyOp12
 70
     0
102
RTVSPropertyOp13
 70
     0
102
RTVSPropertyOp14
 70
     2
102
RTVSPropertyOp15
 70
     0
102
RTVSPropertyOp16
 70
     0
102
RTVSPropertyOp17
 70
     0
102
RTVSPropertyOp18
 70
     0
102
RTVSPropertyOp19
 70
     0
102
RTVSPropertyOp20
 70
     0
102
RTVSPropertyOp21
 70
     0
102
RTVSPropertyOp22
 70
     0
102
RTVSPropertyOp23
 70
     0
102
RTVSPropertyOp24
 70
     0
102
RTVSPropertyOp25
 70
     0
102
RTVSPropertyOp26
 70
     0
102
RTVSPropertyOp27
 70
     0
102
RTVSPropertyOp28
 70
     0
102
RTVSPropertyOp29
 70
     0
102
RTVSPropertyOp30
 70
     0
102
RTVSPropertyOp31
 70
     0
102
RTVSPropertyOp32
 70
     0
102
RTVSPropertyOp33
 70
     0
102
RTVSPropertyOp34
 70
     0
102
RTVSPropertyOp35
 70
     0
102
RTVSPropertyOp36
 70
     0
102
RTVSPropertyOp37
 70
     0
102
RTVSPropertyOp38
 70
     0
102
RTVSPropertyOp39
 70
     0
102
RTVSPropertyOp40
 70
     0
102
RTVSPropertyOp41
 70
     0
102
RTVSPropertyOp42
 70
     0
102
RTVSPropertyOp43
 70
     0
102
RTVSPropertyOp44
 70
     0
102
RTVSPropertyOp45
 70
     0
102
RTVSPropertyOp46
 70
     0
102
RTVSPropertyOp47
 70
     0
102
RTVSPropertyOp48
 70
     0
102
RTVSPropertyOp49
 70
     0
102
RTVSPropertyOp50
 70
     0
102
RTVSPropertyOp51
 70
     0
102
RTVSPropertyOp52
 70
     0
102
RTVSPropertyOp53
 70
     0
102
RTVSPropertyOp54
 70
     0
102
RTVSPropertyOp55
 70
     0
102
RTVSPropertyOp56
 70
     0
102
RTVSPropertyOp57
 70
     0
102
RTVSPost2010Prop28
280
     0
102
RTVSPost2010PropOp28
 70
     0
102
RTVSPost2010Prop29
280
     1
102
RTVSPost2010PropOp29
 70
     0
102
RTVSPost2010Prop30
280
     1
102
RTVSPost2010PropOp30
 70
     0
102
RTVSPost2010Prop31
280
     0
102
RTVSPost2010PropOp31
 70
     0
102
RTVSPost2010Prop32
280
     0
102
RTVSPost2010PropOp32
 70
     0
102
RTVSPost2010Prop33
280
     0
102
RTVSPost2010PropOp33
 70
     0
102
RTVSPost2010Prop34
280
     0
102
RTVSPost2010PropOp34
 70
     0
102
RTVSPost2010Prop35
280
     0
102
RTVSPost2010PropOp35
 70
     0
102
RTVSPost2010Prop36
280
     0
102
RTVSPost2010PropOp36
 70
     0
102
RTVSPost2010Prop37
 90
       50
102
RTVSPost2010PropOp37
 70
     0
102
RTVSPost2010Prop38
140
0.0
102
RTVSPost2010PropOp38
 70
     0
102
RTVSPost2010Prop39
140
1.0
102
RTVSPost2010PropOp39
 70
     0
102
RTVSPost2010Prop40
 90
        0
102
RTVSPost2010PropOp40
 70
     0
102
RTVSPost2010Prop41ColorIndex
 90
       18
102
RTVSPost2010Prop41ColorRGB
 90
        0
102
RTVSPost2010PropOp41
 70
     0
102
RTVSPost2010Prop42
 90
       50
102
RTVSPost2010PropOp42
 70
     0
102
RTVSPost2010Prop43
 90
        3
102
RTVSPost2010PropOp43
 70
     0
102
RTVSPost2010Prop44ColorIndex
 90
        5
102
RTVSPost2010Prop44ColorRGB
 90
      255
102
RTVSPost2010PropOp44
 70
     0
102
RTVSPost2010Prop45
280
     0
102
RTVSPost2010PropOp45
 70
     0
102
RTVSPost2010Prop46
 90
       50
102
RTVSPost2010PropOp46
 70
     0
102
RTVSPost2010Prop47
 90
       50
102
RTVSPost2010PropOp47
 70
     0
102
RTVSPost2010Prop48
 90
       50
102
RTVSPost2010PropOp48
 70
     0
102
RTVSPost2010Prop49
280
     0
102
RTVSPost2010PropOp49
 70
     0
102
RTVSPost2010Prop50
 90
       50
102
RTVSPost2010PropOp50
 70
     0
102
RTVSPost2010Prop51ColorIndex
 90
      256
102
RTVSPost2010Prop51ColorRGB
 90
-16777216
102
RTVSPost2010PropOp51
 70
     0
102
RTVSPost2010Prop52
140
1.0
102
RTVSPost2010PropOp52
 70
     0
102
RTVSPost2010Prop53
 90
        2
102
RTVSPost2010PropOp53
 70
     0
102
RTVSPost2010Prop54
  1
strokes_ogs.tif
102
RTVSPost2010PropOp54
 70
     0
102
RTVSPost2010Prop55
280
     0
102
RTVSPost2010PropOp55
 70
     0
102
RTVSPost2010Prop56
140
1.0
102
RTVSPost2010PropOp56
 70
     0
102
RTVSPost2010Prop57
140
1.0
102
RTVSPost2010PropOp57
 70
     0
  0
XRECORD
  5
41B
102
{ACAD_REACTORS
330
41A
102
}
330
41A
100
AcDbXrecord
280
     1
102
RTVSPropertyOp0
 70
     1
102
RTVSPropertyOp1
 70
     1
102
RTVSPropertyOp2
 70
     1
102
RTVSPropertyOp3
 70
     1
102
RTVSPropertyOp4
 70
     1
102
RTVSPropertyOp5
 70
     1
102
RTVSPropertyOp6
 70
     1
102
RTVSPropertyOp7
 70
     1
102
RTVSPropertyOp8
 70
     1
102
RTVSPropertyOp9
 70
     1
102
RTVSPropertyOp10
 70
     1
102
RTVSPropertyOp11
 70
     1
102
RTVSPropertyOp12
 70
     1
102
RTVSPropertyOp13
 70
     1
102
RTVSPropertyOp14
 70
     1
102
RTVSPropertyOp15
 70
     1
102
RTVSPropertyOp16
 70
     1
102
RTVSPropertyOp17
 70
     1
102
RTVSPropertyOp18
 70
     1
102
RTVSPropertyOp19
 70
     1
102
RTVSPropertyOp20
 70
     1
102
RTVSPropertyOp21
 70
     1
102
RTVSPropertyOp22
 70
     1
102
RTVSPropertyOp23
 70
     1
102
RTVSPropertyOp24
 70
     1
102
RTVSPropertyOp25
 70
     1
102
RTVSPropertyOp26
 70
     1
102
RTVSPropertyOp27
 70
     1
102
RTVSPropertyOp28
 70
     1
102
RTVSPropertyOp29
 70
     1
102
RTVSPropertyOp30
 70
     1
102
RTVSPropertyOp31
 70
     1
102
RTVSPropertyOp32
 70
     1
102
RTVSPropertyOp33
 70
     1
102
RTVSPropertyOp34
 70
     1
102
RTVSPropertyOp35
 70
     1
102
RTVSPropertyOp36
 70
     1
102
RTVSPropertyOp37
 70
     1
102
RTVSPropertyOp38
 70
     1
102
RTVSPropertyOp39
 70
     1
102
RTVSPropertyOp40
 70
     1
102
RTVSPropertyOp41
 70
     1
102
RTVSPropertyOp42
 70
     1
102
RTVSPropertyOp43
 70
     1
102
RTVSPropertyOp44
 70
     1
102
RTVSPropertyOp45
 70
     1
102
RTVSPropertyOp46
 70
     1
102
RTVSPropertyOp47
 70
     1
102
RTVSPropertyOp48
 70
     1
102
RTVSPropertyOp49
 70
     1
102
RTVSPropertyOp50
 70
     1
102
RTVSPropertyOp51
 70
     0
102
RTVSPropertyOp52
 70
     0
102
RTVSPropertyOp53
 70
     1
102
RTVSPropertyOp54
 70
     1
102
RTVSPropertyOp55
 70
     1
102
RTVSPropertyOp56
 70
     1
102
RTVSPropertyOp57
 70
     1
102
RTVSPost2010Prop28
280
     0
102
RTVSPost2010PropOp28
 70
     1
102
RTVSPost2010Prop29
280
     1
102
RTVSPost2010PropOp29
 70
     1
102
RTVSPost2010Prop30
280
     1
102
RTVSPost2010PropOp30
 70
     1
102
RTVSPost2010Prop31
280
     0
102
RTVSPost2010PropOp31
 70
     1
102
RTVSPost2010Prop32
280
     0
102
RTVSPost2010PropOp32
 70
     1
102
RTVSPost2010Prop33
280
     0
102
RTVSPost2010PropOp33
 70
     1
102
RTVSPost2010Prop34
280
     0
102
RTVSPost2010PropOp34
 70
     1
102
RTVSPost2010Prop35
280
     0
102
RTVSPost2010PropOp35
 70
     1
102
RTVSPost2010Prop36
280
     0
102
RTVSPost2010PropOp36
 70
     1
102
RTVSPost2010Prop37
 90
       50
102
RTVSPost2010PropOp37
 70
     1
102
RTVSPost2010Prop38
140
0.0
102
RTVSPost2010PropOp38
 70
     1
102
RTVSPost2010Prop39
140
1.0
102
RTVSPost2010PropOp39
 70
     1
102
RTVSPost2010Prop40
 90
        0
102
RTVSPost2010PropOp40
 70
     1
102
RTVSPost2010Prop41ColorIndex
 90
       18
102
RTVSPost2010Prop41ColorRGB
 90
        0
102
RTVSPost2010PropOp41
 70
     1
102
RTVSPost2010Prop42
 90
       50
102
RTVSPost2010PropOp42
 70
     1
102
RTVSPost2010Prop43
 90
        3
102
RTVSPost2010PropOp43
 70
     1
102
RTVSPost2010Prop44ColorIndex
 90
        5
102
RTVSPost2010Prop44ColorRGB
 90
      255
102
RTVSPost2010PropOp44
 70
     1
102
RTVSPost2010Prop45
280
     0
102
RTVSPost2010PropOp45
 70
     1
102
RTVSPost2010Prop46
 90
       50
102
RTVSPost2010PropOp46
 70
     1
102
RTVSPost2010Prop47
 90
       50
102
RTVSPost2010PropOp47
 70
     1
102
RTVSPost2010Prop48
 90
       50
102
RTVSPost2010PropOp48
 70
     1
102
RTVSPost2010Prop49
280
     0
102
RTVSPost2010PropOp49
 70
     1
102
RTVSPost2010Prop50
 90
       50
102
RTVSPost2010PropOp50
 70
     1
102
RTVSPost2010Prop51ColorIndex
 90
      256
102
RTVSPost2010Prop51ColorRGB
 90
-16777216
102
RTVSPost2010PropOp51
 70
     0
102
RTVSPost2010Prop52
140
1.0
102
RTVSPost2010PropOp52
 70
     0
102
RTVSPost2010Prop53
 90
        2
102
RTVSPost2010PropOp53
 70
     1
102
RTVSPost2010Prop54
  1
strokes_ogs.tif
102
RTVSPost2010PropOp54
 70
     1
102
RTVSPost2010Prop55
280
     0
102
RTVSPost2010PropOp55
 70
     1
102
RTVSPost2010Prop56
140
1.0
102
RTVSPost2010PropOp56
 70
     1
102
RTVSPost2010Prop57
140
1.0
102
RTVSPost2010PropOp57
 70
     1
  0
XRECORD
  5
423
102
{ACAD_REACTORS
330
422
102
}
330
422
100
AcDbXrecord
280
     1
102
RTVSPropertyOp0
 70
     0
102
RTVSPropertyOp1
 70
     0
102
RTVSPropertyOp2
 70
     0
102
RTVSPropertyOp3
 70
     0
102
RTVSPropertyOp4
 70
     0
102
RTVSPropertyOp5
 70
     0
102
RTVSPropertyOp6
 70
     0
102
RTVSPropertyOp7
 70
     0
102
RTVSPropertyOp8
 70
     0
102
RTVSPropertyOp9
 70
     0
102
RTVSPropertyOp10
 70
     0
102
RTVSPropertyOp11
 70
     0
102
RTVSPropertyOp12
 70
     0
102
RTVSPropertyOp13
 70
     0
102
RTVSPropertyOp14
 70
     2
102
RTVSPropertyOp15
 70
     0
102
RTVSPropertyOp16
 70
     0
102
RTVSPropertyOp17
 70
     0
102
RTVSPropertyOp18
 70
     0
102
RTVSPropertyOp19
 70
     0
102
RTVSPropertyOp20
 70
     0
102
RTVSPropertyOp21
 70
     0
102
RTVSPropertyOp22
 70
     0
102
RTVSPropertyOp23
 70
     0
102
RTVSPropertyOp24
 70
     0
102
RTVSPropertyOp25
 70
     0
102
RTVSPropertyOp26
 70
     0
102
RTVSPropertyOp27
 70
     0
102
RTVSPropertyOp28
 70
     0
102
RTVSPropertyOp29
 70
     0
102
RTVSPropertyOp30
 70
     0
102
RTVSPropertyOp31
 70
     0
102
RTVSPropertyOp32
 70
     0
102
RTVSPropertyOp33
 70
     0
102
RTVSPropertyOp34
 70
     0
102
RTVSPropertyOp35
 70
     0
102
RTVSPropertyOp36
 70
     0
102
RTVSPropertyOp37
 70
     0
102
RTVSPropertyOp38
 70
     0
102
RTVSPropertyOp39
 70
     0
102
RTVSPropertyOp40
 70
     0
102
RTVSPropertyOp41
 70
     0
102
RTVSPropertyOp42
 70
     0
102
RTVSPropertyOp43
 70
     0
102
RTVSPropertyOp44
 70
     0
102
RTVSPropertyOp45
 70
     0
102
RTVSPropertyOp46
 70
     0
102
RTVSPropertyOp47
 70
     0
102
RTVSPropertyOp48
 70
     0
102
RTVSPropertyOp49
 70
     0
102
RTVSPropertyOp50
 70
     0
102
RTVSPropertyOp51
 70
     0
102
RTVSPropertyOp52
 70
     0
102
RTVSPropertyOp53
 70
     0
102
RTVSPropertyOp54
 70
     0
102
RTVSPropertyOp55
 70
     0
102
RTVSPropertyOp56
 70
     0
102
RTVSPropertyOp57
 70
     0
102
RTVSPost2010Prop28
280
     0
102
RTVSPost2010PropOp28
 70
     0
102
RTVSPost2010Prop29
280
     1
102
RTVSPost2010PropOp29
 70
     0
102
RTVSPost2010Prop30
280
     1
102
RTVSPost2010PropOp30
 70
     0
102
RTVSPost2010Prop31
280
     0
102
RTVSPost2010PropOp31
 70
     0
102
RTVSPost2010Prop32
280
     0
102
RTVSPost2010PropOp32
 70
     0
102
RTVSPost2010Prop33
280
     0
102
RTVSPost2010PropOp33
 70
     0
102
RTVSPost2010Prop34
280
     0
102
RTVSPost2010PropOp34
 70
     0
102
RTVSPost2010Prop35
280
     0
102
RTVSPost2010PropOp35
 70
     0
102
RTVSPost2010Prop36
280
     0
102
RTVSPost2010PropOp36
 70
     0
102
RTVSPost2010Prop37
 90
       50
102
RTVSPost2010PropOp37
 70
     0
102
RTVSPost2010Prop38
140
0.0
102
RTVSPost2010PropOp38
 70
     0
102
RTVSPost2010Prop39
140
1.0
102
RTVSPost2010PropOp39
 70
     0
102
RTVSPost2010Prop40
 90
        0
102
RTVSPost2010PropOp40
 70
     0
102
RTVSPost2010Prop41ColorIndex
 90
       18
102
RTVSPost2010Prop41ColorRGB
 90
        0
102
RTVSPost2010PropOp41
 70
     0
102
RTVSPost2010Prop42
 90
       50
102
RTVSPost2010PropOp42
 70
     0
102
RTVSPost2010Prop43
 90
        3
102
RTVSPost2010PropOp43
 70
     0
102
RTVSPost2010Prop44ColorIndex
 90
        5
102
RTVSPost2010Prop44ColorRGB
 90
      255
102
RTVSPost2010PropOp44
 70
     0
102
RTVSPost2010Prop45
280
     0
102
RTVSPost2010PropOp45
 70
     0
102
RTVSPost2010Prop46
 90
       50
102
RTVSPost2010PropOp46
 70
     0
102
RTVSPost2010Prop47
 90
       50
102
RTVSPost2010PropOp47
 70
     0
102
RTVSPost2010Prop48
 90
       50
102
RTVSPost2010PropOp48
 70
     0
102
RTVSPost2010Prop49
280
     0
102
RTVSPost2010PropOp49
 70
     0
102
RTVSPost2010Prop50
 90
       50
102
RTVSPost2010PropOp50
 70
     0
102
RTVSPost2010Prop51ColorIndex
 90
      256
102
RTVSPost2010Prop51ColorRGB
 90
-16777216
102
RTVSPost2010PropOp51
 70
     0
102
RTVSPost2010Prop52
140
1.0
102
RTVSPost2010PropOp52
 70
     0
102
RTVSPost2010Prop53
 90
        2
102
RTVSPost2010PropOp53
 70
     0
102
RTVSPost2010Prop54
  1
strokes_ogs.tif
102
RTVSPost2010PropOp54
 70
     0
102
RTVSPost2010Prop55
280
     0
102
RTVSPost2010PropOp55
 70
     0
102
RTVSPost2010Prop56
140
1.0
102
RTVSPost2010PropOp56
 70
     0
102
RTVSPost2010Prop57
140
1.0
102
RTVSPost2010PropOp57
 70
     0
  0
XRECORD
  5
411
102
{ACAD_REACTORS
330
410
102
}
330
410
100
AcDbXrecord
280
     1
102
RTVSPropertyOp0
 70
     1
102
RTVSPropertyOp1
 70
     1
102
RTVSPropertyOp2
 70
     1
102
RTVSPropertyOp3
 70
     1
102
RTVSPropertyOp4
 70
     1
102
RTVSPropertyOp5
 70
     1
102
RTVSPropertyOp6
 70
     1
102
RTVSPropertyOp7
 70
     1
102
RTVSPropertyOp8
 70
     1
102
RTVSPropertyOp9
 70
     1
102
RTVSPropertyOp10
 70
     1
102
RTVSPropertyOp11
 70
     1
102
RTVSPropertyOp12
 70
     1
102
RTVSPropertyOp13
 70
     1
102
RTVSPropertyOp14
 70
     1
102
RTVSPropertyOp15
 70
     1
102
RTVSPropertyOp16
 70
     1
102
RTVSPropertyOp17
 70
     1
102
RTVSPropertyOp18
 70
     1
102
RTVSPropertyOp19
 70
     1
102
RTVSPropertyOp20
 70
     1
102
RTVSPropertyOp21
 70
     1
102
RTVSPropertyOp22
 70
     1
102
RTVSPropertyOp23
 70
     1
102
RTVSPropertyOp24
 70
     1
102
RTVSPropertyOp25
 70
     1
102
RTVSPropertyOp26
 70
     1
102
RTVSPropertyOp27
 70
     1
102
RTVSPropertyOp28
 70
     1
102
RTVSPropertyOp29
 70
     1
102
RTVSPropertyOp30
 70
     1
102
RTVSPropertyOp31
 70
     1
102
RTVSPropertyOp32
 70
     1
102
RTVSPropertyOp33
 70
     1
102
RTVSPropertyOp34
 70
     1
102
RTVSPropertyOp35
 70
     1
102
RTVSPropertyOp36
 70
     1
102
RTVSPropertyOp37
 70
     1
102
RTVSPropertyOp38
 70
     1
102
RTVSPropertyOp39
 70
     1
102
RTVSPropertyOp40
 70
     1
102
RTVSPropertyOp41
 70
     1
102
RTVSPropertyOp42
 70
     1
102
RTVSPropertyOp43
 70
     1
102
RTVSPropertyOp44
 70
     1
102
RTVSPropertyOp45
 70
     1
102
RTVSPropertyOp46
 70
     1
102
RTVSPropertyOp47
 70
     1
102
RTVSPropertyOp48
 70
     1
102
RTVSPropertyOp49
 70
     1
102
RTVSPropertyOp50
 70
     1
102
RTVSPropertyOp51
 70
     0
102
RTVSPropertyOp52
 70
     0
102
RTVSPropertyOp53
 70
     1
102
RTVSPropertyOp54
 70
     1
102
RTVSPropertyOp55
 70
     1
102
RTVSPropertyOp56
 70
     1
102
RTVSPropertyOp57
 70
     1
102
RTVSPost2010Prop28
280
     0
102
RTVSPost2010PropOp28
 70
     1
102
RTVSPost2010Prop29
280
     1
102
RTVSPost2010PropOp29
 70
     1
102
RTVSPost2010Prop30
280
     1
102
RTVSPost2010PropOp30
 70
     1
102
RTVSPost2010Prop31
280
     0
102
RTVSPost2010PropOp31
 70
     1
102
RTVSPost2010Prop32
280
     0
102
RTVSPost2010PropOp32
 70
     1
102
RTVSPost2010Prop33
280
     0
102
RTVSPost2010PropOp33
 70
     1
102
RTVSPost2010Prop34
280
     0
102
RTVSPost2010PropOp34
 70
     1
102
RTVSPost2010Prop35
280
     0
102
RTVSPost2010PropOp35
 70
     1
102
RTVSPost2010Prop36
280
     0
102
RTVSPost2010PropOp36
 70
     1
102
RTVSPost2010Prop37
 90
       50
102
RTVSPost2010PropOp37
 70
     1
102
RTVSPost2010Prop38
140
0.0
102
RTVSPost2010PropOp38
 70
     1
102
RTVSPost2010Prop39
140
1.0
102
RTVSPost2010PropOp39
 70
     1
102
RTVSPost2010Prop40
 90
        0
102
RTVSPost2010PropOp40
 70
     1
102
RTVSPost2010Prop41ColorIndex
 90
       18
102
RTVSPost2010Prop41ColorRGB
 90
        0
102
RTVSPost2010PropOp41
 70
     1
102
RTVSPost2010Prop42
 90
       50
102
RTVSPost2010PropOp42
 70
     1
102
RTVSPost2010Prop43
 90
        3
102
RTVSPost2010PropOp43
 70
     1
102
RTVSPost2010Prop44ColorIndex
 90
        5
102
RTVSPost2010Prop44ColorRGB
 90
      255
102
RTVSPost2010PropOp44
 70
     1
102
RTVSPost2010Prop45
280
     0
102
RTVSPost2010PropOp45
 70
     1
102
RTVSPost2010Prop46
 90
       50
102
RTVSPost2010PropOp46
 70
     1
102
RTVSPost2010Prop47
 90
       50
102
RTVSPost2010PropOp47
 70
     1
102
RTVSPost2010Prop48
 90
       50
102
RTVSPost2010PropOp48
 70
     1
102
RTVSPost2010Prop49
280
     0
102
RTVSPost2010PropOp49
 70
     1
102
RTVSPost2010Prop50
 90
       50
102
RTVSPost2010PropOp50
 70
     1
102
RTVSPost2010Prop51ColorIndex
 90
      256
102
RTVSPost2010Prop51ColorRGB
 90
-16777216
102
RTVSPost2010PropOp51
 70
     0
102
RTVSPost2010Prop52
140
1.0
102
RTVSPost2010PropOp52
 70
     0
102
RTVSPost2010Prop53
 90
        2
102
RTVSPost2010PropOp53
 70
     1
102
RTVSPost2010Prop54
  1
strokes_ogs.tif
102
RTVSPost2010PropOp54
 70
     1
102
RTVSPost2010Prop55
280
     0
102
RTVSPost2010PropOp55
 70
     1
102
RTVSPost2010Prop56
140
1.0
102
RTVSPost2010PropOp56
 70
     1
102
RTVSPost2010Prop57
140
1.0
102
RTVSPost2010PropOp57
 70
     1
  0
XRECORD
  5
42F
102
{ACAD_REACTORS
330
42E
102
}
330
42E
100
AcDbXrecord
280
     1
102
RTVSPropertyOp0
 70
     1
102
RTVSPropertyOp1
 70
     1
102
RTVSPropertyOp2
 70
     1
102
RTVSPropertyOp3
 70
     1
102
RTVSPropertyOp4
 70
     1
102
RTVSPropertyOp5
 70
     1
102
RTVSPropertyOp6
 70
     1
102
RTVSPropertyOp7
 70
     1
102
RTVSPropertyOp8
 70
     1
102
RTVSPropertyOp9
 70
     1
102
RTVSPropertyOp10
 70
     1
102
RTVSPropertyOp11
 70
     1
102
RTVSPropertyOp12
 70
     1
102
RTVSPropertyOp13
 70
     1
102
RTVSPropertyOp14
 70
     1
102
RTVSPropertyOp15
 70
     1
102
RTVSPropertyOp16
 70
     1
102
RTVSPropertyOp17
 70
     1
102
RTVSPropertyOp18
 70
     1
102
RTVSPropertyOp19
 70
     1
102
RTVSPropertyOp20
 70
     1
102
RTVSPropertyOp21
 70
     1
102
RTVSPropertyOp22
 70
     1
102
RTVSPropertyOp23
 70
     1
102
RTVSPropertyOp24
 70
     1
102
RTVSPropertyOp25
 70
     1
102
RTVSPropertyOp26
 70
     1
102
RTVSPropertyOp27
 70
     1
102
RTVSPropertyOp28
 70
     1
102
RTVSPropertyOp29
 70
     1
102
RTVSPropertyOp30
 70
     1
102
RTVSPropertyOp31
 70
     1
102
RTVSPropertyOp32
 70
     1
102
RTVSPropertyOp33
 70
     1
102
RTVSPropertyOp34
 70
     1
102
RTVSPropertyOp35
 70
     1
102
RTVSPropertyOp36
 70
     1
102
RTVSPropertyOp37
 70
     1
102
RTVSPropertyOp38
 70
     1
102
RTVSPropertyOp39
 70
     1
102
RTVSPropertyOp40
 70
     1
102
RTVSPropertyOp41
 70
     1
102
RTVSPropertyOp42
 70
     1
102
RTVSPropertyOp43
 70
     1
102
RTVSPropertyOp44
 70
     1
102
RTVSPropertyOp45
 70
     1
102
RTVSPropertyOp46
 70
     1
102
RTVSPropertyOp47
 70
     1
102
RTVSPropertyOp48
 70
     1
102
RTVSPropertyOp49
 70
     1
102
RTVSPropertyOp50
 70
     1
102
RTVSPropertyOp51
 70
     0
102
RTVSPropertyOp52
 70
     0
102
RTVSPropertyOp53
 70
     1
102
RTVSPropertyOp54
 70
     1
102
RTVSPropertyOp55
 70
     1
102
RTVSPropertyOp56
 70
     1
102
RTVSPropertyOp57
 70
     1
102
RTVSPost2010Prop28
280
     0
102
RTVSPost2010PropOp28
 70
     1
102
RTVSPost2010Prop29
280
     1
102
RTVSPost2010PropOp29
 70
     1
102
RTVSPost2010Prop30
280
     1
102
RTVSPost2010PropOp30
 70
     1
102
RTVSPost2010Prop31
280
     0
102
RTVSPost2010PropOp31
 70
     1
102
RTVSPost2010Prop32
280
     0
102
RTVSPost2010PropOp32
 70
     1
102
RTVSPost2010Prop33
280
     0
102
RTVSPost2010PropOp33
 70
     1
102
RTVSPost2010Prop34
280
     0
102
RTVSPost2010PropOp34
 70
     1
102
RTVSPost2010Prop35
280
     0
102
RTVSPost2010PropOp35
 70
     1
102
RTVSPost2010Prop36
280
     0
102
RTVSPost2010PropOp36
 70
     1
102
RTVSPost2010Prop37
 90
       50
102
RTVSPost2010PropOp37
 70
     1
102
RTVSPost2010Prop38
140
0.0
102
RTVSPost2010PropOp38
 70
     1
102
RTVSPost2010Prop39
140
1.0
102
RTVSPost2010PropOp39
 70
     1
102
RTVSPost2010Prop40
 90
        0
102
RTVSPost2010PropOp40
 70
     1
102
RTVSPost2010Prop41ColorIndex
 90
       18
102
RTVSPost2010Prop41ColorRGB
 90
        0
102
RTVSPost2010PropOp41
 70
     1
102
RTVSPost2010Prop42
 90
       50
102
RTVSPost2010PropOp42
 70
     1
102
RTVSPost2010Prop43
 90
        3
102
RTVSPost2010PropOp43
 70
     1
102
RTVSPost2010Prop44ColorIndex
 90
        5
102
RTVSPost2010Prop44ColorRGB
 90
      255
102
RTVSPost2010PropOp44
 70
     1
102
RTVSPost2010Prop45
280
     0
102
RTVSPost2010PropOp45
 70
     1
102
RTVSPost2010Prop46
 90
       50
102
RTVSPost2010PropOp46
 70
     1
102
RTVSPost2010Prop47
 90
       50
102
RTVSPost2010PropOp47
 70
     1
102
RTVSPost2010Prop48
 90
       50
102
RTVSPost2010PropOp48
 70
     1
102
RTVSPost2010Prop49
280
     0
102
RTVSPost2010PropOp49
 70
     1
102
RTVSPost2010Prop50
 90
       50
102
RTVSPost2010PropOp50
 70
     1
102
RTVSPost2010Prop51ColorIndex
 90
      256
102
RTVSPost2010Prop51ColorRGB
 90
-16777216
102
RTVSPost2010PropOp51
 70
     0
102
RTVSPost2010Prop52
140
1.0
102
RTVSPost2010PropOp52
 70
     0
102
RTVSPost2010Prop53
 90
        2
102
RTVSPost2010PropOp53
 70
     1
102
RTVSPost2010Prop54
  1
strokes_ogs.tif
102
RTVSPost2010PropOp54
 70
     1
102
RTVSPost2010Prop55
280
     0
102
RTVSPost2010PropOp55
 70
     1
102
RTVSPost2010Prop56
140
1.0
102
RTVSPost2010PropOp56
 70
     1
102
RTVSPost2010Prop57
140
1.0
102
RTVSPost2010PropOp57
 70
     1
  0
XRECORD
  5
42D
102
{ACAD_REACTORS
330
42C
102
}
330
42C
100
AcDbXrecord
280
     1
102
RTVSPropertyOp0
 70
     1
102
RTVSPropertyOp1
 70
     1
102
RTVSPropertyOp2
 70
     1
102
RTVSPropertyOp3
 70
     1
102
RTVSPropertyOp4
 70
     1
102
RTVSPropertyOp5
 70
     1
102
RTVSPropertyOp6
 70
     1
102
RTVSPropertyOp7
 70
     1
102
RTVSPropertyOp8
 70
     1
102
RTVSPropertyOp9
 70
     1
102
RTVSPropertyOp10
 70
     1
102
RTVSPropertyOp11
 70
     1
102
RTVSPropertyOp12
 70
     1
102
RTVSPropertyOp13
 70
     1
102
RTVSPropertyOp14
 70
     1
102
RTVSPropertyOp15
 70
     1
102
RTVSPropertyOp16
 70
     1
102
RTVSPropertyOp17
 70
     1
102
RTVSPropertyOp18
 70
     1
102
RTVSPropertyOp19
 70
     1
102
RTVSPropertyOp20
 70
     1
102
RTVSPropertyOp21
 70
     1
102
RTVSPropertyOp22
 70
     1
102
RTVSPropertyOp23
 70
     1
102
RTVSPropertyOp24
 70
     1
102
RTVSPropertyOp25
 70
     1
102
RTVSPropertyOp26
 70
     1
102
RTVSPropertyOp27
 70
     1
102
RTVSPropertyOp28
 70
     1
102
RTVSPropertyOp29
 70
     1
102
RTVSPropertyOp30
 70
     1
102
RTVSPropertyOp31
 70
     1
102
RTVSPropertyOp32
 70
     1
102
RTVSPropertyOp33
 70
     1
102
RTVSPropertyOp34
 70
     1
102
RTVSPropertyOp35
 70
     1
102
RTVSPropertyOp36
 70
     1
102
RTVSPropertyOp37
 70
     1
102
RTVSPropertyOp38
 70
     1
102
RTVSPropertyOp39
 70
     1
102
RTVSPropertyOp40
 70
     1
102
RTVSPropertyOp41
 70
     1
102
RTVSPropertyOp42
 70
     1
102
RTVSPropertyOp43
 70
     1
102
RTVSPropertyOp44
 70
     1
102
RTVSPropertyOp45
 70
     1
102
RTVSPropertyOp46
 70
     1
102
RTVSPropertyOp47
 70
     1
102
RTVSPropertyOp48
 70
     1
102
RTVSPropertyOp49
 70
     1
102
RTVSPropertyOp50
 70
     1
102
RTVSPropertyOp51
 70
     0
102
RTVSPropertyOp52
 70
     0
102
RTVSPropertyOp53
 70
     1
102
RTVSPropertyOp54
 70
     1
102
RTVSPropertyOp55
 70
     1
102
RTVSPropertyOp56
 70
     1
102
RTVSPropertyOp57
 70
     1
102
RTVSPost2010Prop28
280
     0
102
RTVSPost2010PropOp28
 70
     1
102
RTVSPost2010Prop29
280
     1
102
RTVSPost2010PropOp29
 70
     1
102
RTVSPost2010Prop30
280
     1
102
RTVSPost2010PropOp30
 70
     1
102
RTVSPost2010Prop31
280
     0
102
RTVSPost2010PropOp31
 70
     1
102
RTVSPost2010Prop32
280
     0
102
RTVSPost2010PropOp32
 70
     1
102
RTVSPost2010Prop33
280
     0
102
RTVSPost2010PropOp33
 70
     1
102
RTVSPost2010Prop34
280
     0
102
RTVSPost2010PropOp34
 70
     1
102
RTVSPost2010Prop35
280
     0
102
RTVSPost2010PropOp35
 70
     1
102
RTVSPost2010Prop36
280
     0
102
RTVSPost2010PropOp36
 70
     1
102
RTVSPost2010Prop37
 90
       50
102
RTVSPost2010PropOp37
 70
     1
102
RTVSPost2010Prop38
140
0.0
102
RTVSPost2010PropOp38
 70
     1
102
RTVSPost2010Prop39
140
1.0
102
RTVSPost2010PropOp39
 70
     1
102
RTVSPost2010Prop40
 90
        0
102
RTVSPost2010PropOp40
 70
     1
102
RTVSPost2010Prop41ColorIndex
 90
       18
102
RTVSPost2010Prop41ColorRGB
 90
        0
102
RTVSPost2010PropOp41
 70
     1
102
RTVSPost2010Prop42
 90
       50
102
RTVSPost2010PropOp42
 70
     1
102
RTVSPost2010Prop43
 90
        3
102
RTVSPost2010PropOp43
 70
     1
102
RTVSPost2010Prop44ColorIndex
 90
        5
102
RTVSPost2010Prop44ColorRGB
 90
      255
102
RTVSPost2010PropOp44
 70
     1
102
RTVSPost2010Prop45
280
     0
102
RTVSPost2010PropOp45
 70
     1
102
RTVSPost2010Prop46
 90
       50
102
RTVSPost2010PropOp46
 70
     1
102
RTVSPost2010Prop47
 90
       50
102
RTVSPost2010PropOp47
 70
     1
102
RTVSPost2010Prop48
 90
       50
102
RTVSPost2010PropOp48
 70
     1
102
RTVSPost2010Prop49
280
     0
102
RTVSPost2010PropOp49
 70
     1
102
RTVSPost2010Prop50
 90
       50
102
RTVSPost2010PropOp50
 70
     1
102
RTVSPost2010Prop51ColorIndex
 90
      256
102
RTVSPost2010Prop51ColorRGB
 90
-16777216
102
RTVSPost2010PropOp51
 70
     0
102
RTVSPost2010Prop52
140
1.0
102
RTVSPost2010PropOp52
 70
     0
102
RTVSPost2010Prop53
 90
        2
102
RTVSPost2010PropOp53
 70
     1
102
RTVSPost2010Prop54
  1
strokes_ogs.tif
102
RTVSPost2010PropOp54
 70
     1
102
RTVSPost2010Prop55
280
     0
102
RTVSPost2010PropOp55
 70
     1
102
RTVSPost2010Prop56
140
1.0
102
RTVSPost2010PropOp56
 70
     1
102
RTVSPost2010Prop57
140
1.0
102
RTVSPost2010PropOp57
 70
     1
  0
XRECORD
  5
427
102
{ACAD_REACTORS
330
426
102
}
330
426
100
AcDbXrecord
280
     1
102
RTVSPropertyOp0
 70
     1
102
RTVSPropertyOp1
 70
     1
102
RTVSPropertyOp2
 70
     1
102
RTVSPropertyOp3
 70
     1
102
RTVSPropertyOp4
 70
     1
102
RTVSPropertyOp5
 70
     1
102
RTVSPropertyOp6
 70
     1
102
RTVSPropertyOp7
 70
     1
102
RTVSPropertyOp8
 70
     1
102
RTVSPropertyOp9
 70
     1
102
RTVSPropertyOp10
 70
     1
102
RTVSPropertyOp11
 70
     1
102
RTVSPropertyOp12
 70
     1
102
RTVSPropertyOp13
 70
     1
102
RTVSPropertyOp14
 70
     1
102
RTVSPropertyOp15
 70
     1
102
RTVSPropertyOp16
 70
     1
102
RTVSPropertyOp17
 70
     1
102
RTVSPropertyOp18
 70
     1
102
RTVSPropertyOp19
 70
     1
102
RTVSPropertyOp20
 70
     1
102
RTVSPropertyOp21
 70
     1
102
RTVSPropertyOp22
 70
     1
102
RTVSPropertyOp23
 70
     1
102
RTVSPropertyOp24
 70
     1
102
RTVSPropertyOp25
 70
     1
102
RTVSPropertyOp26
 70
     1
102
RTVSPropertyOp27
 70
     1
102
RTVSPropertyOp28
 70
     1
102
RTVSPropertyOp29
 70
     1
102
RTVSPropertyOp30
 70
     1
102
RTVSPropertyOp31
 70
     1
102
RTVSPropertyOp32
 70
     1
102
RTVSPropertyOp33
 70
     1
102
RTVSPropertyOp34
 70
     1
102
RTVSPropertyOp35
 70
     1
102
RTVSPropertyOp36
 70
     1
102
RTVSPropertyOp37
 70
     1
102
RTVSPropertyOp38
 70
     1
102
RTVSPropertyOp39
 70
     1
102
RTVSPropertyOp40
 70
     1
102
RTVSPropertyOp41
 70
     1
102
RTVSPropertyOp42
 70
     1
102
RTVSPropertyOp43
 70
     1
102
RTVSPropertyOp44
 70
     1
102
RTVSPropertyOp45
 70
     1
102
RTVSPropertyOp46
 70
     1
102
RTVSPropertyOp47
 70
     1
102
RTVSPropertyOp48
 70
     1
102
RTVSPropertyOp49
 70
     1
102
RTVSPropertyOp50
 70
     1
102
RTVSPropertyOp51
 70
     0
102
RTVSPropertyOp52
 70
     0
102
RTVSPropertyOp53
 70
     1
102
RTVSPropertyOp54
 70
     1
102
RTVSPropertyOp55
 70
     1
102
RTVSPropertyOp56
 70
     1
102
RTVSPropertyOp57
 70
     1
102
RTVSPost2010Prop28
280
     0
102
RTVSPost2010PropOp28
 70
     1
102
RTVSPost2010Prop29
280
     1
102
RTVSPost2010PropOp29
 70
     1
102
RTVSPost2010Prop30
280
     1
102
RTVSPost2010PropOp30
 70
     1
102
RTVSPost2010Prop31
280
     0
102
RTVSPost2010PropOp31
 70
     1
102
RTVSPost2010Prop32
280
     0
102
RTVSPost2010PropOp32
 70
     1
102
RTVSPost2010Prop33
280
     0
102
RTVSPost2010PropOp33
 70
     1
102
RTVSPost2010Prop34
280
     0
102
RTVSPost2010PropOp34
 70
     1
102
RTVSPost2010Prop35
280
     0
102
RTVSPost2010PropOp35
 70
     1
102
RTVSPost2010Prop36
280
     0
102
RTVSPost2010PropOp36
 70
     1
102
RTVSPost2010Prop37
 90
       50
102
RTVSPost2010PropOp37
 70
     1
102
RTVSPost2010Prop38
140
0.0
102
RTVSPost2010PropOp38
 70
     1
102
RTVSPost2010Prop39
140
1.0
102
RTVSPost2010PropOp39
 70
     1
102
RTVSPost2010Prop40
 90
        0
102
RTVSPost2010PropOp40
 70
     1
102
RTVSPost2010Prop41ColorIndex
 90
       18
102
RTVSPost2010Prop41ColorRGB
 90
        0
102
RTVSPost2010PropOp41
 70
     1
102
RTVSPost2010Prop42
 90
       50
102
RTVSPost2010PropOp42
 70
     1
102
RTVSPost2010Prop43
 90
        3
102
RTVSPost2010PropOp43
 70
     1
102
RTVSPost2010Prop44ColorIndex
 90
        5
102
RTVSPost2010Prop44ColorRGB
 90
      255
102
RTVSPost2010PropOp44
 70
     1
102
RTVSPost2010Prop45
280
     0
102
RTVSPost2010PropOp45
 70
     1
102
RTVSPost2010Prop46
 90
       50
102
RTVSPost2010PropOp46
 70
     1
102
RTVSPost2010Prop47
 90
       50
102
RTVSPost2010PropOp47
 70
     1
102
RTVSPost2010Prop48
 90
       50
102
RTVSPost2010PropOp48
 70
     1
102
RTVSPost2010Prop49
280
     0
102
RTVSPost2010PropOp49
 70
     1
102
RTVSPost2010Prop50
 90
       50
102
RTVSPost2010PropOp50
 70
     1
102
RTVSPost2010Prop51ColorIndex
 90
      256
102
RTVSPost2010Prop51ColorRGB
 90
-16777216
102
RTVSPost2010PropOp51
 70
     0
102
RTVSPost2010Prop52
140
1.0
102
RTVSPost2010PropOp52
 70
     0
102
RTVSPost2010Prop53
 90
        2
102
RTVSPost2010PropOp53
 70
     1
102
RTVSPost2010Prop54
  1
strokes_ogs.tif
102
RTVSPost2010PropOp54
 70
     1
102
RTVSPost2010Prop55
280
     0
102
RTVSPost2010PropOp55
 70
     1
102
RTVSPost2010Prop56
140
1.0
102
RTVSPost2010PropOp56
 70
     1
102
RTVSPost2010Prop57
140
1.0
102
RTVSPost2010PropOp57
 70
     1
  0
XRECORD
  5
429
102
{ACAD_REACTORS
330
428
102
}
330
428
100
AcDbXrecord
280
     1
102
RTVSPropertyOp0
 70
     1
102
RTVSPropertyOp1
 70
     1
102
RTVSPropertyOp2
 70
     1
102
RTVSPropertyOp3
 70
     1
102
RTVSPropertyOp4
 70
     1
102
RTVSPropertyOp5
 70
     1
102
RTVSPropertyOp6
 70
     1
102
RTVSPropertyOp7
 70
     1
102
RTVSPropertyOp8
 70
     1
102
RTVSPropertyOp9
 70
     1
102
RTVSPropertyOp10
 70
     1
102
RTVSPropertyOp11
 70
     1
102
RTVSPropertyOp12
 70
     1
102
RTVSPropertyOp13
 70
     1
102
RTVSPropertyOp14
 70
     1
102
RTVSPropertyOp15
 70
     1
102
RTVSPropertyOp16
 70
     1
102
RTVSPropertyOp17
 70
     1
102
RTVSPropertyOp18
 70
     1
102
RTVSPropertyOp19
 70
     1
102
RTVSPropertyOp20
 70
     1
102
RTVSPropertyOp21
 70
     1
102
RTVSPropertyOp22
 70
     1
102
RTVSPropertyOp23
 70
     1
102
RTVSPropertyOp24
 70
     1
102
RTVSPropertyOp25
 70
     1
102
RTVSPropertyOp26
 70
     1
102
RTVSPropertyOp27
 70
     1
102
RTVSPropertyOp28
 70
     1
102
RTVSPropertyOp29
 70
     1
102
RTVSPropertyOp30
 70
     1
102
RTVSPropertyOp31
 70
     1
102
RTVSPropertyOp32
 70
     1
102
RTVSPropertyOp33
 70
     1
102
RTVSPropertyOp34
 70
     1
102
RTVSPropertyOp35
 70
     1
102
RTVSPropertyOp36
 70
     1
102
RTVSPropertyOp37
 70
     1
102
RTVSPropertyOp38
 70
     1
102
RTVSPropertyOp39
 70
     1
102
RTVSPropertyOp40
 70
     1
102
RTVSPropertyOp41
 70
     1
102
RTVSPropertyOp42
 70
     1
102
RTVSPropertyOp43
 70
     1
102
RTVSPropertyOp44
 70
     1
102
RTVSPropertyOp45
 70
     1
102
RTVSPropertyOp46
 70
     1
102
RTVSPropertyOp47
 70
     1
102
RTVSPropertyOp48
 70
     1
102
RTVSPropertyOp49
 70
     1
102
RTVSPropertyOp50
 70
     1
102
RTVSPropertyOp51
 70
     0
102
RTVSPropertyOp52
 70
     0
102
RTVSPropertyOp53
 70
     1
102
RTVSPropertyOp54
 70
     1
102
RTVSPropertyOp55
 70
     1
102
RTVSPropertyOp56
 70
     1
102
RTVSPropertyOp57
 70
     1
102
RTVSPost2010Prop28
280
     0
102
RTVSPost2010PropOp28
 70
     1
102
RTVSPost2010Prop29
280
     1
102
RTVSPost2010PropOp29
 70
     1
102
RTVSPost2010Prop30
280
     1
102
RTVSPost2010PropOp30
 70
     1
102
RTVSPost2010Prop31
280
     0
102
RTVSPost2010PropOp31
 70
     1
102
RTVSPost2010Prop32
280
     0
102
RTVSPost2010PropOp32
 70
     1
102
RTVSPost2010Prop33
280
     0
102
RTVSPost2010PropOp33
 70
     1
102
RTVSPost2010Prop34
280
     0
102
RTVSPost2010PropOp34
 70
     1
102
RTVSPost2010Prop35
280
     0
102
RTVSPost2010PropOp35
 70
     1
102
RTVSPost2010Prop36
280
     0
102
RTVSPost2010PropOp36
 70
     1
102
RTVSPost2010Prop37
 90
       50
102
RTVSPost2010PropOp37
 70
     1
102
RTVSPost2010Prop38
140
0.0
102
RTVSPost2010PropOp38
 70
     1
102
RTVSPost2010Prop39
140
1.0
102
RTVSPost2010PropOp39
 70
     1
102
RTVSPost2010Prop40
 90
        0
102
RTVSPost2010PropOp40
 70
     1
102
RTVSPost2010Prop41ColorIndex
 90
       18
102
RTVSPost2010Prop41ColorRGB
 90
        0
102
RTVSPost2010PropOp41
 70
     1
102
RTVSPost2010Prop42
 90
       50
102
RTVSPost2010PropOp42
 70
     1
102
RTVSPost2010Prop43
 90
        3
102
RTVSPost2010PropOp43
 70
     1
102
RTVSPost2010Prop44ColorIndex
 90
        5
102
RTVSPost2010Prop44ColorRGB
 90
      255
102
RTVSPost2010PropOp44
 70
     1
102
RTVSPost2010Prop45
280
     0
102
RTVSPost2010PropOp45
 70
     1
102
RTVSPost2010Prop46
 90
       50
102
RTVSPost2010PropOp46
 70
     1
102
RTVSPost2010Prop47
 90
       50
102
RTVSPost2010PropOp47
 70
     1
102
RTVSPost2010Prop48
 90
       50
102
RTVSPost2010PropOp48
 70
     1
102
RTVSPost2010Prop49
280
     0
102
RTVSPost2010PropOp49
 70
     1
102
RTVSPost2010Prop50
 90
       50
102
RTVSPost2010PropOp50
 70
     1
102
RTVSPost2010Prop51ColorIndex
 90
      256
102
RTVSPost2010Prop51ColorRGB
 90
-16777216
102
RTVSPost2010PropOp51
 70
     0
102
RTVSPost2010Prop52
140
1.0
102
RTVSPost2010PropOp52
 70
     0
102
RTVSPost2010Prop53
 90
        2
102
RTVSPost2010PropOp53
 70
     1
102
RTVSPost2010Prop54
  1
strokes_ogs.tif
102
RTVSPost2010PropOp54
 70
     1
102
RTVSPost2010Prop55
280
     0
102
RTVSPost2010PropOp55
 70
     1
102
RTVSPost2010Prop56
140
1.0
102
RTVSPost2010PropOp56
 70
     1
102
RTVSPost2010Prop57
140
1.0
102
RTVSPost2010PropOp57
 70
     1
  0
XRECORD
  5
419
102
{ACAD_REACTORS
330
418
102
}
330
418
100
AcDbXrecord
280
     1
102
RTVSPropertyOp0
 70
     1
102
RTVSPropertyOp1
 70
     1
102
RTVSPropertyOp2
 70
     1
102
RTVSPropertyOp3
 70
     1
102
RTVSPropertyOp4
 70
     1
102
RTVSPropertyOp5
 70
     1
102
RTVSPropertyOp6
 70
     1
102
RTVSPropertyOp7
 70
     1
102
RTVSPropertyOp8
 70
     1
102
RTVSPropertyOp9
 70
     1
102
RTVSPropertyOp10
 70
     1
102
RTVSPropertyOp11
 70
     1
102
RTVSPropertyOp12
 70
     1
102
RTVSPropertyOp13
 70
     1
102
RTVSPropertyOp14
 70
     1
102
RTVSPropertyOp15
 70
     1
102
RTVSPropertyOp16
 70
     1
102
RTVSPropertyOp17
 70
     1
102
RTVSPropertyOp18
 70
     1
102
RTVSPropertyOp19
 70
     1
102
RTVSPropertyOp20
 70
     1
102
RTVSPropertyOp21
 70
     1
102
RTVSPropertyOp22
 70
     1
102
RTVSPropertyOp23
 70
     1
102
RTVSPropertyOp24
 70
     1
102
RTVSPropertyOp25
 70
     1
102
RTVSPropertyOp26
 70
     1
102
RTVSPropertyOp27
 70
     1
102
RTVSPropertyOp28
 70
     1
102
RTVSPropertyOp29
 70
     1
102
RTVSPropertyOp30
 70
     1
102
RTVSPropertyOp31
 70
     1
102
RTVSPropertyOp32
 70
     1
102
RTVSPropertyOp33
 70
     1
102
RTVSPropertyOp34
 70
     1
102
RTVSPropertyOp35
 70
     1
102
RTVSPropertyOp36
 70
     1
102
RTVSPropertyOp37
 70
     1
102
RTVSPropertyOp38
 70
     1
102
RTVSPropertyOp39
 70
     1
102
RTVSPropertyOp40
 70
     1
102
RTVSPropertyOp41
 70
     1
102
RTVSPropertyOp42
 70
     1
102
RTVSPropertyOp43
 70
     1
102
RTVSPropertyOp44
 70
     1
102
RTVSPropertyOp45
 70
     1
102
RTVSPropertyOp46
 70
     1
102
RTVSPropertyOp47
 70
     1
102
RTVSPropertyOp48
 70
     1
102
RTVSPropertyOp49
 70
     1
102
RTVSPropertyOp50
 70
     1
102
RTVSPropertyOp51
 70
     0
102
RTVSPropertyOp52
 70
     0
102
RTVSPropertyOp53
 70
     1
102
RTVSPropertyOp54
 70
     1
102
RTVSPropertyOp55
 70
     1
102
RTVSPropertyOp56
 70
     1
102
RTVSPropertyOp57
 70
     1
102
RTVSPost2010Prop28
280
     0
102
RTVSPost2010PropOp28
 70
     1
102
RTVSPost2010Prop29
280
     1
102
RTVSPost2010PropOp29
 70
     1
102
RTVSPost2010Prop30
280
     1
102
RTVSPost2010PropOp30
 70
     1
102
RTVSPost2010Prop31
280
     0
102
RTVSPost2010PropOp31
 70
     1
102
RTVSPost2010Prop32
280
     0
102
RTVSPost2010PropOp32
 70
     1
102
RTVSPost2010Prop33
280
     0
102
RTVSPost2010PropOp33
 70
     1
102
RTVSPost2010Prop34
280
     0
102
RTVSPost2010PropOp34
 70
     1
102
RTVSPost2010Prop35
280
     0
102
RTVSPost2010PropOp35
 70
     1
102
RTVSPost2010Prop36
280
     0
102
RTVSPost2010PropOp36
 70
     1
102
RTVSPost2010Prop37
 90
       50
102
RTVSPost2010PropOp37
 70
     1
102
RTVSPost2010Prop38
140
0.0
102
RTVSPost2010PropOp38
 70
     1
102
RTVSPost2010Prop39
140
1.0
102
RTVSPost2010PropOp39
 70
     1
102
RTVSPost2010Prop40
 90
        0
102
RTVSPost2010PropOp40
 70
     1
102
RTVSPost2010Prop41ColorIndex
 90
       18
102
RTVSPost2010Prop41ColorRGB
 90
        0
102
RTVSPost2010PropOp41
 70
     1
102
RTVSPost2010Prop42
 90
       50
102
RTVSPost2010PropOp42
 70
     1
102
RTVSPost2010Prop43
 90
        3
102
RTVSPost2010PropOp43
 70
     1
102
RTVSPost2010Prop44ColorIndex
 90
        5
102
RTVSPost2010Prop44ColorRGB
 90
      255
102
RTVSPost2010PropOp44
 70
     1
102
RTVSPost2010Prop45
280
     0
102
RTVSPost2010PropOp45
 70
     1
102
RTVSPost2010Prop46
 90
       50
102
RTVSPost2010PropOp46
 70
     1
102
RTVSPost2010Prop47
 90
       50
102
RTVSPost2010PropOp47
 70
     1
102
RTVSPost2010Prop48
 90
       50
102
RTVSPost2010PropOp48
 70
     1
102
RTVSPost2010Prop49
280
     0
102
RTVSPost2010PropOp49
 70
     1
102
RTVSPost2010Prop50
 90
       50
102
RTVSPost2010PropOp50
 70
     1
102
RTVSPost2010Prop51ColorIndex
 90
      256
102
RTVSPost2010Prop51ColorRGB
 90
-16777216
102
RTVSPost2010PropOp51
 70
     0
102
RTVSPost2010Prop52
140
1.0
102
RTVSPost2010PropOp52
 70
     0
102
RTVSPost2010Prop53
 90
        2
102
RTVSPost2010PropOp53
 70
     1
102
RTVSPost2010Prop54
  1
strokes_ogs.tif
102
RTVSPost2010PropOp54
 70
     1
102
RTVSPost2010Prop55
280
     0
102
RTVSPost2010PropOp55
 70
     1
102
RTVSPost2010Prop56
140
1.0
102
RTVSPost2010PropOp56
 70
     1
102
RTVSPost2010Prop57
140
1.0
102
RTVSPost2010PropOp57
 70
     1
  0
XRECORD
  5
40B
102
{ACAD_REACTORS
330
40A
102
}
330
40A
100
AcDbXrecord
280
     1
102
RTVSPropertyOp0
 70
     1
102
RTVSPropertyOp1
 70
     1
102
RTVSPropertyOp2
 70
     1
102
RTVSPropertyOp3
 70
     1
102
RTVSPropertyOp4
 70
     1
102
RTVSPropertyOp5
 70
     1
102
RTVSPropertyOp6
 70
     1
102
RTVSPropertyOp7
 70
     1
102
RTVSPropertyOp8
 70
     1
102
RTVSPropertyOp9
 70
     1
102
RTVSPropertyOp10
 70
     1
102
RTVSPropertyOp11
 70
     1
102
RTVSPropertyOp12
 70
     1
102
RTVSPropertyOp13
 70
     1
102
RTVSPropertyOp14
 70
     1
102
RTVSPropertyOp15
 70
     1
102
RTVSPropertyOp16
 70
     1
102
RTVSPropertyOp17
 70
     1
102
RTVSPropertyOp18
 70
     1
102
RTVSPropertyOp19
 70
     1
102
RTVSPropertyOp20
 70
     1
102
RTVSPropertyOp21
 70
     1
102
RTVSPropertyOp22
 70
     1
102
RTVSPropertyOp23
 70
     1
102
RTVSPropertyOp24
 70
     1
102
RTVSPropertyOp25
 70
     1
102
RTVSPropertyOp26
 70
     1
102
RTVSPropertyOp27
 70
     1
102
RTVSPropertyOp28
 70
     1
102
RTVSPropertyOp29
 70
     1
102
RTVSPropertyOp30
 70
     1
102
RTVSPropertyOp31
 70
     1
102
RTVSPropertyOp32
 70
     1
102
RTVSPropertyOp33
 70
     1
102
RTVSPropertyOp34
 70
     1
102
RTVSPropertyOp35
 70
     1
102
RTVSPropertyOp36
 70
     1
102
RTVSPropertyOp37
 70
     1
102
RTVSPropertyOp38
 70
     1
102
RTVSPropertyOp39
 70
     1
102
RTVSPropertyOp40
 70
     1
102
RTVSPropertyOp41
 70
     1
102
RTVSPropertyOp42
 70
     1
102
RTVSPropertyOp43
 70
     1
102
RTVSPropertyOp44
 70
     1
102
RTVSPropertyOp45
 70
     1
102
RTVSPropertyOp46
 70
     1
102
RTVSPropertyOp47
 70
     1
102
RTVSPropertyOp48
 70
     1
102
RTVSPropertyOp49
 70
     1
102
RTVSPropertyOp50
 70
     1
102
RTVSPropertyOp51
 70
     0
102
RTVSPropertyOp52
 70
     0
102
RTVSPropertyOp53
 70
     1
102
RTVSPropertyOp54
 70
     1
102
RTVSPropertyOp55
 70
     1
102
RTVSPropertyOp56
 70
     1
102
RTVSPropertyOp57
 70
     1
102
RTVSPost2010Prop28
280
     0
102
RTVSPost2010PropOp28
 70
     1
102
RTVSPost2010Prop29
280
     1
102
RTVSPost2010PropOp29
 70
     1
102
RTVSPost2010Prop30
280
     1
102
RTVSPost2010PropOp30
 70
     1
102
RTVSPost2010Prop31
280
     0
102
RTVSPost2010PropOp31
 70
     1
102
RTVSPost2010Prop32
280
     0
102
RTVSPost2010PropOp32
 70
     1
102
RTVSPost2010Prop33
280
     0
102
RTVSPost2010PropOp33
 70
     1
102
RTVSPost2010Prop34
280
     0
102
RTVSPost2010PropOp34
 70
     1
102
RTVSPost2010Prop35
280
     0
102
RTVSPost2010PropOp35
 70
     1
102
RTVSPost2010Prop36
280
     0
102
RTVSPost2010PropOp36
 70
     1
102
RTVSPost2010Prop37
 90
       50
102
RTVSPost2010PropOp37
 70
     1
102
RTVSPost2010Prop38
140
0.0
102
RTVSPost2010PropOp38
 70
     1
102
RTVSPost2010Prop39
140
1.0
102
RTVSPost2010PropOp39
 70
     1
102
RTVSPost2010Prop40
 90
        0
102
RTVSPost2010PropOp40
 70
     1
102
RTVSPost2010Prop41ColorIndex
 90
       18
102
RTVSPost2010Prop41ColorRGB
 90
        0
102
RTVSPost2010PropOp41
 70
     1
102
RTVSPost2010Prop42
 90
       50
102
RTVSPost2010PropOp42
 70
     1
102
RTVSPost2010Prop43
 90
        3
102
RTVSPost2010PropOp43
 70
     1
102
RTVSPost2010Prop44ColorIndex
 90
        5
102
RTVSPost2010Prop44ColorRGB
 90
      255
102
RTVSPost2010PropOp44
 70
     1
102
RTVSPost2010Prop45
280
     0
102
RTVSPost2010PropOp45
 70
     1
102
RTVSPost2010Prop46
 90
       50
102
RTVSPost2010PropOp46
 70
     1
102
RTVSPost2010Prop47
 90
       50
102
RTVSPost2010PropOp47
 70
     1
102
RTVSPost2010Prop48
 90
       50
102
RTVSPost2010PropOp48
 70
     1
102
RTVSPost2010Prop49
280
     0
102
RTVSPost2010PropOp49
 70
     1
102
RTVSPost2010Prop50
 90
       50
102
RTVSPost2010PropOp50
 70
     1
102
RTVSPost2010Prop51ColorIndex
 90
      256
102
RTVSPost2010Prop51ColorRGB
 90
-16777216
102
RTVSPost2010PropOp51
 70
     0
102
RTVSPost2010Prop52
140
1.0
102
RTVSPost2010PropOp52
 70
     0
102
RTVSPost2010Prop53
 90
        2
102
RTVSPost2010PropOp53
 70
     1
102
RTVSPost2010Prop54
  1
strokes_ogs.tif
102
RTVSPost2010PropOp54
 70
     1
102
RTVSPost2010Prop55
280
     0
102
RTVSPost2010PropOp55
 70
     1
102
RTVSPost2010Prop56
140
1.0
102
RTVSPost2010PropOp56
 70
     1
102
RTVSPost2010Prop57
140
1.0
102
RTVSPost2010PropOp57
 70
     1
  0
XRECORD
  5
42B
102
{ACAD_REACTORS
330
42A
102
}
330
42A
100
AcDbXrecord
280
     1
102
RTVSPropertyOp0
 70
     1
102
RTVSPropertyOp1
 70
     1
102
RTVSPropertyOp2
 70
     1
102
RTVSPropertyOp3
 70
     1
102
RTVSPropertyOp4
 70
     1
102
RTVSPropertyOp5
 70
     1
102
RTVSPropertyOp6
 70
     1
102
RTVSPropertyOp7
 70
     1
102
RTVSPropertyOp8
 70
     1
102
RTVSPropertyOp9
 70
     1
102
RTVSPropertyOp10
 70
     1
102
RTVSPropertyOp11
 70
     1
102
RTVSPropertyOp12
 70
     1
102
RTVSPropertyOp13
 70
     1
102
RTVSPropertyOp14
 70
     1
102
RTVSPropertyOp15
 70
     1
102
RTVSPropertyOp16
 70
     1
102
RTVSPropertyOp17
 70
     1
102
RTVSPropertyOp18
 70
     1
102
RTVSPropertyOp19
 70
     1
102
RTVSPropertyOp20
 70
     1
102
RTVSPropertyOp21
 70
     1
102
RTVSPropertyOp22
 70
     1
102
RTVSPropertyOp23
 70
     1
102
RTVSPropertyOp24
 70
     1
102
RTVSPropertyOp25
 70
     1
102
RTVSPropertyOp26
 70
     1
102
RTVSPropertyOp27
 70
     1
102
RTVSPropertyOp28
 70
     1
102
RTVSPropertyOp29
 70
     1
102
RTVSPropertyOp30
 70
     1
102
RTVSPropertyOp31
 70
     1
102
RTVSPropertyOp32
 70
     1
102
RTVSPropertyOp33
 70
     1
102
RTVSPropertyOp34
 70
     1
102
RTVSPropertyOp35
 70
     1
102
RTVSPropertyOp36
 70
     1
102
RTVSPropertyOp37
 70
     1
102
RTVSPropertyOp38
 70
     1
102
RTVSPropertyOp39
 70
     1
102
RTVSPropertyOp40
 70
     1
102
RTVSPropertyOp41
 70
     1
102
RTVSPropertyOp42
 70
     1
102
RTVSPropertyOp43
 70
     1
102
RTVSPropertyOp44
 70
     1
102
RTVSPropertyOp45
 70
     1
102
RTVSPropertyOp46
 70
     1
102
RTVSPropertyOp47
 70
     1
102
RTVSPropertyOp48
 70
     1
102
RTVSPropertyOp49
 70
     1
102
RTVSPropertyOp50
 70
     1
102
RTVSPropertyOp51
 70
     0
102
RTVSPropertyOp52
 70
     0
102
RTVSPropertyOp53
 70
     1
102
RTVSPropertyOp54
 70
     1
102
RTVSPropertyOp55
 70
     1
102
RTVSPropertyOp56
 70
     1
102
RTVSPropertyOp57
 70
     1
102
RTVSPost2010Prop28
280
     0
102
RTVSPost2010PropOp28
 70
     1
102
RTVSPost2010Prop29
280
     1
102
RTVSPost2010PropOp29
 70
     1
102
RTVSPost2010Prop30
280
     1
102
RTVSPost2010PropOp30
 70
     1
102
RTVSPost2010Prop31
280
     0
102
RTVSPost2010PropOp31
 70
     1
102
RTVSPost2010Prop32
280
     0
102
RTVSPost2010PropOp32
 70
     1
102
RTVSPost2010Prop33
280
     0
102
RTVSPost2010PropOp33
 70
     1
102
RTVSPost2010Prop34
280
     0
102
RTVSPost2010PropOp34
 70
     1
102
RTVSPost2010Prop35
280
     0
102
RTVSPost2010PropOp35
 70
     1
102
RTVSPost2010Prop36
280
     0
102
RTVSPost2010PropOp36
 70
     1
102
RTVSPost2010Prop37
 90
       50
102
RTVSPost2010PropOp37
 70
     1
102
RTVSPost2010Prop38
140
0.0
102
RTVSPost2010PropOp38
 70
     1
102
RTVSPost2010Prop39
140
1.0
102
RTVSPost2010PropOp39
 70
     1
102
RTVSPost2010Prop40
 90
        0
102
RTVSPost2010PropOp40
 70
     1
102
RTVSPost2010Prop41ColorIndex
 90
       18
102
RTVSPost2010Prop41ColorRGB
 90
        0
102
RTVSPost2010PropOp41
 70
     1
102
RTVSPost2010Prop42
 90
       50
102
RTVSPost2010PropOp42
 70
     1
102
RTVSPost2010Prop43
 90
        3
102
RTVSPost2010PropOp43
 70
     1
102
RTVSPost2010Prop44ColorIndex
 90
        5
102
RTVSPost2010Prop44ColorRGB
 90
      255
102
RTVSPost2010PropOp44
 70
     1
102
RTVSPost2010Prop45
280
     0
102
RTVSPost2010PropOp45
 70
     1
102
RTVSPost2010Prop46
 90
       50
102
RTVSPost2010PropOp46
 70
     1
102
RTVSPost2010Prop47
 90
       50
102
RTVSPost2010PropOp47
 70
     1
102
RTVSPost2010Prop48
 90
       50
102
RTVSPost2010PropOp48
 70
     1
102
RTVSPost2010Prop49
280
     0
102
RTVSPost2010PropOp49
 70
     1
102
RTVSPost2010Prop50
 90
       50
102
RTVSPost2010PropOp50
 70
     1
102
RTVSPost2010Prop51ColorIndex
 90
      256
102
RTVSPost2010Prop51ColorRGB
 90
-16777216
102
RTVSPost2010PropOp51
 70
     0
102
RTVSPost2010Prop52
140
1.0
102
RTVSPost2010PropOp52
 70
     0
102
RTVSPost2010Prop53
 90
        2
102
RTVSPost2010PropOp53
 70
     1
102
RTVSPost2010Prop54
  1
strokes_ogs.tif
102
RTVSPost2010PropOp54
 70
     1
102
RTVSPost2010Prop55
280
     0
102
RTVSPost2010PropOp55
 70
     1
102
RTVSPost2010Prop56
140
1.0
102
RTVSPost2010PropOp56
 70
     1
102
RTVSPost2010Prop57
140
1.0
102
RTVSPost2010PropOp57
 70
     1
  0
ENDSEC
  0
EOF
