  0
SECTION
  2
HEADER
  9
$ACADVER
  1
AC1015
  9
$ACADMAINTVER
 70
     6
  9
$DWGCODEPAGE
  3
ANSI_932
  9
$INSBASE
 10
0.0
 20
0.0
 30
0.0
  9
$EXTMIN
 10
-112.1834761896707
 20
-26.6712448228163
 30
0.0
  9
$EXTMAX
 10
33.26377673165564
 20
124.6788590874255
 30
0.0
  9
$LIMMIN
 10
0.0
 20
0.0
  9
$LIMMAX
 10
12.0
 20
9.0
  9
$ORTHOMODE
 70
     0
  9
$REGENMODE
 70
     1
  9
$FILLMODE
 70
     1
  9
$QTEXTMODE
 70
     0
  9
$MIRRTEXT
 70
     1
  9
$LTSCALE
 40
1.0
  9
$ATTMODE
 70
     1
  9
$TEXTSIZE
 40
0.2
  9
$TRACEWID
 40
0.05
  9
$TEXTSTYLE
  7
Standard
  9
$CLAYER
  8
0
  9
$CELTYPE
  6
ByLayer
  9
$CECOLOR
 62
   256
  9
$CELTSCALE
 40
1.0
  9
$DISPSILH
 70
     0
  9
$DIMSCALE
 40
1.0
  9
$DIMASZ
 40
0.18
  9
$DIMEXO
 40
0.0625
  9
$DIMDLI
 40
0.38
  9
$DIMRND
 40
0.0
  9
$DIMDLE
 40
0.0
  9
$DIMEXE
 40
0.18
  9
$DIMTP
 40
0.0
  9
$DIMTM
 40
0.0
  9
$DIMTXT
 40
0.18
  9
$DIMCEN
 40
0.09
  9
$DIMTSZ
 40
0.0
  9
$DIMTOL
 70
     0
  9
$DIMLIM
 70
     0
  9
$DIMTIH
 70
     1
  9
$DIMTOH
 70
     1
  9
$DIMSE1
 70
     0
  9
$DIMSE2
 70
     0
  9
$DIMTAD
 70
     0
  9
$DIMZIN
 70
     0
  9
$DIMBLK
  1

  9
$DIMASO
 70
     1
  9
$DIMSHO
 70
     1
  9
$DIMPOST
  1

  9
$DIMAPOST
  1

  9
$DIMALT
 70
     0
  9
$DIMALTD
 70
     2
  9
$DIMALTF
 40
25.4
  9
$DIMLFAC
 40
1.0
  9
$DIMTOFL
 70
     0
  9
$DIMTVP
 40
0.0
  9
$DIMTIX
 70
     0
  9
$DIMSOXD
 70
     0
  9
$DIMSAH
 70
     0
  9
$DIMBLK1
  1

  9
$DIMBLK2
  1

  9
$DIMSTYLE
  2
Standard
  9
$DIMCLRD
 70
     0
  9
$DIMCLRE
 70
     0
  9
$DIMCLRT
 70
     0
  9
$DIMTFAC
 40
1.0
  9
$DIMGAP
 40
0.09
  9
$DIMJUST
 70
     0
  9
$DIMSD1
 70
     0
  9
$DIMSD2
 70
     0
  9
$DIMTOLJ
 70
     1
  9
$DIMTZIN
 70
     0
  9
$DIMALTZ
 70
     0
  9
$DIMALTTZ
 70
     0
  9
$DIMUPT
 70
     0
  9
$DIMDEC
 70
     4
  9
$DIMTDEC
 70
     4
  9
$DIMALTU
 70
     2
  9
$DIMALTTD
 70
     2
  9
$DIMTXSTY
  7
Standard
  9
$DIMAUNIT
 70
     0
  9
$DIMADEC
 70
     0
  9
$DIMALTRND
 40
0.0
  9
$DIMAZIN
 70
     0
  9
$DIMDSEP
 70
    46
  9
$DIMATFIT
 70
     3
  9
$DIMFRAC
 70
     0
  9
$DIMLDRBLK
  1

  9
$DIMLUNIT
 70
     2
  9
$DIMLWD
 70
    -2
  9
$DIMLWE
 70
    -2
  9
$DIMTMOVE
 70
     0
  9
$LUNITS
 70
     2
  9
$LUPREC
 70
     4
  9
$SKETCHINC
 40
0.1
  9
$FILLETRAD
 40
0.5
  9
$AUNITS
 70
     0
  9
$AUPREC
 70
     0
  9
$MENU
  1
.
  9
$ELEVATION
 40
0.0
  9
$PELEVATION
 40
0.0
  9
$THICKNESS
 40
0.0
  9
$LIMCHECK
 70
     0
  9
$CHAMFERA
 40
0.0
  9
$CHAMFERB
 40
0.0
  9
$CHAMFERC
 40
0.0
  9
$CHAMFERD
 40
0.0
  9
$SKPOLY
 70
     0
  9
$TDCREATE
 40
2458080.583991551
  9
$TDUCREATE
 40
2458080.208991551
  9
$TDUPDATE
 40
2458080.583993079
  9
$TDUUPDATE
 40
2458080.208993079
  9
$TDINDWG
 40
0.0000000116
  9
$TDUSRTIMER
 40
0.0000000116
  9
$USRTIMER
 70
     1
  9
$ANGBASE
 50
0.0
  9
$ANGDIR
 70
     0
  9
$PDMODE
 70
     0
  9
$PDSIZE
 40
0.0
  9
$PLINEWID
 40
0.0
  9
$SPLFRAME
 70
     0
  9
$SPLINETYPE
 70
     6
  9
$SPLINESEGS
 70
     8
  9
$HANDSEED
  5
3DE
  9
$SURFTAB1
 70
     6
  9
$SURFTAB2
 70
     6
  9
$SURFTYPE
 70
     6
  9
$SURFU
 70
     6
  9
$SURFV
 70
     6
  9
$UCSBASE
  2

  9
$UCSNAME
  2

  9
$UCSORG
 10
0.0
 20
0.0
 30
0.0
  9
$UCSXDIR
 10
1.0
 20
0.0
 30
0.0
  9
$UCSYDIR
 10
0.0
 20
1.0
 30
0.0
  9
$UCSORTHOREF
  2

  9
$UCSORTHOVIEW
 70
     0
  9
$UCSORGTOP
 10
0.0
 20
0.0
 30
0.0
  9
$UCSORGBOTTOM
 10
0.0
 20
0.0
 30
0.0
  9
$UCSORGLEFT
 10
0.0
 20
0.0
 30
0.0
  9
$UCSORGRIGHT
 10
0.0
 20
0.0
 30
0.0
  9
$UCSORGFRONT
 10
0.0
 20
0.0
 30
0.0
  9
$UCSORGBACK
 10
0.0
 20
0.0
 30
0.0
  9
$PUCSBASE
  2

  9
$PUCSNAME
  2

  9
$PUCSORG
 10
0.0
 20
0.0
 30
0.0
  9
$PUCSXDIR
 10
1.0
 20
0.0
 30
0.0
  9
$PUCSYDIR
 10
0.0
 20
1.0
 30
0.0
  9
$PUCSORTHOREF
  2

  9
$PUCSORTHOVIEW
 70
     0
  9
$PUCSORGTOP
 10
0.0
 20
0.0
 30
0.0
  9
$PUCSORGBOTTOM
 10
0.0
 20
0.0
 30
0.0
  9
$PUCSORGLEFT
 10
0.0
 20
0.0
 30
0.0
  9
$PUCSORGRIGHT
 10
0.0
 20
0.0
 30
0.0
  9
$PUCSORGFRONT
 10
0.0
 20
0.0
 30
0.0
  9
$PUCSORGBACK
 10
0.0
 20
0.0
 30
0.0
  9
$USERI1
 70
     0
  9
$USERI2
 70
     0
  9
$USERI3
 70
     0
  9
$USERI4
 70
     0
  9
$USERI5
 70
     0
  9
$USERR1
 40
19.0
  9
$USERR2
 40
0.0
  9
$USERR3
 40
0.0
  9
$USERR4
 40
0.0
  9
$USERR5
 40
0.0
  9
$WORLDVIEW
 70
     1
  9
$SHADEDGE
 70
     3
  9
$SHADEDIF
 70
    70
  9
$TILEMODE
 70
     1
  9
$MAXACTVP
 70
    64
  9
$PINSBASE
 10
0.0
 20
0.0
 30
0.0
  9
$PLIMCHECK
 70
     0
  9
$PEXTMIN
 10
1.00000000000000E+20
 20
1.00000000000000E+20
 30
1.00000000000000E+20
  9
$PEXTMAX
 10
-1.00000000000000E+20
 20
-1.00000000000000E+20
 30
-1.00000000000000E+20
  9
$PLIMMIN
 10
0.0
 20
0.0
  9
$PLIMMAX
 10
12.0
 20
9.0
  9
$UNITMODE
 70
     0
  9
$VISRETAIN
 70
     1
  9
$PLINEGEN
 70
     0
  9
$PSLTSCALE
 70
     1
  9
$TREEDEPTH
 70
  3020
  9
$CMLSTYLE
  2
Standard
  9
$CMLJUST
 70
     0
  9
$CMLSCALE
 40
1.0
  9
$PROXYGRAPHICS
 70
     1
  9
$MEASUREMENT
 70
     1
  9
$CELWEIGHT
370
    -1
  9
$ENDCAPS
280
     0
  9
$JOINSTYLE
280
     0
  9
$LWDISPLAY
290
     0
  9
$INSUNITS
 70
     4
  9
$HYPERLINKBASE
  1

  9
$STYLESHEET
  1

  9
$XEDIT
290
     1
  9
$CEPSNTYPE
380
     0
  9
$PSTYLEMODE
290
     1
  9
$FINGERPRINTGUID
  2
{B3F26354-105B-4EC9-B1EE-291FAF7935FC}
  9
$VERSIONGUID
  2
{FAEB1C32-E019-11D5-929B-00C0DF256EC4}
  9
$EXTNAMES
290
     1
  9
$PSVPSCALE
 40
0.0
  9
$OLESTARTUP
290
     0
  0
ENDSEC
  0
SECTION
  2
CLASSES
  0
CLASS
  1
ACDBDICTIONARYWDFLT
  2
AcDbDictionaryWithDefault
  3
ObjectDBX Classes
 90
        0
280
     0
281
     0
  0
CLASS
  1
VISUALSTYLE
  2
AcDbVisualStyle
  3
ObjectDBX Classes
 90
     4095
280
     0
281
     0
  0
CLASS
  1
MATERIAL
  2
AcDbMaterial
  3
ObjectDBX Classes
 90
     1153
280
     0
281
     0
  0
CLASS
  1
SCALE
  2
AcDbScale
  3
ObjectDBX Classes
 90
     1153
280
     0
281
     0
  0
CLASS
  1
SUN
  2
AcDbSun
  3
SCENEOE
 90
     1153
280
     0
281
     0
  0
CLASS
  1
DICTIONARYVAR
  2
AcDbDictionaryVar
  3
ObjectDBX Classes
 90
        0
280
     0
281
     0
  0
CLASS
  1
ACDBPLACEHOLDER
  2
AcDbPlaceHolder
  3
ObjectDBX Classes
 90
        0
280
     0
281
     0
  0
CLASS
  1
LAYOUT
  2
AcDbLayout
  3
ObjectDBX Classes
 90
        0
280
     0
281
     0
  0
ENDSEC
  0
SECTION
  2
TABLES
  0
TABLE
  2
VPORT
  5
8
330
0
100
AcDbSymbolTable
 70
     1
  0
VPORT
  5
29
330
8
100
AcDbSymbolTableRecord
100
AcDbViewportTableRecord
  2
*Active
 70
     0
 10
0.0
 20
0.0
 11
1.0
 21
1.0
 12
-39.45984972900753
 22
49.0038071323046
 13
0.0
 23
0.0
 14
0.5
 24
0.5
 15
0.5
 25
0.5
 16
0.0
 26
0.0
 36
1.0
 17
0.0
 27
0.0
 37
0.0
 40
166.485114301266
 41
1.60267857142857
 42
50.0
 43
0.0
 44
0.0
 50
0.0
 51
0.0
 71
     0
 72
   100
 73
     1
 74
     3
 75
     0
 76
     0
 77
     0
 78
     0
281
     0
 65
     1
110
0.0
120
0.0
130
0.0
111
1.0
121
0.0
131
0.0
112
0.0
122
1.0
132
0.0
 79
     0
146
0.0
  0
ENDTAB
  0
TABLE
  2
LTYPE
  5
5
330
0
100
AcDbSymbolTable
 70
     8
  0
LTYPE
  5
14
330
5
100
AcDbSymbolTableRecord
100
AcDbLinetypeTableRecord
  2
ByBlock
 70
     0
  3

 72
    65
 73
     0
 40
0.0
  0
LTYPE
  5
15
330
5
100
AcDbSymbolTableRecord
100
AcDbLinetypeTableRecord
  2
ByLayer
 70
     0
  3

 72
    65
 73
     0
 40
0.0
  0
LTYPE
  5
16
330
5
100
AcDbSymbolTableRecord
100
AcDbLinetypeTableRecord
  2
Continuous
 70
     0
  3
Solid line
 72
    65
 73
     0
 40
0.0
  0
LTYPE
  5
6A
330
5
100
AcDbSymbolTableRecord
100
AcDbLinetypeTableRecord
  2
DASHED
 70
     0
  3
Dashed
 72
    65
 73
     2
 40
15.0
 49
7.0
 74
     0
 49
-8.0
 74
     0
  0
LTYPE
  5
6B
330
5
100
AcDbSymbolTableRecord
100
AcDbLinetypeTableRecord
  2
DOTTED
 70
     0
  3
Dotted
 72
    65
 73
     2
 40
1.0
 49
0.0
 74
     0
 49
-1.0
 74
     0
  0
LTYPE
  5
6C
330
5
100
AcDbSymbolTableRecord
100
AcDbLinetypeTableRecord
  2
DOT_CENTER
 70
     0
  3
Dot_Center
 72
    65
 73
     4
 40
14.0
 49
12.0
 74
     0
 49
-1.0
 74
     0
 49
0.0
 74
     0
 49
-1.0
 74
     0
  0
LTYPE
  5
6D
330
5
100
AcDbSymbolTableRecord
100
AcDbLinetypeTableRecord
  2
LONG_DASHED
 70
     0
  3
Long_Dashed
 72
    65
 73
     2
 40
15.0
 49
10.0
 74
     0
 49
-5.0
 74
     0
  0
LTYPE
  5
6E
330
5
100
AcDbSymbolTableRecord
100
AcDbLinetypeTableRecord
  2
DASH_CENTER
 70
     0
  3
Dash_Center
 72
    65
 73
     4
 40
14.0
 49
11.0
 74
     0
 49
-1.0
 74
     0
 49
1.0
 74
     0
 49
-1.0
 74
     0
  0
LTYPE
  5
6F
330
5
100
AcDbSymbolTableRecord
100
AcDbLinetypeTableRecord
  2
PHANTOM
 70
     0
  3
Phantom
 72
    65
 73
     6
 40
13.0
 49
10.0
 74
     0
 49
-1.0
 74
     0
 49
0.0
 74
     0
 49
-1.0
 74
     0
 49
0.0
 74
     0
 49
-1.0
 74
     0
  0
LTYPE
  5
70
330
5
100
AcDbSymbolTableRecord
100
AcDbLinetypeTableRecord
  2
CENTER_DASH_DASH
 70
     0
  3
Center_Dash_Dash
 72
    65
 73
     6
 40
14.0
 49
9.0
 74
     0
 49
-1.0
 74
     0
 49
1.0
 74
     0
 49
-1.0
 74
     0
 49
1.0
 74
     0
 49
-1.0
 74
     0
  0
ENDTAB
  0
TABLE
  2
LAYER
  5
2
330
0
100
AcDbSymbolTable
 70
     2
  0
LAYER
  5
10
330
2
100
AcDbSymbolTableRecord
100
AcDbLayerTableRecord
  2
0
 70
     0
 62
     7
  6
Continuous
370
    -3
390
F
  0
LAYER
  5
71
330
2
100
AcDbSymbolTableRecord
100
AcDbLayerTableRecord
  2
1
 70
     0
 62
     7
  6
Continuous
370
    -3
390
F
  0
ENDTAB
  0
TABLE
  2
STYLE
  5
3
330
0
100
AcDbSymbolTable
 70
     1
  0
STYLE
  5
11
330
3
100
AcDbSymbolTableRecord
100
AcDbTextStyleTableRecord
  2
Standard
 70
     0
 40
0.0
 41
1.0
 50
0.0
 71
     0
 42
0.2
  3
txt
  4

  0
ENDTAB
  0
TABLE
  2
VIEW
  5
6
330
0
100
AcDbSymbolTable
 70
     0
  0
ENDTAB
  0
TABLE
  2
UCS
  5
7
330
0
100
AcDbSymbolTable
 70
     0
  0
ENDTAB
  0
TABLE
  2
APPID
  5
9
330
0
100
AcDbSymbolTable
 70
     1
  0
APPID
  5
12
330
9
100
AcDbSymbolTableRecord
100
AcDbRegAppTableRecord
  2
ACAD
 70
     0
  0
ENDTAB
  0
TABLE
  2
DIMSTYLE
  5
A
330
0
100
AcDbSymbolTable
 70
     1
100
AcDbDimStyleTable
  0
DIMSTYLE
105
27
330
A
100
AcDbSymbolTableRecord
100
AcDbDimStyleTableRecord
  2
Standard
 70
     0
178
     0
340
11
  0
ENDTAB
  0
TABLE
  2
BLOCK_RECORD
  5
1
330
0
100
AcDbSymbolTable
 70
     1
  0
BLOCK_RECORD
  5
1F
330
1
100
AcDbSymbolTableRecord
100
AcDbBlockTableRecord
  2
*Model_Space
340
22
  0
BLOCK_RECORD
  5
1B
330
1
100
AcDbSymbolTableRecord
100
AcDbBlockTableRecord
  2
*Paper_Space
340
1E
  0
BLOCK_RECORD
  5
23
330
1
100
AcDbSymbolTableRecord
100
AcDbBlockTableRecord
  2
*Paper_Space0
340
26
  0
ENDTAB
  0
ENDSEC
  0
SECTION
  2
BLOCKS
  0
BLOCK
  5
20
330
1F
100
AcDbEntity
  8
0
100
AcDbBlockBegin
  2
*Model_Space
 70
     0
 10
0.0
 20
0.0
 30
0.0
  3
*Model_Space
  1
*Model_Space
  0
ENDBLK
  5
21
330
1F
100
AcDbEntity
  8
0
100
AcDbBlockEnd
  0
BLOCK
  5
1C
330
1B
100
AcDbEntity
 67
     1
  8
0
100
AcDbBlockBegin
  2
*Paper_Space
 70
     0
 10
0.0
 20
0.0
 30
0.0
  3
*Paper_Space
  1
*Paper_Space
  0
ENDBLK
  5
1D
330
1B
100
AcDbEntity
 67
     1
  8
0
100
AcDbBlockEnd
  0
BLOCK
  5
24
330
23
100
AcDbEntity
  8
0
100
AcDbBlockBegin
  2
*Paper_Space0
 70
     0
 10
0.0
 20
0.0
 30
0.0
  3
*Paper_Space0
  1
*Paper_Space0
  0
ENDBLK
  5
25
330
23
100
AcDbEntity
  8
0
100
AcDbBlockEnd
  0
ENDSEC
  0
SECTION
  2
ENTITIES
  0
POINT
  5
72
330
1F
100
AcDbEntity
  8
1
 62
     3
 60
     1
100
AcDbPoint
 10
7.99999999998791
 20
17.50000000001218
 30
0.0
  0
POINT
  5
73
330
1F
100
AcDbEntity
  8
1
 62
     3
 60
     1
100
AcDbPoint
 10
7.99999999998791
 20
17.19999999997542
 30
0.0
  0
POINT
  5
74
330
1F
100
AcDbEntity
  8
1
 62
     3
 60
     1
100
AcDbPoint
 10
-65.52058408150208
 20
0.00000000001218
 30
0.0
  0
POINT
  5
75
330
1F
100
AcDbEntity
  8
1
 62
     3
 60
     1
100
AcDbPoint
 10
-65.52058408150208
 20
0.00000000001218
 30
0.0
  0
POINT
  5
76
330
1F
100
AcDbEntity
  8
1
 62
     3
 60
     1
100
AcDbPoint
 10
24.93063844473302
 20
80.16247993180885
 30
0.0
  0
POINT
  5
77
330
1F
100
AcDbEntity
  8
1
 62
     3
 60
     1
100
AcDbPoint
 10
-29.84529946163286
 20
17.3975898596764
 30
0.0
  0
POINT
  5
78
330
1F
100
AcDbEntity
  8
1
 62
     3
 60
     1
100
AcDbPoint
 10
-29.84529946163286
 20
10.30886642031275
 30
0.0
  0
POINT
  5
79
330
1F
100
AcDbEntity
  8
1
 62
     3
 60
     1
100
AcDbPoint
 10
-29.84529946163286
 20
-10.30886642036192
 30
0.0
  0
POINT
  5
7A
330
1F
100
AcDbEntity
  8
1
 62
     3
 60
     1
100
AcDbPoint
 10
-29.84529946163286
 20
-17.39758985972556
 30
0.0
  0
POINT
  5
7B
330
1F
100
AcDbEntity
  8
1
 62
     3
 60
     1
100
AcDbPoint
 10
-29.84529946163286
 20
7.08554511869862
 30
0.0
  0
POINT
  5
7C
330
1F
100
AcDbEntity
  8
1
 62
     3
 60
     1
100
AcDbPoint
 10
-29.84529946163286
 20
-7.08554511874777
 30
0.0
  0
POINT
  5
7D
330
1F
100
AcDbEntity
  8
1
 62
     3
 60
     1
100
AcDbPoint
 10
-57.37058408150207
 20
13.76980392014799
 30
0.0
  0
POINT
  5
7E
330
1F
100
AcDbEntity
  8
1
 62
     3
100
AcDbPoint
 10
-65.5205840815022
 20
41.30000000001185
 30
0.0
  0
POINT
  5
7F
330
1F
100
AcDbEntity
  8
1
 62
     3
100
AcDbPoint
 10
-65.5205840815022
 20
41.30000000001185
 30
0.0
  0
POINT
  5
80
330
1F
100
AcDbEntity
  8
1
 62
     3
 60
     1
100
AcDbPoint
 10
-65.52058408150208
 20
31.60000000001215
 30
0.0
  0
POINT
  5
81
330
1F
100
AcDbEntity
  8
1
 62
     3
 60
     1
100
AcDbPoint
 10
10.99999999998783
 20
97.50149451071321
 30
0.0
  0
LINE
  5
82
330
1F
100
AcDbEntity
  8
1
  6
Continuous
 62
     3
100
AcDbLine
 10
-7.50000000001205
 20
17.50000000001218
 30
0.0
 11
7.99999999998791
 21
17.50000000001218
 31
0.0
  0
LINE
  5
83
330
1F
100
AcDbEntity
  8
1
  6
Continuous
 62
     3
100
AcDbLine
 10
-81.52058408150208
 20
-7.08872343936676
 30
0.0
 11
-81.52058408150208
 21
7.08872343939107
 31
0.0
  0
LINE
  5
84
330
1F
100
AcDbEntity
  8
1
  6
Continuous
 62
     3
100
AcDbLine
 10
-49.52058408150208
 20
7.08872343939109
 30
0.0
 11
-49.52058408150208
 21
-7.08872343936674
 31
0.0
  0
LINE
  5
85
330
1F
100
AcDbEntity
  8
1
  6
Continuous
 62
     3
100
AcDbLine
 10
-67.38156950259776
 20
-17.40076818022829
 30
0.0
 11
-79.65959866040649
 21
-10.31204474084937
 31
0.0
  0
LINE
  5
86
330
1F
100
AcDbEntity
  8
1
  6
Continuous
 62
     3
100
AcDbLine
 10
-51.38156950259773
 20
-10.31204474084938
 30
0.0
 11
-63.6595986604064
 21
-17.40076818022829
 31
0.0
  0
LINE
  5
87
330
1F
100
AcDbEntity
  8
1
  6
Continuous
 62
     3
100
AcDbLine
 10
-57.37058408150207
 20
13.76980392018475
 30
0.0
 11
-51.38156950259773
 21
10.31204474087375
 31
0.0
  0
LINE
  5
88
330
1F
100
AcDbEntity
  8
1
  6
Continuous
 62
     3
100
AcDbLine
 10
-73.67058408150208
 20
13.76980392018475
 30
0.0
 11
-73.52058408150208
 21
13.8564064605632
 31
0.0
  0
LINE
  5
89
330
1F
100
AcDbEntity
  8
1
  6
Continuous
 62
     3
100
AcDbLine
 10
-79.65959866040649
 20
10.31204474087375
 30
0.0
 11
-73.67058408150208
 21
13.76980392018475
 31
0.0
  0
LINE
  5
8A
330
1F
100
AcDbEntity
  8
1
  6
Continuous
 62
     3
100
AcDbLine
 10
-73.52058408150208
 20
13.8564064605632
 30
0.0
 11
-67.38156950259776
 21
17.40076818025265
 31
0.0
  0
LINE
  5
8B
330
1F
100
AcDbEntity
  8
1
  6
Continuous
 62
     3
100
AcDbLine
 10
-63.6595986604064
 20
17.40076818025265
 30
0.0
 11
-57.52058408150208
 21
13.8564064605632
 31
0.0
  0
LINE
  5
8C
330
1F
100
AcDbEntity
  8
1
  6
DOT_CENTER
 62
     3
100
AcDbLine
 10
-50.02058408150208
 20
0.00000000001218
 30
0.0
 11
-52.1205840815021
 21
0.00000000001218
 31
0.0
  0
LINE
  5
8D
330
1F
100
AcDbEntity
  8
1
  6
Continuous
 62
     3
100
AcDbLine
 10
29.84529946160866
 20
76.44050908961738
 30
0.0
 11
24.93063844472778
 21
76.44050908961738
 31
0.0
  0
LINE
  5
8E
330
1F
100
AcDbEntity
  8
1
  6
Continuous
 62
     3
100
AcDbLine
 10
29.84529946160866
 20
80.16247993180885
 30
0.0
 11
24.93063844473302
 21
80.16247993180885
 31
0.0
  0
LINE
  5
8F
330
1F
100
AcDbEntity
  8
1
  6
Continuous
 62
     3
100
AcDbLine
 10
-29.84529946163286
 20
-7.08554511874777
 30
0.0
 11
-29.84529946163286
 21
-10.30886642036192
 31
0.0
  0
LINE
  5
90
330
1F
100
AcDbEntity
  8
1
  6
DOT_CENTER
 62
     3
100
AcDbLine
 10
13.2594478995701
 20
0.00000000001218
 30
0.0
 11
33.14378378377154
 21
0.00000000001218
 31
0.0
  0
LINE
  5
91
330
1F
100
AcDbEntity
  8
1
  6
Continuous
 62
     3
100
AcDbLine
 10
-77.85001441151508
 20
19.20000000013755
 30
0.0
 11
-77.85001441151508
 21
20.30000000001197
 31
0.0
  0
LINE
  5
92
330
1F
100
AcDbEntity
  8
1
  6
Continuous
 62
     3
100
AcDbLine
 10
-79.02058408140638
 20
18.70000000013755
 30
0.0
 11
-78.35001441151508
 21
18.70000000013755
 31
0.0
  0
LINE
  5
93
330
1F
100
AcDbEntity
  8
1
  6
Continuous
 62
     3
100
AcDbLine
 10
-79.52058408140638
 20
18.20000000013755
 30
0.0
 11
-79.52058408140638
 21
15.07735026916505
 31
0.0
  0
LINE
  5
94
330
1F
100
AcDbEntity
  8
1
  6
Continuous
 62
     3
100
AcDbLine
 10
-79.02058408140638
 20
14.21132486538062
 30
0.0
 11
-75.96321572657988
 21
12.4461524227097
 31
0.0
  0
LINE
  5
95
330
1F
100
AcDbEntity
  8
1
  6
Continuous
 62
     3
100
AcDbLine
 10
-57.32943093207626
 20
13.74604413828572
 30
0.0
 11
-57.37058408150207
 21
13.76980392014799
 31
0.0
  0
LINE
  5
96
330
1F
100
AcDbEntity
  8
1
  6
Continuous
 62
     3
100
AcDbLine
 10
-57.52058408150208
 20
13.85640646052644
 30
0.0
 11
-57.37058408150207
 21
13.76980392014799
 31
0.0
  0
LINE
  5
97
330
1F
100
AcDbEntity
  8
1
  6
Continuous
 62
     3
100
AcDbLine
 10
-57.3705840815021
 20
14.69281034621544
 30
0.0
 11
-57.3705840815021
 21
14.02996792584869
 31
0.0
  0
LINE
  5
98
330
1F
100
AcDbEntity
  8
1
  6
Continuous
 62
     3
100
AcDbLine
 10
-57.3705840815021
 20
15.29275585407364
 30
0.0
 11
-57.3705840815021
 21
14.69281034621544
 31
0.0
  0
LINE
  5
99
330
1F
100
AcDbEntity
  8
1
  6
Continuous
 62
     3
100
AcDbLine
 10
-72.77058408140638
 20
17.50000000007165
 30
0.0
 11
-64.15493603357596
 21
17.50000000007165
 31
0.0
  0
LINE
  5
9A
330
1F
100
AcDbEntity
  8
1
  6
Continuous
 62
     3
100
AcDbLine
 10
-58.27058408140636
 20
17.50000000007165
 30
0.0
 11
-64.15493603357596
 21
17.50000000007165
 31
0.0
  0
LINE
  5
9B
330
1F
100
AcDbEntity
  8
1
  6
Continuous
 62
     3
100
AcDbLine
 10
-29.84529946163286
 20
17.3975898596764
 30
0.0
 11
-19.60000000001208
 21
17.3975898596764
 31
0.0
  0
LINE
  5
9C
330
1F
100
AcDbEntity
  8
1
  6
Continuous
 62
     3
100
AcDbLine
 10
-19.60000000001208
 20
-17.39758985972556
 30
0.0
 11
-29.84529946163286
 21
-17.39758985972556
 31
0.0
  0
LINE
  5
9D
330
1F
100
AcDbEntity
  8
1
  6
Continuous
 62
     3
100
AcDbLine
 10
-19.60000000001208
 20
-17.49999999952146
 30
0.0
 11
-19.60000000001208
 21
-17.39758985922533
 31
0.0
  0
LINE
  5
9E
330
1F
100
AcDbEntity
  8
1
  6
Continuous
 62
     3
100
AcDbLine
 10
-19.60000000001208
 20
-10.30886642036192
 30
0.0
 11
-19.60000000001208
 21
-7.08554511874777
 31
0.0
  0
LINE
  5
9F
330
1F
100
AcDbEntity
  8
1
  6
Continuous
 62
     3
100
AcDbLine
 10
-19.60000000001208
 20
-10.30886642036192
 30
0.0
 11
-29.84529946163286
 21
-10.30886642036192
 31
0.0
  0
LINE
  5
A0
330
1F
100
AcDbEntity
  8
0
  6
Continuous
 62
     3
100
AcDbLine
 10
-15.60000000001209
 20
-13.06653526476372
 30
0.0
 11
-15.60000000001209
 21
-14.27735229600199
 31
0.0
  0
LINE
  5
A1
330
1F
100
AcDbEntity
  8
0
  6
Continuous
 62
     3
100
AcDbLine
 10
-15.60000000001209
 20
13.06017862333317
 30
0.0
 11
-15.60000000001209
 21
7.00000000006871
 31
0.0
  0
LINE
  5
A2
330
1F
100
AcDbEntity
  8
0
  6
Continuous
 62
     3
100
AcDbLine
 10
-8.50000000001209
 20
7.00000000006871
 30
0.0
 11
-8.50000000001209
 21
13.06017862333317
 31
0.0
  0
LINE
  5
A3
330
1F
100
AcDbEntity
  8
1
  6
Continuous
 62
     3
100
AcDbLine
 10
-14.60000000001209
 20
12.64593232012193
 30
0.0
 11
-9.50000000001209
 21
12.64593232012193
 31
0.0
  0
LINE
  5
A4
330
1F
100
AcDbEntity
  8
0
  6
Continuous
 62
     3
100
AcDbLine
 10
-15.60000000001209
 20
14.27099565485611
 30
0.0
 11
-15.60000000001209
 21
13.06017862333317
 31
0.0
  0
LINE
  5
A5
330
1F
100
AcDbEntity
  8
0
  6
Continuous
 62
     3
100
AcDbLine
 10
-8.50000000001209
 20
13.06017862333317
 30
0.0
 11
-8.50000000001209
 21
14.26556130289001
 31
0.0
  0
LINE
  5
A6
330
1F
100
AcDbEntity
  8
0
  6
Continuous
 62
     3
100
AcDbLine
 10
-9.50000000001209
 20
14.82921865359191
 30
0.0
 11
-14.60000000001209
 21
14.82921865359191
 31
0.0
  0
LINE
  5
A7
330
1F
100
AcDbEntity
  8
1
  6
Continuous
 62
     3
100
AcDbLine
 10
-29.84529946163286
 20
10.30886642031275
 30
0.0
 11
-29.84529946163286
 21
7.08554511869862
 31
0.0
  0
LINE
  5
A8
330
1F
100
AcDbEntity
  8
1
  6
Continuous
 62
     3
100
AcDbLine
 10
-29.84529946163286
 20
10.30886642031275
 30
0.0
 11
-19.60000000001208
 21
10.30886642031275
 31
0.0
  0
LINE
  5
A9
330
1F
100
AcDbEntity
  8
1
  6
Continuous
 62
     3
100
AcDbLine
 10
-19.60000000001208
 20
7.08554511869862
 30
0.0
 11
-19.60000000001208
 21
10.30886642031275
 31
0.0
  0
LINE
  5
AA
330
1F
100
AcDbEntity
  8
0
  6
Continuous
 62
     3
100
AcDbLine
 10
-4.12500000001209
 20
0.99817832059288
 30
0.0
 11
-4.12500000001209
 21
1.47563583465551
 31
0.0
  0
LINE
  5
AB
330
1F
100
AcDbEntity
  8
0
  6
Continuous
 62
     3
100
AcDbLine
 10
-3.50000000001209
 20
0.99817832059288
 30
0.0
 11
-4.12500000001209
 21
0.99817832059288
 31
0.0
  0
LINE
  5
AC
330
1F
100
AcDbEntity
  8
0
  6
Continuous
 62
     3
100
AcDbLine
 10
-3.50000000001209
 20
3.49817832059288
 30
0.0
 11
-3.50000000001209
 21
0.99817832059288
 31
0.0
  0
LINE
  5
AD
330
1F
100
AcDbEntity
  8
0
  6
Continuous
 62
     3
100
AcDbLine
 10
-4.12500000001209
 20
2.87317832059288
 30
0.0
 11
-5.37500000001209
 21
2.87317832059288
 31
0.0
  0
LINE
  5
AE
330
1F
100
AcDbEntity
  8
0
  6
Continuous
 62
     3
100
AcDbLine
 10
-3.50000000001209
 20
4.12317832059288
 30
0.0
 11
-4.12500000001209
 21
4.12317832059288
 31
0.0
  0
LINE
  5
AF
330
1F
100
AcDbEntity
  8
0
  6
Continuous
 62
     3
100
AcDbLine
 10
-5.37500000001209
 20
3.49817832059288
 30
0.0
 11
-3.50000000001209
 21
3.49817832059288
 31
0.0
  0
LINE
  5
B0
330
1F
100
AcDbEntity
  8
0
  6
Continuous
 62
     3
100
AcDbLine
 10
-6.62500000001209
 20
4.12317832059288
 30
0.0
 11
-6.62500000001209
 21
2.87317832059288
 31
0.0
  0
LINE
  5
B1
330
1F
100
AcDbEntity
  8
0
  6
Continuous
 62
     3
100
AcDbLine
 10
-7.25000000001209
 20
2.87317832059288
 30
0.0
 11
-7.25000000001209
 21
4.12317832059288
 31
0.0
  0
LINE
  5
B2
330
1F
100
AcDbEntity
  8
0
  6
Continuous
 62
     3
100
AcDbLine
 10
-5.37500000001209
 20
2.87317832059288
 30
0.0
 11
-5.37500000001209
 21
3.49817832059288
 31
0.0
  0
LINE
  5
B3
330
1F
100
AcDbEntity
  8
0
  6
Continuous
 62
     3
100
AcDbLine
 10
-13.25000000001209
 20
0.99817832059288
 30
0.0
 11
-17.00000000001208
 21
0.99817832059288
 31
0.0
  0
LINE
  5
B4
330
1F
100
AcDbEntity
  8
0
  6
Continuous
 62
     3
100
AcDbLine
 10
-16.37500000001208
 20
1.62317832059288
 30
0.0
 11
-13.25000000001209
 21
1.62317832059288
 31
0.0
  0
LINE
  5
B5
330
1F
100
AcDbEntity
  8
0
  6
Continuous
 62
     3
100
AcDbLine
 10
-13.25000000001209
 20
1.62317832059288
 30
0.0
 11
-13.25000000001209
 21
0.99817832059288
 31
0.0
  0
LINE
  5
B6
330
1F
100
AcDbEntity
  8
0
  6
Continuous
 62
     3
100
AcDbLine
 10
-11.99988973200154
 20
5.99817832059287
 30
0.0
 11
-9.81238973200153
 21
5.99817832059287
 31
0.0
  0
LINE
  5
B7
330
1F
100
AcDbEntity
  8
0
  6
Continuous
 62
     3
100
AcDbLine
 10
-11.37488973200154
 20
5.37317832059288
 30
0.0
 11
-11.37488973200154
 21
3.49817832059288
 31
0.0
  0
LINE
  5
B8
330
1F
100
AcDbEntity
  8
0
  6
Continuous
 62
     3
100
AcDbLine
 10
-11.37488973200154
 20
2.87317832059288
 30
0.0
 11
-11.37488973200154
 21
0.99817832059288
 31
0.0
  0
LINE
  5
B9
330
1F
100
AcDbEntity
  8
0
  6
Continuous
 62
     3
100
AcDbLine
 10
-11.37488973200154
 20
3.49817832059288
 30
0.0
 11
-9.81238973200153
 21
3.49817832059288
 31
0.0
  0
LINE
  5
BA
330
1F
100
AcDbEntity
  8
0
  6
Continuous
 62
     3
100
AcDbLine
 10
-9.81238973200153
 20
2.87317832059288
 30
0.0
 11
-11.37488973200154
 21
2.87317832059288
 31
0.0
  0
LINE
  5
BB
330
1F
100
AcDbEntity
  8
0
  6
Continuous
 62
     3
100
AcDbLine
 10
-9.81238973200153
 20
5.37317832059288
 30
0.0
 11
-11.37488973200154
 21
5.37317832059288
 31
0.0
  0
LINE
  5
BC
330
1F
100
AcDbEntity
  8
0
  6
Continuous
 62
     3
100
AcDbLine
 10
-11.37488973200154
 20
0.99817832059288
 30
0.0
 11
-11.99988973200154
 21
0.99817832059288
 31
0.0
  0
LINE
  5
BD
330
1F
100
AcDbEntity
  8
0
  6
Continuous
 62
     3
100
AcDbLine
 10
-11.99988973200154
 20
0.99817832059288
 30
0.0
 11
-11.99988973200154
 21
5.99817832059287
 31
0.0
  0
LINE
  5
BE
330
1F
100
AcDbEntity
  8
0
  6
Continuous
 62
     3
100
AcDbLine
 10
-17.00000000001208
 20
0.99817832059288
 30
0.0
 11
-17.00000000001208
 21
5.99817832059287
 31
0.0
  0
LINE
  5
BF
330
1F
100
AcDbEntity
  8
0
  6
Continuous
 62
     3
100
AcDbLine
 10
-17.00000000001208
 20
5.99817832059287
 30
0.0
 11
-16.37500000001208
 21
5.99817832059287
 31
0.0
  0
LINE
  5
C0
330
1F
100
AcDbEntity
  8
0
  6
Continuous
 62
     3
100
AcDbLine
 10
-16.37500000001208
 20
5.99817832059287
 30
0.0
 11
-16.37500000001208
 21
1.62317832059288
 31
0.0
  0
LINE
  5
C1
330
1F
100
AcDbEntity
  8
1
  6
Continuous
 62
     3
100
AcDbLine
 10
-19.55384199394122
 20
-7.00000083659017
 30
0.0
 11
-3.49999995094828
 21
-7.00000004892753
 31
0.0
  0
LINE
  5
C2
330
1F
100
AcDbEntity
  8
1
  6
Continuous
 62
     3
100
AcDbLine
 10
-19.55384198679755
 20
7.00000082338686
 30
0.0
 11
-3.49999995173848
 21
7.00000004840989
 31
0.0
  0
LINE
  5
C3
330
1F
100
AcDbEntity
  8
1
  6
Continuous
 62
     3
100
AcDbLine
 10
-19.60000000001208
 20
-7.08554511874777
 30
0.0
 11
-29.84529946163286
 21
-7.08554511874777
 31
0.0
  0
LINE
  5
C4
330
1F
100
AcDbEntity
  8
1
  6
Continuous
 62
     3
100
AcDbLine
 10
-29.84529946163286
 20
7.08554511869862
 30
0.0
 11
-19.60000000001208
 21
7.08554511869862
 31
0.0
  0
LINE
  5
C5
330
1F
100
AcDbEntity
  8
0
  6
Continuous
 62
     3
100
AcDbLine
 10
-2.50000000001209
 20
-6.00000004892753
 30
0.0
 11
-2.50000000001209
 21
6.00000004840989
 31
0.0
  0
LINE
  5
C6
330
1F
100
AcDbEntity
  8
1
  6
Continuous
 62
     3
100
AcDbLine
 10
9.30634010944916
 20
0.32071392493447
 30
0.0
 11
9.30634010944916
 21
-0.35651458166475
 31
0.0
  0
LINE
  5
C7
330
1F
100
AcDbEntity
  8
1
  6
Continuous
 62
     3
100
AcDbLine
 10
10.94683653223969
 20
1.97980618870976
 30
0.0
 11
9.31948935471126
 21
0.35245901118134
 31
0.0
  0
LINE
  5
C8
330
1F
100
AcDbEntity
  8
1
  6
Continuous
 62
     3
100
AcDbLine
 10
11.35651458169263
 20
1.99295543397186
 30
0.0
 11
10.97858161848656
 21
1.99295543397186
 31
0.0
  0
LINE
  5
C9
330
1F
100
AcDbEntity
  8
1
  6
Continuous
 62
     3
100
AcDbLine
 10
9.83010731038722
 20
0.12235828776431
 30
0.0
 11
10.8028178264151
 21
0.12235828776431
 31
0.0
  0
LINE
  5
CA
330
1F
100
AcDbEntity
  8
1
  6
Continuous
 62
     3
100
AcDbLine
 10
10.8028178264151
 20
1.0950688037922
 30
0.0
 11
9.83010731038722
 21
0.12235828776431
 31
0.0
  0
LINE
  5
CB
330
1F
100
AcDbEntity
  8
1
  6
Continuous
 62
     3
100
AcDbLine
 10
10.8028178264151
 20
0.12235828776431
 30
0.0
 11
10.8028178264151
 21
1.0950688037922
 31
0.0
  0
LINE
  5
CC
330
1F
100
AcDbEntity
  8
1
  6
Continuous
 62
     3
100
AcDbLine
 10
11.40140891320163
 20
0.12235828776431
 30
0.0
 11
11.40140891320163
 21
1.94806110246287
 31
0.0
  0
LINE
  5
CD
330
1F
100
AcDbEntity
  8
1
  6
Continuous
 62
     3
100
AcDbLine
 10
11.95510566847892
 20
0.12235828776431
 30
0.0
 11
11.40140891320163
 21
0.12235828776431
 31
0.0
  0
LINE
  5
CE
330
1F
100
AcDbEntity
  8
1
  6
Continuous
 62
     3
100
AcDbLine
 10
11.99999999998791
 20
-0.35651458166475
 30
0.0
 11
11.99999999998791
 21
0.07746395625533
 31
0.0
  0
LINE
  5
CF
330
1F
100
AcDbEntity
  8
1
  6
Continuous
 62
     3
100
AcDbLine
 10
11.40140891320163
 20
-0.40140891317374
 30
0.0
 11
11.95510566847892
 21
-0.40140891317374
 31
0.0
  0
LINE
  5
D0
330
1F
100
AcDbEntity
  8
1
  6
Continuous
 62
     3
100
AcDbLine
 10
11.40140891320163
 20
-0.95510566845125
 30
0.0
 11
11.40140891320163
 21
-0.40140891317374
 31
0.0
  0
LINE
  5
D1
330
1F
100
AcDbEntity
  8
1
  6
Continuous
 62
     3
100
AcDbLine
 10
10.84771215792408
 20
-0.99999999996025
 30
0.0
 11
11.35651458169263
 21
-0.99999999996025
 31
0.0
  0
LINE
  5
D2
330
1F
100
AcDbEntity
  8
1
  6
Continuous
 62
     3
100
AcDbLine
 10
10.8028178264151
 20
-0.40140891317374
 30
0.0
 11
10.8028178264151
 21
-0.95510566845125
 31
0.0
  0
LINE
  5
D3
330
1F
100
AcDbEntity
  8
1
  6
Continuous
 62
     3
100
AcDbLine
 10
9.35123444095814
 20
-0.40140891317374
 30
0.0
 11
10.8028178264151
 21
-0.40140891317374
 31
0.0
  0
LINE
  5
D4
330
1F
100
AcDbEntity
  8
1
  6
Continuous
 62
     3
100
AcDbLine
 10
7.7168300573907
 20
3.25347364290242
 30
0.0
 11
7.21087094128458
 21
3.25347364290242
 31
0.0
  0
LINE
  5
D5
330
1F
100
AcDbEntity
  8
1
  6
Continuous
 62
     3
100
AcDbLine
 10
6.03860645916819
 20
2.66685437785162
 30
0.0
 11
6.53799820279348
 21
2.66685437785162
 31
0.0
  0
LINE
  5
D6
330
1F
100
AcDbEntity
  8
1
  6
Continuous
 62
     3
100
AcDbLine
 10
6.04398848331044
 20
3.54678327542767
 30
0.0
 11
6.54871446250209
 21
3.54678327542767
 31
0.0
  0
LINE
  5
D7
330
1F
100
AcDbEntity
  8
1
  6
Continuous
 62
     3
100
AcDbLine
 10
7.16687449640578
 20
3.20947719802359
 30
0.0
 11
7.16687449640578
 21
2.85750563899318
 31
0.0
  0
LINE
  5
D8
330
1F
100
AcDbEntity
  8
1
  6
Continuous
 62
     3
100
AcDbLine
 10
7.7168300573907
 20
2.81350919411436
 30
0.0
 11
7.21087094128458
 21
2.81350919411436
 31
0.0
  0
LINE
  5
D9
330
1F
100
AcDbEntity
  8
1
  6
Continuous
 62
     3
100
AcDbLine
 10
11.25424234896108
 20
4.04442229006553
 30
0.0
 11
11.99999999998791
 21
4.04442229006553
 31
0.0
  0
LINE
  5
DA
330
1F
100
AcDbEntity
  8
1
  6
Continuous
 62
     3
100
AcDbLine
 10
11.99999999998791
 20
4.04442229006553
 30
0.0
 11
7.60451731078377
 21
-0.66915581129213
 31
0.0
  0
LINE
  5
DB
330
1F
100
AcDbEntity
  8
1
  6
Continuous
 62
     3
100
AcDbLine
 10
7.00011783426175
 20
-0.5175677280469
 30
0.0
 11
11.25424234896108
 21
4.04442229006553
 31
0.0
  0
LINE
  5
DC
330
1F
100
AcDbEntity
  8
1
  6
Continuous
 62
     3
100
AcDbLine
 10
7.00011783426175
 20
-0.5175677280469
 30
0.0
 11
7.00011783426175
 21
-0.66915581129213
 31
0.0
  0
LINE
  5
DD
330
1F
100
AcDbEntity
  8
1
  6
Continuous
 62
     3
100
AcDbLine
 10
7.60451731078377
 20
-0.66915581129213
 30
0.0
 11
7.00011783426175
 21
-0.66915581129213
 31
0.0
  0
LINE
  5
DE
330
1F
100
AcDbEntity
  8
1
  6
Continuous
 62
     3
100
AcDbLine
 10
11.99999999998791
 20
-3.76620763089771
 30
0.0
 11
11.99999999998791
 21
-3.33222909297757
 31
0.0
  0
LINE
  5
DF
330
1F
100
AcDbEntity
  8
1
  6
Continuous
 62
     3
100
AcDbLine
 10
8.43920663904563
 20
-3.81110196240671
 30
0.0
 11
11.95510566847893
 21
-3.81110196240671
 31
0.0
  0
LINE
  5
E0
330
1F
100
AcDbEntity
  8
1
  6
Continuous
 62
     3
100
AcDbLine
 10
8.39431230753664
 20
-4.45781312790702
 30
0.0
 11
8.39431230753664
 21
-3.85599629391568
 31
0.0
  0
LINE
  5
E1
330
1F
100
AcDbEntity
  8
1
  6
Continuous
 62
     3
100
AcDbLine
 10
6.09507601727865
 20
-3.68507530676703
 30
0.0
 11
8.33406321033047
 21
-4.4999999999411
 31
0.0
  0
LINE
  5
E2
330
1F
100
AcDbEntity
  8
1
  6
Continuous
 62
     3
100
AcDbLine
 10
8.33406321033047
 20
-2.59843672393419
 30
0.0
 11
6.09507601727865
 21
-3.41336141710826
 31
0.0
  0
LINE
  5
E3
330
1F
100
AcDbEntity
  8
1
  6
Continuous
 62
     3
100
AcDbLine
 10
8.39431230753664
 20
-3.24244042995959
 30
0.0
 11
8.39431230753664
 21
-2.64062359596829
 31
0.0
  0
LINE
  5
E4
330
1F
100
AcDbEntity
  8
1
  6
Continuous
 62
     3
100
AcDbLine
 10
11.95510566847893
 20
-3.28733476146859
 30
0.0
 11
8.43920663904563
 21
-3.28733476146859
 31
0.0
  0
LINE
  5
E5
330
1F
100
AcDbEntity
  8
0
  6
Continuous
 62
     3
100
AcDbLine
 10
3.9999999999861
 20
13.58967831198963
 30
0.0
 11
3.9999999999861
 21
-16.50000000002457
 31
0.0
  0
LINE
  5
E6
330
1F
100
AcDbEntity
  8
1
  6
Continuous
 62
     3
100
AcDbLine
 10
19.99999999998793
 20
-17.69999999998787
 30
0.0
 11
19.99999999998793
 21
17.70000000001217
 31
0.0
  0
LINE
  5
E7
330
1F
100
AcDbEntity
  8
1
  6
Continuous
 62
     3
100
AcDbLine
 10
16.99999999998785
 20
95.80149451071311
 30
0.0
 11
16.99999999998785
 21
86.74150438262139
 31
0.0
  0
LINE
  5
E8
330
1F
100
AcDbEntity
  8
1
  6
Continuous
 62
     3
100
AcDbLine
 10
16.49999999998785
 20
96.30149451071311
 30
0.0
 11
16.49999999998785
 21
86.84868405959385
 31
0.0
  0
LINE
  5
E9
330
1F
100
AcDbEntity
  8
1
  6
Continuous
 62
     3
100
AcDbLine
 10
17.49999999998796
 20
86.57596754852189
 30
0.0
 11
17.49999999998796
 21
96.30149451071311
 31
0.0
  0
LINE
  5
EA
330
1F
100
AcDbEntity
  8
1
  6
Continuous
 62
     3
100
AcDbLine
 10
19.99999999998785
 20
85.9108618860849
 30
0.0
 11
19.99999999998785
 21
94.80149451071311
 31
0.0
  0
LINE
  5
EB
330
1F
100
AcDbEntity
  8
1
  6
Continuous
 62
     3
100
AcDbLine
 10
19.99999999998785
 20
61.80149451071311
 30
0.0
 11
19.99999999998785
 21
70.69212713534144
 31
0.0
  0
LINE
  5
EC
330
1F
100
AcDbEntity
  8
1
  6
Continuous
 62
     3
100
AcDbLine
 10
16.49999999998785
 20
69.75430496183249
 30
0.0
 11
16.49999999998785
 21
60.30149451071311
 31
0.0
  0
LINE
  5
ED
330
1F
100
AcDbEntity
  8
1
  6
Continuous
 62
     3
100
AcDbLine
 10
16.99999999998785
 20
69.86148463880507
 30
0.0
 11
16.99999999998785
 21
60.80149451071311
 31
0.0
  0
LINE
  5
EE
330
1F
100
AcDbEntity
  8
1
  6
Continuous
 62
     3
100
AcDbLine
 10
17.49999999998796
 20
60.30149451071311
 30
0.0
 11
17.49999999998796
 21
70.0082263010407
 31
0.0
  0
LINE
  5
EF
330
1F
100
AcDbEntity
  8
0
  6
Continuous
 62
     3
100
AcDbLine
 10
16.49999999998785
 20
60.30149451045959
 30
0.0
 11
14.78994949364904
 21
60.30149451045959
 31
0.0
  0
LINE
  5
F0
330
1F
100
AcDbEntity
  8
0
  6
Continuous
 62
     3
100
AcDbLine
 10
14.20502525315727
 20
60.59646925729005
 30
0.0
 11
14.29497474681842
 21
60.50651976362902
 31
0.0
  0
LINE
  5
F1
330
1F
100
AcDbEntity
  8
1
  6
Continuous
 62
     3
100
AcDbLine
 10
16.99999999998785
 20
60.80149451071311
 30
0.0
 11
17.49999999998796
 21
60.30149451071311
 31
0.0
  0
LINE
  5
F2
330
1F
100
AcDbEntity
  8
1
  6
Continuous
 62
     3
100
AcDbLine
 10
19.49999999998785
 20
60.30149451071311
 30
0.0
 11
17.49999999998796
 21
60.30149451071311
 31
0.0
  0
LINE
  5
F3
330
1F
100
AcDbEntity
  8
1
  6
Continuous
 62
     3
100
AcDbLine
 10
19.99999999998785
 20
64.16247993180885
 30
0.0
 11
29.84529946160866
 21
64.16247993180885
 31
0.0
  0
LINE
  5
F4
330
1F
100
AcDbEntity
  8
1
  6
Continuous
 62
     3
100
AcDbLine
 10
30.71132486539308
 20
62.30149451071311
 30
0.0
 11
20.49999999998785
 21
62.30149451071311
 31
0.0
  0
LINE
  5
F5
330
1F
100
AcDbEntity
  8
1
  6
Continuous
 62
     3
100
AcDbLine
 10
19.99999999998785
 20
60.80149451071311
 30
0.0
 11
19.99999999998785
 21
61.80149451071311
 31
0.0
  0
LINE
  5
F6
330
1F
100
AcDbEntity
  8
1
  6
Continuous
 62
     3
100
AcDbLine
 10
16.49999999998785
 20
60.30149451071311
 30
0.0
 11
16.99999999998785
 21
60.80149451071311
 31
0.0
  0
LINE
  5
F7
330
1F
100
AcDbEntity
  8
1
  6
Continuous
 62
     3
100
AcDbLine
 10
30.99999999998785
 20
78.30149451071311
 30
0.0
 11
30.99999999998785
 21
93.80149451071311
 31
0.0
  0
LINE
  5
F8
330
1F
100
AcDbEntity
  8
1
  6
Continuous
 62
     3
100
AcDbLine
 10
29.84529946160866
 20
62.30149451071311
 30
0.0
 11
29.84529946160866
 21
64.16247993180885
 31
0.0
  0
LINE
  5
F9
330
1F
100
AcDbEntity
  8
1
  6
Continuous
 62
     3
100
AcDbLine
 10
29.84529946160866
 20
76.44050908961738
 30
0.0
 11
29.84529946160866
 21
80.16247993180885
 31
0.0
  0
LINE
  5
FA
330
1F
100
AcDbEntity
  8
1
  6
Continuous
 62
     3
100
AcDbLine
 10
30.99999999998785
 20
62.80149451071311
 30
0.0
 11
30.99999999998785
 21
78.30149451071311
 31
0.0
  0
LINE
  5
FB
330
1F
100
AcDbEntity
  8
1
  6
Continuous
 62
     3
100
AcDbLine
 10
30.71132486539308
 20
62.30149451071311
 30
0.0
 11
30.99999999998785
 21
62.80149451071311
 31
0.0
  0
LINE
  5
FC
330
1F
100
AcDbEntity
  8
1
  6
Continuous
 62
     3
100
AcDbLine
 10
19.99999999998785
 20
94.80149451071311
 30
0.0
 11
19.99999999998785
 21
95.80149451071311
 31
0.0
  0
LINE
  5
FD
330
1F
100
AcDbEntity
  8
1
  6
Continuous
 62
     3
100
AcDbLine
 10
17.49999999998796
 20
96.30149451071311
 30
0.0
 11
19.49999999998785
 21
96.30149451071311
 31
0.0
  0
LINE
  5
FE
330
1F
100
AcDbEntity
  8
1
  6
Continuous
 62
     3
100
AcDbLine
 10
17.49999999998796
 20
96.30149451071311
 30
0.0
 11
16.99999999998785
 21
95.80149451071311
 31
0.0
  0
LINE
  5
FF
330
1F
100
AcDbEntity
  8
1
  6
Continuous
 62
     3
100
AcDbLine
 10
20.49999999998785
 20
94.30149451071311
 30
0.0
 11
30.71132486539308
 21
94.30149451071311
 31
0.0
  0
LINE
  5
100
330
1F
100
AcDbEntity
  8
1
  6
Continuous
 62
     3
100
AcDbLine
 10
16.99999999998785
 20
95.80149451071311
 30
0.0
 11
16.49999999998785
 21
96.30149451071311
 31
0.0
  0
LINE
  5
101
330
1F
100
AcDbEntity
  8
1
  6
Continuous
 62
     3
100
AcDbLine
 10
29.84529946160866
 20
92.44050908961749
 30
0.0
 11
19.99999999998785
 21
92.44050908961749
 31
0.0
  0
LINE
  5
102
330
1F
100
AcDbEntity
  8
1
  6
Continuous
 62
     3
100
AcDbLine
 10
29.84529946160866
 20
92.44050908961749
 30
0.0
 11
29.84529946160866
 21
94.30149451071311
 31
0.0
  0
LINE
  5
103
330
1F
100
AcDbEntity
  8
1
  6
Continuous
 62
     3
100
AcDbLine
 10
30.99999999998785
 20
93.80149451071311
 30
0.0
 11
30.71132486539308
 21
94.30149451071311
 31
0.0
  0
LINE
  5
104
330
1F
100
AcDbEntity
  8
0
  6
Continuous
 62
     3
100
AcDbLine
 10
14.78994949364904
 20
96.30149451064615
 30
0.0
 11
16.49999999998785
 21
96.30149451071311
 31
0.0
  0
LINE
  5
105
330
1F
100
AcDbEntity
  8
1
  6
Continuous
 62
     3
100
AcDbLine
 10
29.84529946160866
 20
10.31204474087384
 30
0.0
 11
29.84529946160866
 21
7.08872343939119
 31
0.0
  0
LINE
  5
106
330
1F
100
AcDbEntity
  8
1
  6
Continuous
 62
     3
100
AcDbLine
 10
29.84529946160866
 20
-7.08872343936672
 30
0.0
 11
29.84529946160866
 21
-10.31204474084949
 31
0.0
  0
LINE
  5
107
330
1F
100
AcDbEntity
  8
1
  6
Continuous
 62
     3
100
AcDbLine
 10
29.84529946160866
 20
-10.31204474084949
 30
0.0
 11
19.99999999998785
 21
-10.31204474084926
 31
0.0
  0
LINE
  5
108
330
1F
100
AcDbEntity
  8
1
  6
Continuous
 62
     3
100
AcDbLine
 10
29.84529946160866
 20
-7.08872343936672
 30
0.0
 11
19.99999999998785
 21
-7.08872343936672
 31
0.0
  0
LINE
  5
109
330
1F
100
AcDbEntity
  8
1
  6
Continuous
 62
     3
100
AcDbLine
 10
29.84529946160866
 20
7.08872343939119
 30
0.0
 11
19.99999999998785
 21
7.08872343939119
 31
0.0
  0
LINE
  5
10A
330
1F
100
AcDbEntity
  8
1
  6
Continuous
 62
     3
100
AcDbLine
 10
29.84529946160866
 20
10.31204474087384
 30
0.0
 11
19.99999999998785
 21
10.31204474087384
 31
0.0
  0
LINE
  5
10B
330
1F
100
AcDbEntity
  8
1
  6
Continuous
 62
     3
100
AcDbLine
 10
-97.60281931613275
 20
10.0626315767553
 30
0.0
 11
-97.60281931613275
 21
-9.9373684232447
 31
0.0
  0
LINE
  5
10C
330
1F
100
AcDbEntity
  8
1
  6
Continuous
 62
     3
100
AcDbLine
 10
-84.72058408150215
 20
11.00000000001239
 30
0.0
 11
-84.72058408150215
 21
-10.99999999998761
 31
0.0
  0
LINE
  5
10D
330
1F
100
AcDbEntity
  8
1
  6
Continuous
 62
     3
100
AcDbLine
 10
-87.42229000367374
 20
-6.35085296107374
 30
0.0
 11
-93.22058408150215
 21
-6.35085296107367
 31
0.0
  0
LINE
  5
10E
330
1F
100
AcDbEntity
  8
1
  6
Continuous
 62
     3
100
AcDbLine
 10
-87.42229000367374
 20
6.35085296109803
 30
0.0
 11
-93.22058408150215
 21
6.35085296109803
 31
0.0
  0
LINE
  5
10F
330
1F
100
AcDbEntity
  8
1
  6
Continuous
 62
     3
100
AcDbLine
 10
-107.4205840815021
 20
9.70850000001217
 30
0.0
 11
-107.4205840815021
 21
-9.70849999998786
 31
0.0
  0
LINE
  5
110
330
1F
100
AcDbEntity
  8
1
  6
DOT_CENTER
 62
     3
100
AcDbLine
 10
-47.27058408150187
 20
0.00000000001218
 30
0.0
 11
-50.02058408150208
 21
0.00000000001218
 31
0.0
  0
LINE
  5
111
330
1F
100
AcDbEntity
  8
1
  6
Continuous
 62
     3
100
AcDbLine
 10
-93.22058408150245
 20
12.70170592218418
 30
0.0
 11
-87.42229000367374
 21
12.70170592218409
 31
0.0
  0
LINE
  5
112
330
1F
100
AcDbEntity
  8
1
  6
Continuous
 62
     3
100
AcDbLine
 10
-107.5205840815019
 20
-10.79999999998762
 30
0.0
 11
-97.60281931613261
 21
-10.79999999998761
 31
0.0
  0
LINE
  5
113
330
1F
100
AcDbEntity
  8
1
  6
Continuous
 62
     3
100
AcDbLine
 10
-110.5205840815019
 20
7.8000000000124
 30
0.0
 11
-110.5205840815019
 21
-7.79999999998762
 31
0.0
  0
LINE
  5
114
330
1F
100
AcDbEntity
  8
1
  6
Continuous
 62
     3
100
AcDbLine
 10
-97.60281931613261
 20
10.80000000001239
 30
0.0
 11
-107.5205840815019
 21
10.80000000001239
 31
0.0
  0
LINE
  5
115
330
1F
100
AcDbEntity
  8
1
  6
Continuous
 62
     3
100
AcDbLine
 10
-87.42229000367374
 20
-12.70170592215942
 30
0.0
 11
-93.22058408150193
 21
-12.70170592215938
 31
0.0
  0
LINE
  5
116
330
1F
100
AcDbEntity
  8
1
  6
Continuous
 62
     3
100
AcDbLine
 10
-85.22058408150215
 20
-10.49999999998761
 30
0.0
 11
-85.22058408150215
 21
10.50000000001239
 31
0.0
  0
LINE
  5
117
330
1F
100
AcDbEntity
  8
1
  6
Continuous
 62
     3
100
AcDbLine
 10
-87.42229000367374
 20
12.70170592218409
 30
0.0
 11
-85.22058408150215
 21
10.50000000001239
 31
0.0
  0
LINE
  5
118
330
1F
100
AcDbEntity
  8
1
  6
Continuous
 62
     3
100
AcDbLine
 10
-85.22058408150215
 20
-10.49999999998761
 30
0.0
 11
-87.42229000367374
 21
-12.70170592215942
 31
0.0
  0
LINE
  5
119
330
1F
100
AcDbEntity
  8
1
  6
Continuous
 62
     3
100
AcDbLine
 10
-85.22058408150215
 20
10.50000000001239
 30
0.0
 11
-84.72058408150215
 21
11.00000000001239
 31
0.0
  0
LINE
  5
11A
330
1F
100
AcDbEntity
  8
1
  6
Continuous
 62
     3
100
AcDbLine
 10
-85.22058408150215
 20
-10.49999999998761
 30
0.0
 11
-84.72058408150215
 21
-10.99999999998761
 31
0.0
  0
LINE
  5
11B
330
1F
100
AcDbEntity
  8
1
  6
DOT_CENTER
 62
     3
100
AcDbLine
 10
-15.15115057669148
 20
78.3014945106769
 30
0.0
 11
33.26377673165564
 21
78.3014945106769
 31
0.0
  0
LINE
  5
11C
330
1F
100
AcDbEntity
  8
0
  6
Continuous
 62
     3
100
AcDbLine
 10
3.99999999998604
 20
62.29368391716572
 30
0.0
 11
3.99999999998604
 21
61.80149451065152
 31
0.0
  0
LINE
  5
11D
330
1F
100
AcDbEntity
  8
0
  6
Continuous
 62
     3
100
AcDbLine
 10
-4.03112887351855
 20
62.3014945105863
 30
0.0
 11
-30.71132486541737
 21
62.3014945105863
 31
0.0
  0
LINE
  5
11E
330
1F
100
AcDbEntity
  8
0
  6
Continuous
 62
     3
100
AcDbLine
 10
-15.60000000001216
 20
69.4871426407385
 30
0.0
 11
-15.60000000001216
 21
63.3014945105863
 31
0.0
  0
LINE
  5
11F
330
1F
100
AcDbEntity
  8
0
  6
Continuous
 62
     3
100
AcDbLine
 10
-9.90089782691905
 20
91.50082109285661
 30
0.0
 11
-14.60000000001216
 21
91.50082109285661
 31
0.0
  0
LINE
  5
120
330
1F
100
AcDbEntity
  8
0
  6
Continuous
 62
     3
100
AcDbLine
 10
13.99999999998783
 20
68.50966907324782
 30
0.0
 11
13.99999999998783
 21
61.3014945105617
 31
0.0
  0
LINE
  5
121
330
1F
100
AcDbEntity
  8
0
  6
Continuous
 62
     3
100
AcDbLine
 10
14.49999999998783
 20
68.9048297740298
 30
0.0
 11
14.49999999998783
 21
60.8014945105617
 31
0.0
  0
LINE
  5
122
330
1F
100
AcDbEntity
  8
0
  6
Continuous
 62
     3
100
AcDbLine
 10
11.99999999998775
 20
95.80149451077811
 30
0.0
 11
12.09539045138513
 21
95.80149451077811
 31
0.0
  0
LINE
  5
123
330
1F
100
AcDbEntity
  8
0
  6
Continuous
 62
     3
100
AcDbLine
 10
-15.60000000001216
 20
93.3014945109454
 30
0.0
 11
-15.60000000001216
 21
87.1158463807583
 31
0.0
  0
LINE
  5
124
330
1F
100
AcDbEntity
  8
0
  6
Continuous
 62
     3
100
AcDbLine
 10
-30.71132486541737
 20
94.30149451094549
 30
0.0
 11
-16.17072132680227
 21
94.30149451094549
 31
0.0
  0
LINE
  5
125
330
1F
100
AcDbEntity
  8
0
  6
Continuous
 62
     3
100
AcDbLine
 10
11.80000000136874
 20
95.80149451077641
 30
0.0
 11
13.71005050632664
 21
95.80149451077581
 31
0.0
  0
LINE
  5
126
330
1F
100
AcDbEntity
  8
1
  6
Continuous
 62
     3
100
AcDbLine
 10
4.39479620802493
 20
60.80149451058651
 30
0.0
 11
11.99999999998783
 21
60.80149451058651
 31
0.0
  0
LINE
  5
127
330
1F
100
AcDbEntity
  8
1
  6
Continuous
 62
     3
100
AcDbLine
 10
13.71005050632664
 20
60.80149451058931
 30
0.0
 11
11.99999999998783
 21
60.80149451058931
 31
0.0
  0
LINE
  5
128
330
1F
100
AcDbEntity
  8
0
  6
Continuous
 62
     3
100
AcDbLine
 10
-8.50000000001216
 20
63.55149451092332
 30
0.0
 11
-8.50000000001216
 21
64.15935888701732
 31
0.0
  0
LINE
  5
129
330
1F
100
AcDbEntity
  8
1
  6
Continuous
 62
     3
100
AcDbLine
 10
-19.60000000001216
 20
62.3014945107888
 30
0.0
 11
-19.60000000001216
 21
64.1624799319875
 31
0.0
  0
LINE
  5
12A
330
1F
100
AcDbEntity
  8
1
  6
Continuous
 62
     3
100
AcDbLine
 10
-19.60000000001216
 20
64.1624799319875
 30
0.0
 11
-29.84529946163295
 21
64.1624799319875
 31
0.0
  0
LINE
  5
12B
330
1F
100
AcDbEntity
  8
1
  6
Continuous
 62
     3
100
AcDbLine
 10
-19.60000000001216
 20
92.44050908958009
 30
0.0
 11
-19.60000000001216
 21
94.3014945107788
 31
0.0
  0
LINE
  5
12C
330
1F
100
AcDbEntity
  8
1
  6
Continuous
 62
     3
100
AcDbLine
 10
-29.84529946163295
 20
92.44050908958009
 30
0.0
 11
-19.60000000001216
 21
92.44050908958009
 31
0.0
  0
LINE
  5
12D
330
1F
100
AcDbEntity
  8
1
  6
Continuous
 62
     3
100
AcDbLine
 10
-29.84529946163295
 20
76.44050908958012
 30
0.0
 11
-24.93063844474926
 21
76.44050908958012
 31
0.0
  0
LINE
  5
12E
330
1F
100
AcDbEntity
  8
1
  6
Continuous
 62
     3
100
AcDbLine
 10
-29.84529946163295
 20
80.1624799317713
 30
0.0
 11
-24.93063844476006
 21
80.1624799317713
 31
0.0
  0
LINE
  5
12F
330
1F
100
AcDbEntity
  8
1
  6
Continuous
 62
     3
100
AcDbLine
 10
-29.84529946163295
 20
64.16247993205302
 30
0.0
 11
-29.84529946163295
 21
62.30149451085431
 31
0.0
  0
LINE
  5
130
330
1F
100
AcDbEntity
  8
1
  6
Continuous
 62
     3
100
AcDbLine
 10
-29.84529946163295
 20
94.3014945107788
 30
0.0
 11
-29.84529946163295
 21
92.44050908958009
 31
0.0
  0
LINE
  5
131
330
1F
100
AcDbEntity
  8
1
  6
Continuous
 62
     3
100
AcDbLine
 10
-29.84529946163295
 20
80.1624799317713
 30
0.0
 11
-29.84529946163295
 21
76.44050908958012
 31
0.0
  0
LINE
  5
132
330
1F
100
AcDbEntity
  8
0
  6
Continuous
 62
     3
100
AcDbLine
 10
13.99999999998783
 20
95.30149451055881
 30
0.0
 11
13.99999999998783
 21
88.09331994824909
 31
0.0
  0
LINE
  5
133
330
1F
100
AcDbEntity
  8
0
  6
Continuous
 62
     3
100
AcDbLine
 10
14.49999999998783
 20
95.80149451055881
 30
0.0
 11
14.49999999998783
 21
87.6981592474671
 31
0.0
  0
LINE
  5
134
330
1F
100
AcDbEntity
  8
1
  6
Continuous
 62
     3
100
AcDbLine
 10
-31.00000000001216
 20
62.8014945105863
 30
0.0
 11
-31.00000000001216
 21
93.8014945107788
 31
0.0
  0
LINE
  5
135
330
1F
100
AcDbEntity
  8
0
  6
Continuous
 62
     3
100
AcDbLine
 10
-30.71132486541737
 20
94.3014945107788
 30
0.0
 11
-31.00000000001216
 21
93.8014945107788
 31
0.0
  0
LINE
  5
136
330
1F
100
AcDbEntity
  8
0
  6
Continuous
 62
     3
100
AcDbLine
 10
14.29497474681844
 20
96.09646925760642
 30
0.0
 11
14.20502525315724
 21
96.00651976394529
 31
0.0
  0
LINE
  5
137
330
1F
100
AcDbEntity
  8
0
  6
Continuous
 62
     3
100
AcDbLine
 10
-31.00000000001216
 20
62.8014945105863
 30
0.0
 11
-30.71132486541737
 21
62.3014945105863
 31
0.0
  0
LINE
  5
138
330
1F
100
AcDbEntity
  8
0
  6
Continuous
 62
     3
100
AcDbLine
 10
14.20502525315724
 20
60.5964692574198
 30
0.0
 11
14.29497474681844
 21
60.5065197637587
 31
0.0
  0
LINE
  5
139
330
1F
100
AcDbEntity
  8
1
  6
Continuous
 62
     3
100
AcDbLine
 10
10.99999999998775
 20
97.50149451072541
 30
0.0
 11
10.99999999998783
 21
97.50149451071321
 31
0.0
  0
LINE
  5
13A
330
1F
100
AcDbEntity
  8
1
  6
Continuous
 62
     3
100
AcDbLine
 10
-10.50000000001225
 20
98.00149451072541
 30
0.0
 11
10.49999999998775
 21
98.00149451072541
 31
0.0
  0
LINE
  5
13B
330
1F
100
AcDbEntity
  8
1
  6
Continuous
 62
     3
100
AcDbLine
 10
-11.00000000001225
 20
95.30149451080449
 30
0.0
 11
-11.00000000001225
 21
97.50149451071299
 31
0.0
  0
LINE
  5
13C
330
1F
100
AcDbEntity
  8
1
  6
Continuous
 62
     3
100
AcDbLine
 10
10.49999999998775
 20
98.00149451072541
 30
0.0
 11
10.99999999998775
 21
97.50149451072541
 31
0.0
  0
LINE
  5
13D
330
1F
100
AcDbEntity
  8
1
  6
Continuous
 62
     3
100
AcDbLine
 10
-11.00000000001225
 20
97.50149451072541
 30
0.0
 11
-10.50000000001225
 21
98.00149451072541
 31
0.0
  0
LINE
  5
13E
330
1F
100
AcDbEntity
  8
0
  6
Continuous
 62
     3
100
AcDbLine
 10
-16.17072132680227
 20
94.30149451080449
 30
0.0
 11
-12.00000000001225
 21
94.30149451080449
 31
0.0
  0
LINE
  5
13F
330
1F
100
AcDbEntity
  8
0
  6
Continuous
 62
     3
100
AcDbLine
 10
-14.60000000001216
 20
66.45882213962152
 30
0.0
 11
-11.55589579900226
 21
66.45882213962152
 31
0.0
  0
LINE
  5
140
330
1F
100
AcDbEntity
  8
1
  6
Continuous
 62
     3
100
AcDbLine
 10
-7.50000000001217
 20
62.55149451092332
 30
0.0
 11
-4.91807889353396
 21
62.5514945108405
 31
0.0
  0
LINE
  5
141
330
1F
100
AcDbEntity
  8
1
  6
Continuous
 62
     3
100
AcDbLine
 10
10.99999999998783
 20
98.50149451071321
 30
0.0
 11
10.49999999998783
 21
98.00149451071321
 31
0.0
  0
LINE
  5
142
330
1F
100
AcDbEntity
  8
1
  6
Continuous
 62
     3
100
AcDbLine
 10
-10.50000000001217
 20
98.00149451071321
 30
0.0
 11
-11.00000000001225
 21
98.50149451071299
 31
0.0
  0
LINE
  5
143
330
1F
100
AcDbEntity
  8
1
  6
Continuous
 62
     3
100
AcDbLine
 10
-19.97500000001216
 20
81.30149451074821
 30
0.0
 11
-19.97500000001216
 21
79.80149451074821
 31
0.0
  0
LINE
  5
144
330
1F
100
AcDbEntity
  8
1
  6
Continuous
 62
     3
100
AcDbLine
 10
-19.97500000001216
 20
79.80149451074821
 30
0.0
 11
-16.00000000001217
 21
79.80149451074821
 31
0.0
  0
LINE
  5
145
330
1F
100
AcDbEntity
  8
1
  6
Continuous
 62
     3
100
AcDbLine
 10
-16.00000000001217
 20
79.80149451074821
 30
0.0
 11
-16.00000000001217
 21
81.30149451074821
 31
0.0
  0
LINE
  5
146
330
1F
100
AcDbEntity
  8
1
  6
Continuous
 62
     3
100
AcDbLine
 10
-16.00000000001217
 20
81.30149451074821
 30
0.0
 11
-19.97500000001216
 21
81.30149451074821
 31
0.0
  0
LINE
  5
147
330
1F
100
AcDbEntity
  8
1
  6
Continuous
 62
     3
100
AcDbLine
 10
-19.97500000001216
 20
79.05149451074821
 30
0.0
 11
-19.97500000001216
 21
77.55149451074821
 31
0.0
  0
LINE
  5
148
330
1F
100
AcDbEntity
  8
1
  6
Continuous
 62
     3
100
AcDbLine
 10
-19.97500000001216
 20
77.55149451074821
 30
0.0
 11
-16.00000000001217
 21
77.55149451074821
 31
0.0
  0
LINE
  5
149
330
1F
100
AcDbEntity
  8
1
  6
Continuous
 62
     3
100
AcDbLine
 10
-16.00000000001217
 20
77.55149451074821
 30
0.0
 11
-16.00000000001217
 21
79.05149451074821
 31
0.0
  0
LINE
  5
14A
330
1F
100
AcDbEntity
  8
1
  6
Continuous
 62
     3
100
AcDbLine
 10
-16.00000000001217
 20
79.05149451074821
 30
0.0
 11
-19.97500000001216
 21
79.05149451074821
 31
0.0
  0
LINE
  5
14B
330
1F
100
AcDbEntity
  8
1
  6
Continuous
 62
     3
100
AcDbLine
 10
-19.97500000001216
 20
76.80149451074821
 30
0.0
 11
-19.97500000001216
 21
75.30149451074821
 31
0.0
  0
LINE
  5
14C
330
1F
100
AcDbEntity
  8
1
  6
Continuous
 62
     3
100
AcDbLine
 10
-19.97500000001216
 20
75.30149451074821
 30
0.0
 11
-16.00000000001217
 21
75.30149451074821
 31
0.0
  0
LINE
  5
14D
330
1F
100
AcDbEntity
  8
1
  6
Continuous
 62
     3
100
AcDbLine
 10
-16.00000000001217
 20
75.30149451074821
 30
0.0
 11
-16.00000000001217
 21
76.80149451074821
 31
0.0
  0
LINE
  5
14E
330
1F
100
AcDbEntity
  8
1
  6
Continuous
 62
     3
100
AcDbLine
 10
-16.00000000001217
 20
76.80149451074821
 30
0.0
 11
-19.97500000001216
 21
76.80149451074821
 31
0.0
  0
LINE
  5
14F
330
1F
100
AcDbEntity
  8
1
  6
Continuous
 62
     3
100
AcDbLine
 10
15.83434124799704
 20
86.5094086944544
 30
0.0
 11
22.86564951144194
 21
84.62537532353029
 31
0.0
  0
LINE
  5
150
330
1F
100
AcDbEntity
  8
1
  6
Continuous
 62
     3
100
AcDbLine
 10
16.07702789989914
 20
86.96201909226879
 30
0.0
 11
23.28748225409365
 21
85.02998367100069
 31
0.0
  0
LINE
  5
151
330
1F
100
AcDbEntity
  8
1
  6
Continuous
 62
     3
100
AcDbLine
 10
14.15718507697895
 20
68.64156301337762
 30
0.0
 11
10.60599555981574
 21
65.66176119928532
 31
0.0
  0
LINE
  5
152
330
1F
100
AcDbEntity
  8
1
  6
Continuous
 62
     3
100
AcDbLine
 10
10.05704382919933
 20
65.85738468250752
 30
0.0
 11
13.91449842507714
 21
69.09417341119162
 31
0.0
  0
LINE
  5
153
330
1F
100
AcDbEntity
  8
1
  6
Continuous
 62
     3
100
AcDbLine
 10
10.60599555981574
 20
90.94122782221139
 30
0.0
 11
14.15718507697895
 21
87.96142600811929
 31
0.0
  0
LINE
  5
154
330
1F
100
AcDbEntity
  8
1
  6
Continuous
 62
     3
100
AcDbLine
 10
13.91449842507714
 20
87.5088156103049
 30
0.0
 11
10.05704382919933
 21
90.7456043389892
 31
0.0
  0
LINE
  5
155
330
1F
100
AcDbEntity
  8
1
  6
Continuous
 62
     3
100
AcDbLine
 10
10.60599555981574
 20
90.94122782221139
 30
0.0
 11
14.15718507697895
 21
87.96142600811929
 31
0.0
  0
LINE
  5
156
330
1F
100
AcDbEntity
  8
1
  6
Continuous
 62
     3
100
AcDbLine
 10
-10.05704382922366
 20
90.7456043389892
 30
0.0
 11
-13.91449842510136
 21
87.5088156103049
 31
0.0
  0
LINE
  5
157
330
1F
100
AcDbEntity
  8
1
  6
Continuous
 62
     3
100
AcDbLine
 10
-14.15718507700325
 20
87.96142600811929
 30
0.0
 11
-10.60599555984015
 21
90.94122782221139
 31
0.0
  0
LINE
  5
158
330
1F
100
AcDbEntity
  8
1
  6
Continuous
 62
     3
100
AcDbLine
 10
-15.83434124802145
 20
70.09358032704212
 30
0.0
 11
-22.86564951146625
 21
71.9776136979667
 31
0.0
  0
LINE
  5
159
330
1F
100
AcDbEntity
  8
1
  6
Continuous
 62
     3
100
AcDbLine
 10
-13.91449842510136
 20
69.09417341119162
 30
0.0
 11
-10.05704382922366
 21
65.85738468250752
 31
0.0
  0
LINE
  5
15A
330
1F
100
AcDbEntity
  8
1
  6
Continuous
 62
     3
100
AcDbLine
 10
-16.07702789992345
 20
69.64096992922812
 30
0.0
 11
-23.28748225411795
 21
71.57300535049582
 31
0.0
  0
LINE
  5
15B
330
1F
100
AcDbEntity
  8
1
  6
Continuous
 62
     3
100
AcDbLine
 10
-10.60599555984015
 20
65.66176119928532
 30
0.0
 11
-14.15718507700325
 21
68.64156301337762
 31
0.0
  0
LINE
  5
15C
330
1F
100
AcDbEntity
  8
1
  6
Continuous
 62
     3
100
AcDbLine
 10
-13.52755962388116
 20
84.8020777303792
 30
0.0
 11
-21.93048473860165
 21
81.9494974006805
 31
0.0
  0
LINE
  5
15D
330
1F
100
AcDbEntity
  8
1
  6
Continuous
 62
     3
100
AcDbLine
 10
-21.93048473860165
 20
74.6534916208161
 30
0.0
 11
-13.52755962388116
 21
71.8009112911178
 31
0.0
  0
LINE
  5
15E
330
1F
100
AcDbEntity
  8
1
  6
Continuous
 62
     3
100
AcDbLine
 10
-23.28748225411795
 20
85.02998367100069
 30
0.0
 11
-16.07702789992345
 21
86.96201909226879
 31
0.0
  0
LINE
  5
15F
330
1F
100
AcDbEntity
  8
1
  6
Continuous
 62
     3
100
AcDbLine
 10
-22.86564951146625
 20
84.62537532353029
 30
0.0
 11
-15.83434124802145
 21
86.5094086944544
 31
0.0
  0
LINE
  5
160
330
1F
100
AcDbEntity
  8
1
  6
Continuous
 62
     3
100
AcDbLine
 10
22.86564951144194
 20
71.9776136979667
 30
0.0
 11
15.83434124799704
 21
70.09358032704212
 31
0.0
  0
LINE
  5
161
330
1F
100
AcDbEntity
  8
1
  6
Continuous
 62
     3
100
AcDbLine
 10
23.28748225409365
 20
71.57300535049582
 30
0.0
 11
16.07702789989914
 21
69.64096992922812
 31
0.0
  0
LINE
  5
162
330
1F
100
AcDbEntity
  8
1
  6
Continuous
 62
     3
100
AcDbLine
 10
21.93048473857723
 20
81.9494974006805
 30
0.0
 11
13.52755962385684
 21
84.8020777303792
 31
0.0
  0
LINE
  5
163
330
1F
100
AcDbEntity
  8
1
  6
Continuous
 62
     3
100
AcDbLine
 10
13.52755962385684
 20
71.8009112911178
 30
0.0
 11
21.93048473857723
 21
74.6534916208161
 31
0.0
  0
LINE
  5
164
330
1F
100
AcDbEntity
  8
1
  6
Continuous
 62
     3
100
AcDbLine
 10
4.04145188431514
 20
78.30149451074821
 30
0.0
 11
2.02072594215144
 21
81.80149451074821
 31
0.0
  0
LINE
  5
165
330
1F
100
AcDbEntity
  8
1
  6
Continuous
 62
     3
100
AcDbLine
 10
2.02072594215144
 20
74.80149451074821
 30
0.0
 11
4.04145188431514
 21
78.30149451074821
 31
0.0
  0
LINE
  5
166
330
1F
100
AcDbEntity
  8
1
  6
Continuous
 62
     3
100
AcDbLine
 10
-4.04145188433955
 20
78.30149451074821
 30
0.0
 11
-2.02072594217586
 21
74.80149451074821
 31
0.0
  0
LINE
  5
167
330
1F
100
AcDbEntity
  8
1
  6
Continuous
 62
     3
100
AcDbLine
 10
-2.02072594217586
 20
81.80149451074821
 30
0.0
 11
-4.04145188433955
 21
78.30149451074821
 31
0.0
  0
LINE
  5
168
330
1F
100
AcDbEntity
  8
1
  6
Continuous
 62
     3
100
AcDbLine
 10
2.02072594215144
 20
81.80149451074821
 30
0.0
 11
-2.02072594217586
 21
81.80149451074821
 31
0.0
  0
LINE
  5
169
330
1F
100
AcDbEntity
  8
1
  6
Continuous
 62
     3
100
AcDbLine
 10
11.99999999998783
 20
79.80149451074821
 30
0.0
 11
5.80947501929904
 21
79.80149451074821
 31
0.0
  0
LINE
  5
16A
330
1F
100
AcDbEntity
  8
1
  6
Continuous
 62
     3
100
AcDbLine
 10
11.99999999998783
 20
76.80149451074821
 30
0.0
 11
5.80947501929904
 21
76.80149451074821
 31
0.0
  0
LINE
  5
16B
330
1F
100
AcDbEntity
  8
1
  6
Continuous
 62
     3
100
AcDbLine
 10
0.99999999998784
 20
68.30149451060562
 30
0.0
 11
0.99999999998784
 21
72.38541472750602
 31
0.0
  0
LINE
  5
16C
330
1F
100
AcDbEntity
  8
1
  6
Continuous
 62
     3
100
AcDbLine
 10
-1.00000000001216
 20
72.38541472750602
 30
0.0
 11
-1.00000000001216
 21
68.30149451060562
 31
0.0
  0
LINE
  5
16D
330
1F
100
AcDbEntity
  8
1
  6
Continuous
 62
     3
100
AcDbLine
 10
11.99999999998783
 20
76.80149451074821
 30
0.0
 11
12.86602540377224
 21
78.30149451074821
 31
0.0
  0
LINE
  5
16E
330
1F
100
AcDbEntity
  8
1
  6
Continuous
 62
     3
100
AcDbLine
 10
12.86602540377224
 20
78.30149451074821
 30
0.0
 11
11.99999999998783
 21
79.80149451074821
 31
0.0
  0
LINE
  5
16F
330
1F
100
AcDbEntity
  8
1
  6
Continuous
 62
     3
100
AcDbLine
 10
-5.80947501932326
 20
79.80149451074821
 30
0.0
 11
-12.00000000001217
 21
79.80149451074841
 31
0.0
  0
LINE
  5
170
330
1F
100
AcDbEntity
  8
1
  6
Continuous
 62
     3
100
AcDbLine
 10
-5.80947501932326
 20
76.80149451074821
 30
0.0
 11
-12.00000000001217
 21
76.80149451074841
 31
0.0
  0
LINE
  5
171
330
1F
100
AcDbEntity
  8
1
  6
Continuous
 62
     3
100
AcDbLine
 10
-12.86602540379656
 20
78.30149451074841
 30
0.0
 11
-12.00000000001217
 21
76.80149451074841
 31
0.0
  0
LINE
  5
172
330
1F
100
AcDbEntity
  8
1
  6
Continuous
 62
     3
100
AcDbLine
 10
-12.00000000001217
 20
79.80149451074841
 30
0.0
 11
-12.86602540379656
 21
78.30149451074841
 31
0.0
  0
LINE
  5
173
330
1F
100
AcDbEntity
  8
1
  6
Continuous
 62
     3
100
AcDbLine
 10
-0.00000000001216
 20
67.72414424141571
 30
0.0
 11
-1.00000000001216
 21
68.30149451060562
 31
0.0
  0
LINE
  5
174
330
1F
100
AcDbEntity
  8
1
  6
Continuous
 62
     3
100
AcDbLine
 10
0.99999999998784
 20
68.30149451060562
 30
0.0
 11
-0.00000000001216
 21
67.72414424141571
 31
0.0
  0
LINE
  5
175
330
1F
100
AcDbEntity
  8
1
  6
DOT_CENTER
 62
     3
100
AcDbLine
 10
10.60660171778593
 20
88.9080962282507
 30
0.0
 11
4.24264068710704
 21
82.54413519757189
 31
0.0
  0
LINE
  5
176
330
1F
100
AcDbEntity
  8
1
  6
Continuous
 62
     3
100
AcDbLine
 10
-11.00000000001225
 20
97.50149451071299
 30
0.0
 11
-10.50000000001217
 21
98.00149451071321
 31
0.0
  0
LINE
  5
177
330
1F
100
AcDbEntity
  8
1
  6
Continuous
 62
     3
100
AcDbLine
 10
10.49999999998783
 20
98.00149451071321
 30
0.0
 11
10.99999999998783
 21
97.50149451071321
 31
0.0
  0
LINE
  5
178
330
1F
100
AcDbEntity
  8
1
  6
Continuous
 62
     3
100
AcDbLine
 10
5.92462120244665
 20
84.8600903091273
 30
0.0
 11
7.42462120244665
 21
83.9940649053426
 31
0.0
  0
LINE
  5
179
330
1F
100
AcDbEntity
  8
1
  6
Continuous
 62
     3
100
AcDbLine
 10
5.92462120244665
 20
86.5921411166958
 30
0.0
 11
5.92462120244665
 21
84.8600903091273
 31
0.0
  0
LINE
  5
17A
330
1F
100
AcDbEntity
  8
1
  6
Continuous
 62
     3
100
AcDbLine
 10
7.42462120244665
 20
87.45816652048039
 30
0.0
 11
5.92462120244665
 21
86.5921411166958
 31
0.0
  0
LINE
  5
17B
330
1F
100
AcDbEntity
  8
1
  6
Continuous
 62
     3
100
AcDbLine
 10
8.92462120244664
 20
86.5921411166958
 30
0.0
 11
7.42462120244665
 21
87.45816652048039
 31
0.0
  0
LINE
  5
17C
330
1F
100
AcDbEntity
  8
1
  6
Continuous
 62
     3
100
AcDbLine
 10
8.92462120244664
 20
84.8600903091273
 30
0.0
 11
8.92462120244664
 21
86.5921411166958
 31
0.0
  0
LINE
  5
17D
330
1F
100
AcDbEntity
  8
1
  6
Continuous
 62
     3
100
AcDbLine
 10
7.42462120244665
 20
83.9940649053426
 30
0.0
 11
8.92462120244664
 21
84.8600903091273
 31
0.0
  0
LINE
  5
17E
330
1F
100
AcDbEntity
  8
1
  6
Continuous
 62
     3
100
AcDbLine
 10
-4.04145188433935
 20
78.3014945104528
 30
0.0
 11
-2.02072594217586
 21
74.8014945104528
 31
0.0
  0
LINE
  5
17F
330
1F
100
AcDbEntity
  8
1
  6
Continuous
 62
     3
100
AcDbLine
 10
-2.02072594217586
 20
74.8014945104528
 30
0.0
 11
2.02072594215153
 21
74.8014945104528
 31
0.0
  0
LINE
  5
180
330
1F
100
AcDbEntity
  8
1
  6
DOT_CENTER
 62
     3
100
AcDbLine
 10
-33.52113611486936
 20
78.3014945106769
 30
0.0
 11
-21.98015300139238
 21
78.3014945106769
 31
0.0
  0
LINE
  5
181
330
1F
100
AcDbEntity
  8
1
  6
Continuous
 62
     3
100
AcDbLine
 10
-11.00000000001214
 20
106.0014945107132
 30
0.0
 11
-11.00000000001214
 21
108.8475005957701
 31
0.0
  0
LINE
  5
182
330
1F
100
AcDbEntity
  8
1
  6
Continuous
 62
     3
100
AcDbLine
 10
-10.80000000001215
 20
110.3837297453438
 30
0.0
 11
-10.80000000001221
 21
120.3294945107132
 31
0.0
  0
LINE
  5
183
330
1F
100
AcDbEntity
  8
1
  6
Continuous
 62
     3
100
AcDbLine
 10
-7.80000000001215
 20
123.3294945107132
 30
0.0
 11
-0.00000000001219
 21
123.3294945107131
 31
0.0
  0
LINE
  5
184
330
1F
100
AcDbEntity
  8
1
  6
Continuous
 62
     3
100
AcDbLine
 10
10.99999999998781
 20
108.8475005957701
 30
0.0
 11
10.99999999998781
 21
106.0014945107132
 31
0.0
  0
LINE
  5
185
330
1F
100
AcDbEntity
  8
1
  6
Continuous
 62
     3
100
AcDbLine
 10
10.79999999998782
 20
120.3294945107131
 30
0.0
 11
10.79999999998782
 21
110.3837297453438
 31
0.0
  0
LINE
  5
186
330
1F
100
AcDbEntity
  8
1
  6
Continuous
 62
     3
100
AcDbLine
 10
-11.00000000001219
 20
107.7514945107132
 30
0.0
 11
-11.00000000001225
 21
98.50149451071299
 31
0.0
  0
LINE
  5
187
330
1F
100
AcDbEntity
  8
1
  6
Continuous
 62
     3
100
AcDbLine
 10
-0.00000000001219
 20
106.0497885885413
 30
0.0
 11
-0.00000000001216
 21
100.2032004328849
 31
0.0
  0
LINE
  5
188
330
1F
100
AcDbEntity
  8
1
  6
Continuous
 62
     3
100
AcDbLine
 10
-10.50000000001217
 20
98.00149451071321
 30
0.0
 11
-11.00000000001225
 21
98.50149451071299
 31
0.0
  0
LINE
  5
189
330
1F
100
AcDbEntity
  8
1
  6
Continuous
 62
     3
100
AcDbLine
 10
10.99999999998783
 20
98.50149451071321
 30
0.0
 11
10.49999999998783
 21
98.00149451071321
 31
0.0
  0
LINE
  5
18A
330
1F
100
AcDbEntity
  8
1
  6
Continuous
 62
     3
100
AcDbLine
 10
10.99999999998783
 20
98.50149451071321
 30
0.0
 11
10.99999999998781
 21
106.0014945107132
 31
0.0
  0
LINE
  5
18B
330
1F
100
AcDbEntity
  8
1
  6
Continuous
 62
     3
100
AcDbLine
 10
9.70849999998782
 20
120.3294945107131
 30
0.0
 11
-9.70850000001221
 21
120.3294945107132
 31
0.0
  0
LINE
  5
18C
330
1F
100
AcDbEntity
  8
1
  6
Continuous
 62
     3
100
AcDbLine
 10
-0.00000000001219
 20
123.3294945107131
 30
0.0
 11
7.79999999998782
 21
123.3294945107131
 31
0.0
  0
LINE
  5
18D
330
1F
100
AcDbEntity
  8
1
  6
Continuous
 62
     3
100
AcDbLine
 10
-10.241568085092
 20
110.3837297453437
 30
0.0
 11
10.2521844875073
 21
110.3837297453437
 31
0.0
  0
LINE
  5
18E
330
1F
100
AcDbEntity
  8
1
  6
DOT_CENTER
 62
     3
100
AcDbLine
 10
-0.00000000001216
 20
58.38418942338571
 30
0.0
 11
-0.00000000001216
 21
124.6788590874255
 31
0.0
  0
LINE
  5
18F
330
1F
100
AcDbEntity
  8
1
  6
Continuous
 62
     3
100
AcDbLine
 10
-7.25000000001217
 20
20.30000000001213
 30
0.0
 11
-7.25000000001205
 21
17.75000000001218
 31
0.0
  0
LINE
  5
190
330
1F
100
AcDbEntity
  8
1
  6
Continuous
 62
     3
100
AcDbLine
 10
7.24999999998784
 20
20.30000000001213
 30
0.0
 11
7.24999999998795
 21
18.50000000001218
 31
0.0
  0
LINE
  5
191
330
1F
100
AcDbEntity
  8
1
  6
DOT_CENTER
 62
     3
100
AcDbLine
 10
-0.00000000001205
 20
-13.24999999998776
 30
0.0
 11
-0.00000000001216
 21
-17.71351351350135
 31
0.0
  0
LINE
  5
192
330
1F
100
AcDbEntity
  8
1
  6
DOT_CENTER
 62
     3
100
AcDbLine
 10
-33.15621621622836
 20
0.00000000001218
 30
0.0
 11
5.4226257041112
 21
0.00000000001218
 31
0.0
  0
LINE
  5
193
330
1F
100
AcDbEntity
  8
1
  6
DOT_CENTER
 62
     3
100
AcDbLine
 10
-0.00000000001216
 20
43.92943494547843
 30
0.0
 11
-0.00000000001205
 21
-13.24999999998776
 31
0.0
  0
LINE
  5
194
330
1F
100
AcDbEntity
  8
1
  6
Continuous
 62
     3
100
AcDbLine
 10
-29.84529946163286
 20
17.50000000001218
 30
0.0
 11
-31.00000000001216
 21
15.50000000001218
 31
0.0
  0
LINE
  5
195
330
1F
100
AcDbEntity
  8
1
  6
Continuous
 62
     3
100
AcDbLine
 10
-29.84529946163286
 20
17.50000000001218
 30
0.0
 11
-19.90161317205545
 21
17.50000000001218
 31
0.0
  0
LINE
  5
196
330
1F
100
AcDbEntity
  8
1
  6
Continuous
 62
     3
100
AcDbLine
 10
-19.90161317217877
 20
-17.49999999998782
 30
0.0
 11
-29.84529946163295
 21
-17.49999999998782
 31
0.0
  0
LINE
  5
197
330
1F
100
AcDbEntity
  8
1
  6
Continuous
 62
     3
100
AcDbLine
 10
16.49999999998793
 20
-17.99999999998782
 30
0.0
 11
16.99999999998793
 21
-17.49999999998782
 31
0.0
  0
LINE
  5
198
330
1F
100
AcDbEntity
  8
1
  6
Continuous
 62
     3
100
AcDbLine
 10
16.99999999998793
 20
-17.49999999998782
 30
0.0
 11
16.99999999998793
 21
17.50000000001218
 31
0.0
  0
LINE
  5
199
330
1F
100
AcDbEntity
  8
1
  6
Continuous
 62
     3
100
AcDbLine
 10
13.99999999998793
 20
-17.49999999998782
 30
0.0
 11
14.49999999998783
 21
-17.99999999998782
 31
0.0
  0
LINE
  5
19A
330
1F
100
AcDbEntity
  8
1
  6
Continuous
 62
     3
100
AcDbLine
 10
14.49999999998783
 20
-17.99999999998782
 30
0.0
 11
16.49999999998793
 21
-17.99999999998782
 31
0.0
  0
LINE
  5
19B
330
1F
100
AcDbEntity
  8
1
  6
Continuous
 62
     3
100
AcDbLine
 10
4.39479620782495
 20
-17.49999999998782
 30
0.0
 11
13.99999999998793
 21
-17.49999999998782
 31
0.0
  0
LINE
  5
19C
330
1F
100
AcDbEntity
  8
1
  6
Continuous
 62
     3
100
AcDbLine
 10
-31.00000000001205
 20
-15.49999999998782
 30
0.0
 11
-29.84529946163295
 21
-17.49999999998782
 31
0.0
  0
LINE
  5
19D
330
1F
100
AcDbEntity
  8
1
  6
Continuous
 62
     3
100
AcDbLine
 10
-8.00000000001205
 20
16.75000000001218
 30
0.0
 11
-8.00000000001205
 21
17.25000000001218
 31
0.0
  0
LINE
  5
19E
330
1F
100
AcDbEntity
  8
1
  6
Continuous
 62
     3
100
AcDbLine
 10
-7.75000000001205
 20
17.50000000001218
 30
0.0
 11
-7.50000000001205
 21
17.50000000001218
 31
0.0
  0
LINE
  5
19F
330
1F
100
AcDbEntity
  8
1
  6
Continuous
 62
     3
100
AcDbLine
 10
-31.00000000001216
 20
15.50000000001218
 30
0.0
 11
-31.00000000001205
 21
-15.49999999998782
 31
0.0
  0
LINE
  5
1A0
330
1F
100
AcDbEntity
  8
1
  6
Continuous
 62
     3
100
AcDbLine
 10
16.99999999998793
 20
17.50000000001218
 30
0.0
 11
16.49999999998793
 21
18.00000000001218
 31
0.0
  0
LINE
  5
1A1
330
1F
100
AcDbEntity
  8
1
  6
Continuous
 62
     3
100
AcDbLine
 10
14.49999999998783
 20
18.00000000001218
 30
0.0
 11
13.99999999998793
 21
17.50000000001218
 31
0.0
  0
LINE
  5
1A2
330
1F
100
AcDbEntity
  8
1
  6
Continuous
 62
     3
100
AcDbLine
 10
16.49999999998793
 20
18.00000000001218
 30
0.0
 11
14.49999999998783
 21
18.00000000001218
 31
0.0
  0
LINE
  5
1A3
330
1F
100
AcDbEntity
  8
1
  6
Continuous
 62
     3
100
AcDbLine
 10
13.99999999998793
 20
17.50000000001218
 30
0.0
 11
8.24999999998784
 21
17.50000000001218
 31
0.0
  0
LINE
  5
1A4
330
1F
100
AcDbEntity
  8
0
  6
Continuous
 62
     3
100
AcDbLine
 10
-9.00000000001205
 20
15.75000000001218
 30
0.0
 11
-13.94867272228345
 21
15.75000000001218
 31
0.0
  0
LINE
  5
1A5
330
1F
100
AcDbEntity
  8
0
  6
Continuous
 62
     3
100
AcDbLine
 10
-0.23526858653807
 20
-15.74999999998782
 30
0.0
 11
-13.94867272228345
 21
-15.74999999998782
 31
0.0
  0
LINE
  5
1A6
330
1F
100
AcDbEntity
  8
1
  6
DOT_CENTER
 62
     3
100
AcDbLine
 10
-67.77367185999738
 20
31.60000000001215
 30
0.0
 11
-64.27058408150214
 21
31.60000000001215
 31
0.0
  0
LINE
  5
1A7
330
1F
100
AcDbEntity
  8
1
  6
Continuous
 62
     3
100
AcDbLine
 10
-24.98183147790147
 20
28.32616797813365
 30
0.0
 11
-24.87838732495695
 21
30.35000000001226
 31
0.0
  0
LINE
  5
1A8
330
1F
100
AcDbEntity
  8
1
  6
Continuous
 62
     3
100
AcDbLine
 10
-24.87838732495695
 20
30.35000000001226
 30
0.0
 11
-24.74736787674937
 21
32.85000000001205
 31
0.0
  0
LINE
  5
1A9
330
1F
100
AcDbEntity
  8
1
  6
Continuous
 62
     3
100
AcDbLine
 10
-15.50496234987915
 20
20.58953015100146
 30
0.0
 11
-15.67577883885247
 21
25.48107439414163
 31
0.0
  0
LINE
  5
1AA
330
1F
100
AcDbEntity
  8
1
  6
Continuous
 62
     3
100
AcDbLine
 10
14.29233327035435
 20
20.30000000001225
 30
0.0
 11
15.20519082105324
 21
20.30000000001225
 31
0.0
  0
LINE
  5
1AB
330
1F
100
AcDbEntity
  8
1
  6
Continuous
 62
     3
100
AcDbLine
 10
15.75675750537934
 20
27.80000000001213
 30
0.0
 11
15.50514512960014
 21
20.59476427808104
 31
0.0
  0
LINE
  5
1AC
330
1F
100
AcDbEntity
  8
1
  6
Continuous
 62
     3
100
AcDbLine
 10
-24.74736787674937
 20
32.85000000001205
 30
0.0
 11
-24.47008289846025
 21
38.09091257219997
 31
0.0
  0
LINE
  5
1AD
330
1F
100
AcDbEntity
  8
1
  6
Continuous
 62
     3
100
AcDbLine
 10
-15.67577883885247
 20
25.48107439414163
 30
0.0
 11
-15.75675750540356
 21
27.80000000001213
 31
0.0
  0
LINE
  5
1AE
330
1F
100
AcDbEntity
  8
1
  6
Continuous
 62
     3
100
AcDbLine
 10
24.47008289843595
 20
38.09091257219997
 30
0.0
 11
24.98183147787724
 21
28.32616797813365
 31
0.0
  0
LINE
  5
1AF
330
1F
100
AcDbEntity
  8
1
  6
Continuous
 62
     3
100
AcDbLine
 10
29.84529946160855
 20
17.50000000001218
 30
0.0
 11
20.19999999998804
 21
17.50000000001218
 31
0.0
  0
LINE
  5
1B0
330
1F
100
AcDbEntity
  8
1
  6
Continuous
 62
     3
100
AcDbLine
 10
30.99999999998793
 20
15.50000000001218
 30
0.0
 11
29.84529946160855
 21
17.50000000001218
 31
0.0
  0
LINE
  5
1B1
330
1F
100
AcDbEntity
  8
1
  6
Continuous
 62
     3
100
AcDbLine
 10
17.49999999998793
 20
18.00000000001218
 30
0.0
 11
16.99999999998793
 21
17.50000000001218
 31
0.0
  0
LINE
  5
1B2
330
1F
100
AcDbEntity
  8
1
  6
Continuous
 62
     3
100
AcDbLine
 10
30.99999999998783
 20
-15.49999999998782
 30
0.0
 11
30.99999999998793
 21
15.50000000001218
 31
0.0
  0
LINE
  5
1B3
330
1F
100
AcDbEntity
  8
1
  6
Continuous
 62
     3
100
AcDbLine
 10
19.99999999998793
 20
17.70000000001217
 30
0.0
 11
19.99999999998793
 21
17.80000000001213
 31
0.0
  0
LINE
  5
1B4
330
1F
100
AcDbEntity
  8
1
  6
Continuous
 62
     3
100
AcDbLine
 10
19.79999999998795
 20
18.00000000001218
 30
0.0
 11
17.49999999998793
 21
18.00000000001218
 31
0.0
  0
LINE
  5
1B5
330
1F
100
AcDbEntity
  8
1
  6
Continuous
 62
     3
100
AcDbLine
 10
20.19999999998804
 20
-17.49999999998782
 30
0.0
 11
29.84529946160865
 21
-17.49999999998782
 31
0.0
  0
LINE
  5
1B6
330
1F
100
AcDbEntity
  8
1
  6
Continuous
 62
     3
100
AcDbLine
 10
29.84529946160865
 20
-17.49999999998782
 30
0.0
 11
30.99999999998783
 21
-15.49999999998782
 31
0.0
  0
LINE
  5
1B7
330
1F
100
AcDbEntity
  8
1
  6
Continuous
 62
     3
100
AcDbLine
 10
16.99999999998793
 20
-17.49999999998782
 30
0.0
 11
17.49999999998793
 21
-17.99999999998776
 31
0.0
  0
LINE
  5
1B8
330
1F
100
AcDbEntity
  8
1
  6
Continuous
 62
     3
100
AcDbLine
 10
19.99999999998793
 20
-17.79999999998783
 30
0.0
 11
19.99999999998793
 21
-17.69999999998787
 31
0.0
  0
LINE
  5
1B9
330
1F
100
AcDbEntity
  8
1
  6
Continuous
 62
     3
100
AcDbLine
 10
17.49999999998793
 20
-17.99999999998776
 30
0.0
 11
19.79999999998795
 21
-17.99999999998776
 31
0.0
  0
LINE
  5
1BA
330
1F
100
AcDbEntity
  8
1
  6
Continuous
 62
     3
100
AcDbLine
 10
-78.02058408150208
 20
20.30000000001197
 30
0.0
 11
-80.72577490256742
 21
20.30000000001197
 31
0.0
  0
LINE
  5
1BB
330
1F
100
AcDbEntity
  8
1
  6
Continuous
 62
     3
100
AcDbLine
 10
-81.47695983719541
 20
39.17296851239338
 30
0.0
 11
-82.0205840815022
 21
28.80000000001213
 31
0.0
  0
LINE
  5
1BC
330
1F
100
AcDbEntity
  8
1
  6
Continuous
 62
     3
100
AcDbLine
 10
-81.14770216453464
 20
27.58259009952435
 30
0.0
 11
-81.10785940614312
 21
25.30000000001197
 31
0.0
  0
LINE
  5
1BD
330
1F
100
AcDbEntity
  8
1
  6
Continuous
 62
     3
100
AcDbLine
 10
-81.89478378865344
 20
27.80000000001197
 30
0.0
 11
-71.83086464004361
 21
27.80000000001197
 31
0.0
  0
LINE
  5
1BE
330
1F
100
AcDbEntity
  8
1
  6
Continuous
 62
     3
100
AcDbLine
 10
-81.14770216453464
 20
27.58259009952435
 30
0.0
 11
-70.68248340007744
 21
27.58259009952435
 31
0.0
  0
LINE
  5
1BF
330
1F
100
AcDbEntity
  8
1
  6
Continuous
 62
     3
100
AcDbLine
 10
-81.48230004878292
 20
27.58259009952435
 30
0.0
 11
-81.14770216453464
 21
27.58259009952435
 31
0.0
  0
LINE
  5
1C0
330
1F
100
AcDbEntity
  8
1
  6
Continuous
 62
     3
100
AcDbLine
 10
-81.98161481616012
 20
28.05642212140295
 30
0.0
 11
-82.0205840815022
 21
28.80000000001213
 31
0.0
  0
LINE
  5
1C1
330
1F
100
AcDbEntity
  8
1
  6
Continuous
 62
     3
100
AcDbLine
 10
-74.84062366056708
 20
28.80000000001213
 30
0.0
 11
-74.73524410889172
 21
27.95146094054765
 31
0.0
  0
LINE
  5
1C2
330
1F
100
AcDbEntity
  8
1
  6
Continuous
 62
     3
100
AcDbLine
 10
-72.0205840815022
 20
28.80000000001213
 30
0.0
 11
-71.92170504423314
 21
27.95146094054765
 31
0.0
  0
LINE
  5
1C3
330
1F
100
AcDbEntity
  8
1
  6
Continuous
 62
     3
100
AcDbLine
 10
-65.5205840815022
 20
27.80000000001197
 30
0.0
 11
-71.83086464004361
 21
27.80000000001197
 31
0.0
  0
LINE
  5
1C4
330
1F
100
AcDbEntity
  8
1
  6
Continuous
 62
     3
100
AcDbLine
 10
-70.68248340007744
 20
27.58259009952435
 30
0.0
 11
-65.5205840815022
 21
27.58259009952435
 31
0.0
  0
LINE
  5
1C5
330
1F
100
AcDbEntity
  8
1
  6
Continuous
 62
     3
100
AcDbLine
 10
-49.89346599846952
 20
27.58259009952435
 30
0.0
 11
-49.55886811422143
 21
27.58259009952435
 31
0.0
  0
LINE
  5
1C6
330
1F
100
AcDbEntity
  8
1
  6
Continuous
 62
     3
100
AcDbLine
 10
-49.93330875686102
 20
25.30000000001197
 30
0.0
 11
-49.89346599846952
 21
27.58259009952435
 31
0.0
  0
LINE
  5
1C7
330
1F
100
AcDbEntity
  8
1
  6
Continuous
 62
     3
100
AcDbLine
 10
-65.5205840815022
 20
27.58259009952435
 30
0.0
 11
-60.35868476292671
 21
27.58259009952435
 31
0.0
  0
LINE
  5
1C8
330
1F
100
AcDbEntity
  8
1
  6
Continuous
 62
     3
100
AcDbLine
 10
-60.35868476292671
 20
27.58259009952435
 30
0.0
 11
-49.89346599846952
 21
27.58259009952435
 31
0.0
  0
LINE
  5
1C9
330
1F
100
AcDbEntity
  8
1
  6
Continuous
 62
     3
100
AcDbLine
 10
-49.02058408150222
 20
28.80000000001213
 30
0.0
 11
-49.05955334684403
 21
28.05642212140295
 31
0.0
  0
LINE
  5
1CA
330
1F
100
AcDbEntity
  8
1
  6
Continuous
 62
     3
100
AcDbLine
 10
-59.21030352296077
 20
27.80000000001197
 30
0.0
 11
-49.14638437435072
 21
27.80000000001197
 31
0.0
  0
LINE
  5
1CB
330
1F
100
AcDbEntity
  8
1
  6
Continuous
 62
     3
100
AcDbLine
 10
-56.30592405411244
 20
27.95146094054765
 30
0.0
 11
-56.20054450243731
 21
28.80000000001213
 31
0.0
  0
LINE
  5
1CC
330
1F
100
AcDbEntity
  8
1
  6
Continuous
 62
     3
100
AcDbLine
 10
-81.50419321980193
 20
28.80000000001213
 30
0.0
 11
-49.39635795321692
 21
28.80000000001213
 31
0.0
  0
LINE
  5
1CD
330
1F
100
AcDbEntity
  8
1
  6
Continuous
 62
     3
100
AcDbLine
 10
-59.11946311877102
 20
27.95146094054765
 30
0.0
 11
-59.02058408150242
 21
28.80000000001213
 31
0.0
  0
LINE
  5
1CE
330
1F
100
AcDbEntity
  8
1
  6
Continuous
 62
     3
100
AcDbLine
 10
-50.88672131123622
 20
40.30000000001213
 30
0.0
 11
-56.11595197423662
 21
40.30000000001213
 31
0.0
  0
LINE
  5
1CF
330
1F
100
AcDbEntity
  8
1
  6
Continuous
 62
     3
100
AcDbLine
 10
-56.20054450243731
 20
28.80000000001213
 30
0.0
 11
-56.61559520745209
 21
39.78111509858435
 31
0.0
  0
LINE
  5
1D0
330
1F
100
AcDbEntity
  8
1
  6
Continuous
 62
     3
100
AcDbLine
 10
-59.02058408150242
 20
28.80000000001213
 30
0.0
 11
-59.39109882817422
 21
38.33881358505444
 31
0.0
  0
LINE
  5
1D1
330
1F
100
AcDbEntity
  8
1
  6
Continuous
 62
     3
100
AcDbLine
 10
-49.02058408150222
 20
28.80000000001213
 30
0.0
 11
-49.56420832580902
 21
39.17296851239338
 31
0.0
  0
LINE
  5
1D2
330
1F
100
AcDbEntity
  8
1
  6
Continuous
 62
     3
100
AcDbLine
 10
-50.31539326043692
 20
20.30000000001197
 30
0.0
 11
-53.42209927166687
 21
20.30000000001213
 31
0.0
  0
LINE
  5
1D3
330
1F
100
AcDbEntity
  8
1
  6
Continuous
 62
     3
100
AcDbLine
 10
-49.93330875686102
 20
25.30000000001197
 30
0.0
 11
-50.01543895189002
 21
20.59476427808075
 31
0.0
  0
LINE
  5
1D4
330
1F
100
AcDbEntity
  8
1
  6
Continuous
 62
     3
100
AcDbLine
 10
-59.21030352296077
 20
27.80000000001197
 30
0.0
 11
-65.5205840815022
 21
27.80000000001197
 31
0.0
  0
LINE
  5
1D5
330
1F
100
AcDbEntity
  8
1
  6
Continuous
 62
     3
100
AcDbLine
 10
-74.92521618876776
 20
40.30000000001213
 30
0.0
 11
-80.15444685176817
 21
40.30000000001213
 31
0.0
  0
LINE
  5
1D6
330
1F
100
AcDbEntity
  8
1
  6
Continuous
 62
     3
100
AcDbLine
 10
-70.65082286592656
 20
39.30000000001185
 30
0.0
 11
-60.39034529707772
 21
39.30000000001185
 31
0.0
  0
LINE
  5
1D7
330
1F
100
AcDbEntity
  8
1
  6
Continuous
 62
     3
100
AcDbLine
 10
-74.42557295555218
 20
39.78111509858435
 30
0.0
 11
-74.84062366056708
 21
28.80000000001213
 31
0.0
  0
LINE
  5
1D8
330
1F
100
AcDbEntity
  8
1
  6
Continuous
 62
     3
100
AcDbLine
 10
-71.65006933483016
 20
38.33881358505444
 30
0.0
 11
-72.0205840815022
 21
28.80000000001213
 31
0.0
  0
LINE
  5
1D9
330
1F
100
AcDbEntity
  8
1
  6
Continuous
 62
     3
100
AcDbLine
 10
-81.02572921111437
 20
20.59476427808075
 30
0.0
 11
-81.10785940614312
 21
25.30000000001197
 31
0.0
  0
LINE
  5
1DA
330
1F
100
AcDbEntity
  8
1
  6
Continuous
 62
     3
100
AcDbLine
 10
-61.80791472528722
 20
39.60290856916534
 30
0.0
 11
-59.01032597469839
 21
40.59752174769564
 31
0.0
  0
LINE
  5
1DB
330
1F
100
AcDbEntity
  8
1
  6
Continuous
 62
     3
100
AcDbLine
 10
-61.80791472528722
 20
40.10861094061143
 30
0.0
 11
-59.01032597469862
 21
41.09986648860397
 31
0.0
  0
LINE
  5
1DC
330
1F
100
AcDbEntity
  8
1
  6
Continuous
 62
     3
100
AcDbLine
 10
-59.01032597469862
 20
41.09986648860397
 30
0.0
 11
-59.01032597469839
 21
40.59752174769564
 31
0.0
  0
LINE
  5
1DD
330
1F
100
AcDbEntity
  8
1
  6
Continuous
 62
     3
100
AcDbLine
 10
-61.80791472528722
 20
40.10861094061143
 30
0.0
 11
-61.80791472528722
 21
39.60290856916534
 31
0.0
  0
LINE
  5
1DE
330
1F
100
AcDbEntity
  8
1
  6
Continuous
 62
     3
100
AcDbLine
 10
-69.23325343771717
 20
40.10861094061143
 30
0.0
 11
-61.80791472528722
 21
40.10861094061143
 31
0.0
  0
LINE
  5
1DF
330
1F
100
AcDbEntity
  8
1
  6
Continuous
 62
     3
100
AcDbLine
 10
-69.23325343771717
 20
39.60290856916534
 30
0.0
 11
-61.80791472528722
 21
39.60290856916534
 31
0.0
  0
LINE
  5
1E0
330
1F
100
AcDbEntity
  8
1
  6
Continuous
 62
     3
100
AcDbLine
 10
-69.23325343771717
 20
39.60290856916534
 30
0.0
 11
-69.23325343771717
 21
40.10861094061143
 31
0.0
  0
LINE
  5
1E1
330
1F
100
AcDbEntity
  8
1
  6
Continuous
 62
     3
100
AcDbLine
 10
-72.03084218830577
 20
40.59752174769564
 30
0.0
 11
-69.23325343771717
 21
39.60290856916534
 31
0.0
  0
LINE
  5
1E2
330
1F
100
AcDbEntity
  8
1
  6
Continuous
 62
     3
100
AcDbLine
 10
-72.03084218830577
 20
41.09986648860397
 30
0.0
 11
-69.23325343771717
 21
40.10861094061143
 31
0.0
  0
LINE
  5
1E3
330
1F
100
AcDbEntity
  8
1
  6
Continuous
 62
     3
100
AcDbLine
 10
-72.03084218830577
 20
40.59752174769564
 30
0.0
 11
-72.03084218830577
 21
41.09986648860397
 31
0.0
  0
LINE
  5
1E4
330
1F
100
AcDbEntity
  8
1
  6
Continuous
 62
     3
100
AcDbLine
 10
-65.52058408150208
 20
20.30000000001213
 30
0.0
 11
-60.92058408150206
 21
20.30000000001213
 31
0.0
  0
LINE
  5
1E5
330
1F
100
AcDbEntity
  8
1
  6
Continuous
 62
     3
100
AcDbLine
 10
-72.77058408150208
 20
20.30000000001213
 30
0.0
 11
-70.12058408150199
 21
20.30000000001213
 31
0.0
  0
LINE
  5
1E6
330
1F
100
AcDbEntity
  8
1
  6
Continuous
 62
     3
100
AcDbLine
 10
-60.92058408150206
 20
20.30000000001213
 30
0.0
 11
-58.27058408150208
 21
20.30000000001213
 31
0.0
  0
LINE
  5
1E7
330
1F
100
AcDbEntity
  8
1
  6
Continuous
 62
     3
100
AcDbLine
 10
-78.02058408150208
 20
20.30000000001197
 30
0.0
 11
-53.42209927166687
 21
20.30000000001213
 31
0.0
  0
LINE
  5
1E8
330
1F
100
AcDbEntity
  8
1
  6
Continuous
 62
     3
100
AcDbLine
 10
-73.67058408150206
 20
14.02996792584869
 30
0.0
 11
-73.67058408150206
 21
17.20000000001217
 31
0.0
  0
LINE
  5
1E9
330
1F
100
AcDbEntity
  8
1
  6
Continuous
 62
     3
100
AcDbLine
 10
-58.27058408150208
 20
20.30000000001213
 30
0.0
 11
-58.27058408150208
 21
17.80000000001213
 31
0.0
  0
LINE
  5
1EA
330
1F
100
AcDbEntity
  8
1
  6
Continuous
 62
     3
100
AcDbLine
 10
-57.97058408150201
 20
17.50000000001218
 30
0.0
 11
-57.67058408150206
 21
17.50000000001218
 31
0.0
  0
LINE
  5
1EB
330
1F
100
AcDbEntity
  8
1
  6
Continuous
 62
     3
100
AcDbLine
 10
-57.3705840815021
 20
17.20000000001217
 30
0.0
 11
-57.3705840815021
 21
15.29275585407364
 31
0.0
  0
LINE
  5
1EC
330
1F
100
AcDbEntity
  8
1
  6
Continuous
 62
     3
100
AcDbLine
 10
-73.37058408150199
 20
17.50000000001218
 30
0.0
 11
-73.07058408150215
 21
17.50000000001218
 31
0.0
  0
LINE
  5
1ED
330
1F
100
AcDbEntity
  8
1
  6
Continuous
 62
     3
100
AcDbLine
 10
-58.27058408150208
 20
20.02485915877624
 30
0.0
 11
-54.13881779515032
 21
20.25033503197246
 31
0.0
  0
LINE
  5
1EE
330
1F
100
AcDbEntity
  8
1
  6
Continuous
 62
     3
100
AcDbLine
 10
-72.77058408150208
 20
17.80000000001213
 30
0.0
 11
-72.77058408150208
 21
20.30000000001213
 31
0.0
  0
LINE
  5
1EF
330
1F
100
AcDbEntity
  8
1
  6
Continuous
 62
     3
100
AcDbLine
 10
-84.72215751847884
 20
11.00000000001218
 30
0.0
 11
-78.46802519824443
 21
11.00000000001218
 31
0.0
  0
LINE
  5
1F0
330
1F
100
AcDbEntity
  8
1
  6
Continuous
 62
     3
100
AcDbLine
 10
-78.46802519824453
 20
-10.99999999998782
 30
0.0
 11
-84.72215751847884
 21
-10.99999999998782
 31
0.0
  0
LINE
  5
1F1
330
1F
100
AcDbEntity
  8
1
  6
DOT_CENTER
 62
     3
100
AcDbLine
 10
-65.52058408150208
 20
-19.83312649627372
 30
0.0
 11
-65.52058408150208
 21
43.07858130840324
 31
0.0
  0
LINE
  5
1F2
330
1F
100
AcDbEntity
  8
1
  6
DOT_CENTER
 62
     3
100
AcDbLine
 10
-57.52058408150208
 20
0.00000000001218
 30
0.0
 11
-112.1834761896707
 21
0.00000000001218
 31
0.0
  0
LINE
  5
1F3
330
1F
100
AcDbEntity
  8
1
  6
DOT_CENTER
 62
     3
100
AcDbLine
 10
-56.52058408150208
 20
0.00000000001218
 30
0.0
 11
-57.52058408150208
 21
0.00000000001218
 31
0.0
  0
LINE
  5
1F4
330
1F
100
AcDbEntity
  8
1
  6
DOT_CENTER
 62
     3
100
AcDbLine
 10
-53.9839851619609
 20
0.00000000001218
 30
0.0
 11
-56.52058408150208
 21
0.00000000001218
 31
0.0
  0
LINE
  5
1F5
330
1F
100
AcDbEntity
  8
1
  6
DOT_CENTER
 62
     3
100
AcDbLine
 10
-53.50536050742317
 20
0.00000000001218
 30
0.0
 11
-53.9839851619609
 21
0.00000000001218
 31
0.0
  0
LINE
  5
1F6
330
1F
100
AcDbEntity
  8
1
  6
DOT_CENTER
 62
     3
100
AcDbLine
 10
-52.30587470278641
 20
0.00000000001218
 30
0.0
 11
-53.50536050742317
 21
0.00000000001218
 31
0.0
  0
LINE
  5
1F7
330
1F
100
AcDbEntity
  8
1
  6
DOT_CENTER
 62
     3
100
AcDbLine
 10
-52.1205840815021
 20
0.00000000001218
 30
0.0
 11
-52.30587470278641
 21
0.00000000001218
 31
0.0
  0
LINE
  5
1F8
330
1F
100
AcDbEntity
  8
1
  6
DOT_CENTER
 62
     3
100
AcDbLine
 10
-64.27058408150214
 20
31.60000000001215
 30
0.0
 11
-63.26749630300678
 21
31.60000000001215
 31
0.0
  0
LINE
  5
1F9
330
1F
100
AcDbEntity
  8
1
  6
Continuous
 62
     3
100
AcDbLine
 10
14.29228755105034
 20
20.30000000001225
 30
0.0
 11
-15.20514510177335
 21
20.30000000001213
 31
0.0
  0
LINE
  5
1FA
330
1F
100
AcDbEntity
  8
1
  6
Continuous
 62
     3
100
AcDbLine
 10
-5.00000000001217
 20
41.71664350566176
 30
0.0
 11
-5.00765309784705
 21
41.71638806499915
 31
0.0
  0
LINE
  5
1FB
330
1F
100
AcDbEntity
  8
1
  6
Continuous
 62
     3
100
AcDbLine
 10
16.49999999998793
 20
18.00000000001218
 30
0.0
 11
16.49999999998793
 21
-17.99999999998782
 31
0.0
  0
LINE
  5
1FC
330
1F
100
AcDbEntity
  8
1
  6
Continuous
 62
     3
100
AcDbLine
 10
14.49999999998783
 20
-17.99999999998782
 30
0.0
 11
14.49999999998783
 21
18.00000000001218
 31
0.0
  0
LINE
  5
1FD
330
1F
100
AcDbEntity
  8
1
  6
Continuous
 62
     3
100
AcDbLine
 10
13.99999999998793
 20
17.50000000001218
 30
0.0
 11
13.99999999998793
 21
-17.49999999998782
 31
0.0
  0
LINE
  5
1FE
330
1F
100
AcDbEntity
  8
1
  6
Continuous
 62
     3
100
AcDbLine
 10
17.49999999998793
 20
-17.99999999998776
 30
0.0
 11
17.49999999998793
 21
18.00000000001218
 31
0.0
  0
LINE
  5
1FF
330
1F
100
AcDbEntity
  8
1
  6
Continuous
 62
     3
100
AcDbLine
 10
-11.00000000001225
 20
97.50149451071299
 30
0.0
 11
10.99999999998783
 21
97.50149451071321
 31
0.0
  0
LINE
  5
200
330
1F
100
AcDbEntity
  8
1
  6
Continuous
 62
     3
100
AcDbLine
 10
10.99999999998783
 20
97.50149451071321
 30
0.0
 11
10.99999999998775
 21
96.80149451077811
 31
0.0
  0
LINE
  5
201
330
1F
100
AcDbEntity
  8
1
  6
Continuous
 62
     3
100
AcDbLine
 10
-11.00000000001225
 20
97.50149451071299
 30
0.0
 11
-11.00000000001225
 21
97.50149451072541
 31
0.0
  0
LINE
  5
202
330
1F
100
AcDbEntity
  8
1
  6
Continuous
 62
     3
100
AcDbLine
 10
-11.00000000001225
 20
98.50149451071299
 30
0.0
 11
10.99999999998783
 21
98.50149451071321
 31
0.0
  0
LINE
  5
203
330
1F
100
AcDbEntity
  8
1
  6
Continuous
 62
     3
100
AcDbLine
 10
-24.68481610755823
 20
28.80000000001226
 30
0.0
 11
24.35896108537854
 21
28.80000000001226
 31
0.0
  0
LINE
  5
204
330
1F
100
AcDbEntity
  8
1
  6
Continuous
 62
     3
100
AcDbLine
 10
-24.11515175240045
 20
27.80000000001203
 30
0.0
 11
24.11515175237621
 21
27.80000000001203
 31
0.0
  0
LINE
  5
205
330
1F
100
AcDbEntity
  8
1
  6
Continuous
 62
     3
100
AcDbLine
 10
24.60890434429818
 20
27.87469815921807
 30
0.0
 11
24.11515175237621
 21
27.80000000001203
 31
0.0
  0
LINE
  5
206
330
1F
100
AcDbEntity
  8
1
  6
Continuous
 62
     3
100
AcDbLine
 10
-24.11515175240045
 20
27.80000000001203
 30
0.0
 11
-24.60890434432243
 21
27.87469815921807
 31
0.0
  0
LINE
  5
207
330
1F
100
AcDbEntity
  8
1
  6
Continuous
 62
     3
100
AcDbLine
 10
2.4300479594128
 20
-26.6712448228163
 30
0.0
 11
2.4300479594128
 21
-25.4837448228163
 31
0.0
  0
LINE
  5
208
330
1F
100
AcDbEntity
  8
1
  6
Continuous
 62
     3
100
AcDbLine
 10
2.4300479594128
 20
-24.1712448228163
 30
0.0
 11
3.4300479594128
 21
-24.1712448228163
 31
0.0
  0
LINE
  5
209
330
1F
100
AcDbEntity
  8
1
  6
Continuous
 62
     3
100
AcDbLine
 10
3.4300479594128
 20
-24.1712448228163
 30
0.0
 11
3.6800479594128
 21
-24.3587448228163
 31
0.0
  0
LINE
  5
20A
330
1F
100
AcDbEntity
  8
1
  6
Continuous
 62
     3
100
AcDbLine
 10
3.6800479594128
 20
-24.3587448228163
 30
0.0
 11
3.8675479594128
 21
-24.6087448228163
 31
0.0
  0
LINE
  5
20B
330
1F
100
AcDbEntity
  8
1
  6
Continuous
 62
     3
100
AcDbLine
 10
3.8675479594128
 20
-24.6087448228163
 30
0.0
 11
3.9300479594128
 21
-24.8587448228163
 31
0.0
  0
LINE
  5
20C
330
1F
100
AcDbEntity
  8
1
  6
Continuous
 62
     3
100
AcDbLine
 10
3.9300479594128
 20
-24.8587448228163
 30
0.0
 11
3.8675479594128
 21
-25.1712448228163
 31
0.0
  0
LINE
  5
20D
330
1F
100
AcDbEntity
  8
1
  6
Continuous
 62
     3
100
AcDbLine
 10
3.8675479594128
 20
-25.1712448228163
 30
0.0
 11
3.6800479594128
 21
-25.3587448228163
 31
0.0
  0
LINE
  5
20E
330
1F
100
AcDbEntity
  8
1
  6
Continuous
 62
     3
100
AcDbLine
 10
3.6800479594128
 20
-25.3587448228163
 30
0.0
 11
3.4300479594128
 21
-25.4837448228163
 31
0.0
  0
LINE
  5
20F
330
1F
100
AcDbEntity
  8
1
  6
Continuous
 62
     3
100
AcDbLine
 10
3.4300479594128
 20
-25.4837448228163
 30
0.0
 11
2.4300479594128
 21
-25.4837448228163
 31
0.0
  0
LINE
  5
210
330
1F
100
AcDbEntity
  8
1
  6
Continuous
 62
     3
100
AcDbLine
 10
3.4300479594128
 20
-25.4837448228163
 30
0.0
 11
3.9925479594128
 21
-26.6712448228163
 31
0.0
  0
LINE
  5
211
330
1F
100
AcDbEntity
  8
1
  6
Continuous
 62
     3
100
AcDbLine
 10
2.4300479594128
 20
-25.4837448228163
 30
0.0
 11
2.4300479594128
 21
-24.1712448228163
 31
0.0
  0
LINE
  5
212
330
1F
100
AcDbEntity
  8
1
  6
Continuous
 62
     3
100
AcDbLine
 10
5.4300479594128
 20
-26.6712448228163
 30
0.0
 11
5.4300479594128
 21
-24.3587448228163
 31
0.0
  0
LINE
  5
213
330
1F
100
AcDbEntity
  8
1
  6
Continuous
 62
     3
100
AcDbLine
 10
5.4300479594128
 20
-24.3587448228163
 30
0.0
 11
6.3675479594128
 21
-24.3587448228163
 31
0.0
  0
LINE
  5
214
330
1F
100
AcDbEntity
  8
1
  6
Continuous
 62
     3
100
AcDbLine
 10
6.3675479594128
 20
-24.3587448228163
 30
0.0
 11
6.6800479594128
 21
-24.4837448228163
 31
0.0
  0
LINE
  5
215
330
1F
100
AcDbEntity
  8
1
  6
Continuous
 62
     3
100
AcDbLine
 10
6.6800479594128
 20
-24.4837448228163
 30
0.0
 11
6.8050479594128
 21
-24.9212448228163
 31
0.0
  0
LINE
  5
216
330
1F
100
AcDbEntity
  8
1
  6
Continuous
 62
     3
100
AcDbLine
 10
6.8050479594128
 20
-24.9212448228163
 30
0.0
 11
6.6800479594128
 21
-25.2337448228163
 31
0.0
  0
LINE
  5
217
330
1F
100
AcDbEntity
  8
1
  6
Continuous
 62
     3
100
AcDbLine
 10
6.6800479594128
 20
-25.2337448228163
 30
0.0
 11
6.3675479594128
 21
-25.4837448228163
 31
0.0
  0
LINE
  5
218
330
1F
100
AcDbEntity
  8
1
  6
Continuous
 62
     3
100
AcDbLine
 10
6.3675479594128
 20
-25.4837448228163
 30
0.0
 11
5.4300479594128
 21
-25.4837448228163
 31
0.0
  0
LINE
  5
219
330
1F
100
AcDbEntity
  8
1
  6
Continuous
 62
     3
100
AcDbLine
 10
5.4300479594128
 20
-25.4837448228163
 30
0.0
 11
6.3675479594128
 21
-25.4837448228163
 31
0.0
  0
LINE
  5
21A
330
1F
100
AcDbEntity
  8
1
  6
Continuous
 62
     3
100
AcDbLine
 10
6.3675479594128
 20
-25.4837448228163
 30
0.0
 11
6.8050479594128
 21
-25.6712448228163
 31
0.0
  0
LINE
  5
21B
330
1F
100
AcDbEntity
  8
1
  6
Continuous
 62
     3
100
AcDbLine
 10
6.8050479594128
 20
-25.6712448228163
 30
0.0
 11
6.9300479594128
 21
-26.1087448228163
 31
0.0
  0
LINE
  5
21C
330
1F
100
AcDbEntity
  8
1
  6
Continuous
 62
     3
100
AcDbLine
 10
6.9300479594128
 20
-26.1087448228163
 30
0.0
 11
6.8050479594128
 21
-26.4837448228163
 31
0.0
  0
LINE
  5
21D
330
1F
100
AcDbEntity
  8
1
  6
Continuous
 62
     3
100
AcDbLine
 10
6.8050479594128
 20
-26.4837448228163
 30
0.0
 11
6.3675479594128
 21
-26.6712448228163
 31
0.0
  0
LINE
  5
21E
330
1F
100
AcDbEntity
  8
1
  6
Continuous
 62
     3
100
AcDbLine
 10
6.3675479594128
 20
-26.6712448228163
 30
0.0
 11
5.4300479594128
 21
-26.6712448228163
 31
0.0
  0
LINE
  5
21F
330
1F
100
AcDbEntity
  8
1
  6
Continuous
 62
     3
100
AcDbLine
 10
9.7425479594128
 20
-24.6712448228163
 30
0.0
 11
9.5550479594128
 21
-24.4212448228163
 31
0.0
  0
LINE
  5
220
330
1F
100
AcDbEntity
  8
1
  6
Continuous
 62
     3
100
AcDbLine
 10
9.5550479594128
 20
-24.4212448228163
 30
0.0
 11
9.3050479594128
 21
-24.2337448228163
 31
0.0
  0
LINE
  5
221
330
1F
100
AcDbEntity
  8
1
  6
Continuous
 62
     3
100
AcDbLine
 10
9.3050479594128
 20
-24.2337448228163
 30
0.0
 11
8.9925479594128
 21
-24.2337448228163
 31
0.0
  0
LINE
  5
222
330
1F
100
AcDbEntity
  8
1
  6
Continuous
 62
     3
100
AcDbLine
 10
8.9925479594128
 20
-24.2337448228163
 30
0.0
 11
8.7425479594128
 21
-24.2337448228163
 31
0.0
  0
LINE
  5
223
330
1F
100
AcDbEntity
  8
1
  6
Continuous
 62
     3
100
AcDbLine
 10
8.7425479594128
 20
-24.2337448228163
 30
0.0
 11
8.6175479594128
 21
-24.3587448228163
 31
0.0
  0
LINE
  5
224
330
1F
100
AcDbEntity
  8
1
  6
Continuous
 62
     3
100
AcDbLine
 10
8.6175479594128
 20
-24.3587448228163
 30
0.0
 11
8.3675479594128
 21
-24.4837448228163
 31
0.0
  0
LINE
  5
225
330
1F
100
AcDbEntity
  8
1
  6
Continuous
 62
     3
100
AcDbLine
 10
8.3675479594128
 20
-24.4837448228163
 30
0.0
 11
8.3050479594128
 21
-24.7337448228163
 31
0.0
  0
LINE
  5
226
330
1F
100
AcDbEntity
  8
1
  6
Continuous
 62
     3
100
AcDbLine
 10
8.3050479594128
 20
-24.7337448228163
 30
0.0
 11
8.3675479594128
 21
-25.1087448228163
 31
0.0
  0
LINE
  5
227
330
1F
100
AcDbEntity
  8
1
  6
Continuous
 62
     3
100
AcDbLine
 10
8.3675479594128
 20
-25.1087448228163
 30
0.0
 11
8.5550479594128
 21
-25.2337448228163
 31
0.0
  0
LINE
  5
228
330
1F
100
AcDbEntity
  8
1
  6
Continuous
 62
     3
100
AcDbLine
 10
8.5550479594128
 20
-25.2337448228163
 30
0.0
 11
8.6800479594128
 21
-25.3587448228163
 31
0.0
  0
LINE
  5
229
330
1F
100
AcDbEntity
  8
1
  6
Continuous
 62
     3
100
AcDbLine
 10
8.6800479594128
 20
-25.3587448228163
 30
0.0
 11
8.9925479594128
 21
-25.4212448228163
 31
0.0
  0
LINE
  5
22A
330
1F
100
AcDbEntity
  8
1
  6
Continuous
 62
     3
100
AcDbLine
 10
8.9925479594128
 20
-25.4212448228163
 30
0.0
 11
9.3050479594128
 21
-25.4212448228163
 31
0.0
  0
LINE
  5
22B
330
1F
100
AcDbEntity
  8
1
  6
Continuous
 62
     3
100
AcDbLine
 10
9.3050479594128
 20
-25.4212448228163
 30
0.0
 11
9.4925479594128
 21
-25.4837448228163
 31
0.0
  0
LINE
  5
22C
330
1F
100
AcDbEntity
  8
1
  6
Continuous
 62
     3
100
AcDbLine
 10
9.4925479594128
 20
-25.4837448228163
 30
0.0
 11
9.7425479594128
 21
-25.7337448228163
 31
0.0
  0
LINE
  5
22D
330
1F
100
AcDbEntity
  8
1
  6
Continuous
 62
     3
100
AcDbLine
 10
9.7425479594128
 20
-25.7337448228163
 30
0.0
 11
9.8050479594128
 21
-26.1087448228163
 31
0.0
  0
LINE
  5
22E
330
1F
100
AcDbEntity
  8
1
  6
Continuous
 62
     3
100
AcDbLine
 10
9.8050479594128
 20
-26.1087448228163
 30
0.0
 11
9.7425479594128
 21
-26.4212448228163
 31
0.0
  0
LINE
  5
22F
330
1F
100
AcDbEntity
  8
1
  6
Continuous
 62
     3
100
AcDbLine
 10
9.7425479594128
 20
-26.4212448228163
 30
0.0
 11
9.4925479594128
 21
-26.6087448228163
 31
0.0
  0
LINE
  5
230
330
1F
100
AcDbEntity
  8
1
  6
Continuous
 62
     3
100
AcDbLine
 10
9.4925479594128
 20
-26.6087448228163
 30
0.0
 11
9.3050479594128
 21
-26.6712448228163
 31
0.0
  0
LINE
  5
231
330
1F
100
AcDbEntity
  8
1
  6
Continuous
 62
     3
100
AcDbLine
 10
9.3050479594128
 20
-26.6712448228163
 30
0.0
 11
8.9925479594128
 21
-26.6712448228163
 31
0.0
  0
LINE
  5
232
330
1F
100
AcDbEntity
  8
1
  6
Continuous
 62
     3
100
AcDbLine
 10
8.9925479594128
 20
-26.6712448228163
 30
0.0
 11
8.6800479594128
 21
-26.6087448228163
 31
0.0
  0
LINE
  5
233
330
1F
100
AcDbEntity
  8
1
  6
Continuous
 62
     3
100
AcDbLine
 10
8.6800479594128
 20
-26.6087448228163
 30
0.0
 11
8.4925479594128
 21
-26.4212448228163
 31
0.0
  0
LINE
  5
234
330
1F
100
AcDbEntity
  8
1
  6
Continuous
 62
     3
100
AcDbLine
 10
8.4925479594128
 20
-26.4212448228163
 30
0.0
 11
8.3050479594128
 21
-26.1087448228163
 31
0.0
  0
LINE
  5
235
330
1F
100
AcDbEntity
  8
1
  6
Continuous
 62
     3
100
AcDbLine
 10
11.2425479594128
 20
-25.4212448228163
 30
0.0
 11
12.5550479594128
 21
-25.4212448228163
 31
0.0
  0
LINE
  5
236
330
1F
100
AcDbEntity
  8
1
  6
Continuous
 62
     3
100
AcDbLine
 10
14.1175479594128
 20
-24.6087448228163
 30
0.0
 11
14.4300479594128
 21
-24.2337448228163
 31
0.0
  0
LINE
  5
237
330
1F
100
AcDbEntity
  8
1
  6
Continuous
 62
     3
100
AcDbLine
 10
14.4300479594128
 20
-24.2337448228163
 30
0.0
 11
14.8675479594128
 21
-24.1712448228163
 31
0.0
  0
LINE
  5
238
330
1F
100
AcDbEntity
  8
1
  6
Continuous
 62
     3
100
AcDbLine
 10
14.8675479594128
 20
-24.1712448228163
 30
0.0
 11
15.3050479594128
 21
-24.2337448228163
 31
0.0
  0
LINE
  5
239
330
1F
100
AcDbEntity
  8
1
  6
Continuous
 62
     3
100
AcDbLine
 10
15.3050479594128
 20
-24.2337448228163
 30
0.0
 11
15.4925479594128
 21
-24.6087448228163
 31
0.0
  0
LINE
  5
23A
330
1F
100
AcDbEntity
  8
1
  6
Continuous
 62
     3
100
AcDbLine
 10
15.4925479594128
 20
-24.6087448228163
 30
0.0
 11
15.6175479594128
 21
-24.8587448228163
 31
0.0
  0
LINE
  5
23B
330
1F
100
AcDbEntity
  8
1
  6
Continuous
 62
     3
100
AcDbLine
 10
15.6175479594128
 20
-24.8587448228163
 30
0.0
 11
15.4300479594128
 21
-25.1712448228163
 31
0.0
  0
LINE
  5
23C
330
1F
100
AcDbEntity
  8
1
  6
Continuous
 62
     3
100
AcDbLine
 10
15.4300479594128
 20
-25.1712448228163
 30
0.0
 11
15.1800479594128
 21
-25.3587448228163
 31
0.0
  0
LINE
  5
23D
330
1F
100
AcDbEntity
  8
1
  6
Continuous
 62
     3
100
AcDbLine
 10
15.1800479594128
 20
-25.3587448228163
 30
0.0
 11
14.8050479594128
 21
-25.3587448228163
 31
0.0
  0
LINE
  5
23E
330
1F
100
AcDbEntity
  8
1
  6
Continuous
 62
     3
100
AcDbLine
 10
14.8050479594128
 20
-25.3587448228163
 30
0.0
 11
15.1800479594128
 21
-25.3587448228163
 31
0.0
  0
LINE
  5
23F
330
1F
100
AcDbEntity
  8
1
  6
Continuous
 62
     3
100
AcDbLine
 10
15.1800479594128
 20
-25.3587448228163
 30
0.0
 11
15.4925479594128
 21
-25.6087448228163
 31
0.0
  0
LINE
  5
240
330
1F
100
AcDbEntity
  8
1
  6
Continuous
 62
     3
100
AcDbLine
 10
15.4925479594128
 20
-25.6087448228163
 30
0.0
 11
15.6800479594128
 21
-25.9837448228163
 31
0.0
  0
LINE
  5
241
330
1F
100
AcDbEntity
  8
1
  6
Continuous
 62
     3
100
AcDbLine
 10
15.6800479594128
 20
-25.9837448228163
 30
0.0
 11
15.4925479594128
 21
-26.4212448228163
 31
0.0
  0
LINE
  5
242
330
1F
100
AcDbEntity
  8
1
  6
Continuous
 62
     3
100
AcDbLine
 10
15.4925479594128
 20
-26.4212448228163
 30
0.0
 11
15.3050479594128
 21
-26.6087448228163
 31
0.0
  0
LINE
  5
243
330
1F
100
AcDbEntity
  8
1
  6
Continuous
 62
     3
100
AcDbLine
 10
15.3050479594128
 20
-26.6087448228163
 30
0.0
 11
14.8675479594128
 21
-26.6712448228163
 31
0.0
  0
LINE
  5
244
330
1F
100
AcDbEntity
  8
1
  6
Continuous
 62
     3
100
AcDbLine
 10
14.8675479594128
 20
-26.6712448228163
 30
0.0
 11
14.4925479594128
 21
-26.6087448228163
 31
0.0
  0
LINE
  5
245
330
1F
100
AcDbEntity
  8
1
  6
Continuous
 62
     3
100
AcDbLine
 10
14.4925479594128
 20
-26.6087448228163
 30
0.0
 11
14.1800479594128
 21
-26.4212448228163
 31
0.0
  0
LINE
  5
246
330
1F
100
AcDbEntity
  8
1
  6
Continuous
 62
     3
100
AcDbLine
 10
14.1800479594128
 20
-26.4212448228163
 30
0.0
 11
14.0550479594128
 21
-26.2337448228163
 31
0.0
  0
LINE
  5
247
330
1F
100
AcDbEntity
  8
1
  6
Continuous
 62
     3
100
AcDbLine
 10
17.8050479594128
 20
-24.1712448228163
 30
0.0
 11
17.3675479594128
 21
-24.3587448228163
 31
0.0
  0
LINE
  5
248
330
1F
100
AcDbEntity
  8
1
  6
Continuous
 62
     3
100
AcDbLine
 10
17.3675479594128
 20
-24.3587448228163
 30
0.0
 11
17.1175479594128
 21
-24.7337448228163
 31
0.0
  0
LINE
  5
249
330
1F
100
AcDbEntity
  8
1
  6
Continuous
 62
     3
100
AcDbLine
 10
17.1175479594128
 20
-24.7337448228163
 30
0.0
 11
16.9925479594128
 21
-25.4212448228163
 31
0.0
  0
LINE
  5
24A
330
1F
100
AcDbEntity
  8
1
  6
Continuous
 62
     3
100
AcDbLine
 10
16.9925479594128
 20
-25.4212448228163
 30
0.0
 11
17.1175479594128
 21
-26.1087448228163
 31
0.0
  0
LINE
  5
24B
330
1F
100
AcDbEntity
  8
1
  6
Continuous
 62
     3
100
AcDbLine
 10
17.1175479594128
 20
-26.1087448228163
 30
0.0
 11
17.3675479594128
 21
-26.4837448228163
 31
0.0
  0
LINE
  5
24C
330
1F
100
AcDbEntity
  8
1
  6
Continuous
 62
     3
100
AcDbLine
 10
17.3675479594128
 20
-26.4837448228163
 30
0.0
 11
17.8050479594128
 21
-26.6712448228163
 31
0.0
  0
LINE
  5
24D
330
1F
100
AcDbEntity
  8
1
  6
Continuous
 62
     3
100
AcDbLine
 10
17.8050479594128
 20
-26.6712448228163
 30
0.0
 11
18.2425479594128
 21
-26.4837448228163
 31
0.0
  0
LINE
  5
24E
330
1F
100
AcDbEntity
  8
1
  6
Continuous
 62
     3
100
AcDbLine
 10
18.2425479594128
 20
-26.4837448228163
 30
0.0
 11
18.5550479594128
 21
-26.1087448228163
 31
0.0
  0
LINE
  5
24F
330
1F
100
AcDbEntity
  8
1
  6
Continuous
 62
     3
100
AcDbLine
 10
18.5550479594128
 20
-26.1087448228163
 30
0.0
 11
18.6175479594128
 21
-25.4212448228163
 31
0.0
  0
LINE
  5
250
330
1F
100
AcDbEntity
  8
1
  6
Continuous
 62
     3
100
AcDbLine
 10
18.6175479594128
 20
-25.4212448228163
 30
0.0
 11
18.5550479594128
 21
-24.7337448228163
 31
0.0
  0
LINE
  5
251
330
1F
100
AcDbEntity
  8
1
  6
Continuous
 62
     3
100
AcDbLine
 10
18.5550479594128
 20
-24.7337448228163
 30
0.0
 11
18.2425479594128
 21
-24.3587448228163
 31
0.0
  0
LINE
  5
252
330
1F
100
AcDbEntity
  8
1
  6
Continuous
 62
     3
100
AcDbLine
 10
18.2425479594128
 20
-24.3587448228163
 30
0.0
 11
17.8050479594128
 21
-24.1712448228163
 31
0.0
  0
LINE
  5
253
330
1F
100
AcDbEntity
  8
1
  6
Continuous
 62
     3
100
AcDbLine
 10
20.7425479594128
 20
-24.1712448228163
 30
0.0
 11
20.3675479594128
 21
-24.2337448228163
 31
0.0
  0
LINE
  5
254
330
1F
100
AcDbEntity
  8
1
  6
Continuous
 62
     3
100
AcDbLine
 10
20.3675479594128
 20
-24.2337448228163
 30
0.0
 11
20.1175479594128
 21
-24.4837448228163
 31
0.0
  0
LINE
  5
255
330
1F
100
AcDbEntity
  8
1
  6
Continuous
 62
     3
100
AcDbLine
 10
20.1175479594128
 20
-24.4837448228163
 30
0.0
 11
20.0550479594128
 21
-24.7337448228163
 31
0.0
  0
LINE
  5
256
330
1F
100
AcDbEntity
  8
1
  6
Continuous
 62
     3
100
AcDbLine
 10
20.0550479594128
 20
-24.7337448228163
 30
0.0
 11
20.1175479594128
 21
-24.9837448228163
 31
0.0
  0
LINE
  5
257
330
1F
100
AcDbEntity
  8
1
  6
Continuous
 62
     3
100
AcDbLine
 10
20.1175479594128
 20
-24.9837448228163
 30
0.0
 11
20.3675479594128
 21
-25.2337448228163
 31
0.0
  0
LINE
  5
258
330
1F
100
AcDbEntity
  8
1
  6
Continuous
 62
     3
100
AcDbLine
 10
20.3675479594128
 20
-25.2337448228163
 30
0.0
 11
20.6800479594128
 21
-25.3587448228163
 31
0.0
  0
LINE
  5
259
330
1F
100
AcDbEntity
  8
1
  6
Continuous
 62
     3
100
AcDbLine
 10
20.6800479594128
 20
-25.3587448228163
 30
0.0
 11
20.8675479594128
 21
-25.3587448228163
 31
0.0
  0
LINE
  5
25A
330
1F
100
AcDbEntity
  8
1
  6
Continuous
 62
     3
100
AcDbLine
 10
20.8675479594128
 20
-25.3587448228163
 30
0.0
 11
21.1800479594128
 21
-25.4212448228163
 31
0.0
  0
LINE
  5
25B
330
1F
100
AcDbEntity
  8
1
  6
Continuous
 62
     3
100
AcDbLine
 10
21.1800479594128
 20
-25.4212448228163
 30
0.0
 11
21.4925479594128
 21
-25.6712448228163
 31
0.0
  0
LINE
  5
25C
330
1F
100
AcDbEntity
  8
1
  6
Continuous
 62
     3
100
AcDbLine
 10
21.4925479594128
 20
-25.6712448228163
 30
0.0
 11
21.6175479594128
 21
-25.9837448228163
 31
0.0
  0
LINE
  5
25D
330
1F
100
AcDbEntity
  8
1
  6
Continuous
 62
     3
100
AcDbLine
 10
21.6175479594128
 20
-25.9837448228163
 30
0.0
 11
21.4925479594128
 21
-26.4212448228163
 31
0.0
  0
LINE
  5
25E
330
1F
100
AcDbEntity
  8
1
  6
Continuous
 62
     3
100
AcDbLine
 10
21.4925479594128
 20
-26.4212448228163
 30
0.0
 11
21.1800479594128
 21
-26.6087448228163
 31
0.0
  0
LINE
  5
25F
330
1F
100
AcDbEntity
  8
1
  6
Continuous
 62
     3
100
AcDbLine
 10
21.1800479594128
 20
-26.6087448228163
 30
0.0
 11
20.7425479594128
 21
-26.6712448228163
 31
0.0
  0
LINE
  5
260
330
1F
100
AcDbEntity
  8
1
  6
Continuous
 62
     3
100
AcDbLine
 10
20.7425479594128
 20
-26.6712448228163
 30
0.0
 11
20.3050479594128
 21
-26.6087448228163
 31
0.0
  0
LINE
  5
261
330
1F
100
AcDbEntity
  8
1
  6
Continuous
 62
     3
100
AcDbLine
 10
20.3050479594128
 20
-26.6087448228163
 30
0.0
 11
20.0550479594128
 21
-26.4212448228163
 31
0.0
  0
LINE
  5
262
330
1F
100
AcDbEntity
  8
1
  6
Continuous
 62
     3
100
AcDbLine
 10
20.0550479594128
 20
-26.4212448228163
 30
0.0
 11
19.9300479594128
 21
-25.9837448228163
 31
0.0
  0
LINE
  5
263
330
1F
100
AcDbEntity
  8
1
  6
Continuous
 62
     3
100
AcDbLine
 10
19.9300479594128
 20
-25.9837448228163
 30
0.0
 11
19.9925479594128
 21
-25.6712448228163
 31
0.0
  0
LINE
  5
264
330
1F
100
AcDbEntity
  8
1
  6
Continuous
 62
     3
100
AcDbLine
 10
19.9925479594128
 20
-25.6712448228163
 30
0.0
 11
20.2425479594128
 21
-25.4837448228163
 31
0.0
  0
LINE
  5
265
330
1F
100
AcDbEntity
  8
1
  6
Continuous
 62
     3
100
AcDbLine
 10
20.2425479594128
 20
-25.4837448228163
 30
0.0
 11
20.3675479594128
 21
-25.4212448228163
 31
0.0
  0
LINE
  5
266
330
1F
100
AcDbEntity
  8
1
  6
Continuous
 62
     3
100
AcDbLine
 10
20.3675479594128
 20
-25.4212448228163
 30
0.0
 11
20.6800479594128
 21
-25.3587448228163
 31
0.0
  0
LINE
  5
267
330
1F
100
AcDbEntity
  8
1
  6
Continuous
 62
     3
100
AcDbLine
 10
20.6800479594128
 20
-25.3587448228163
 30
0.0
 11
20.8675479594128
 21
-25.3587448228163
 31
0.0
  0
LINE
  5
268
330
1F
100
AcDbEntity
  8
1
  6
Continuous
 62
     3
100
AcDbLine
 10
20.8675479594128
 20
-25.3587448228163
 30
0.0
 11
21.1800479594128
 21
-25.2337448228163
 31
0.0
  0
LINE
  5
269
330
1F
100
AcDbEntity
  8
1
  6
Continuous
 62
     3
100
AcDbLine
 10
21.1800479594128
 20
-25.2337448228163
 30
0.0
 11
21.3675479594128
 21
-24.9837448228163
 31
0.0
  0
LINE
  5
26A
330
1F
100
AcDbEntity
  8
1
  6
Continuous
 62
     3
100
AcDbLine
 10
21.3675479594128
 20
-24.9837448228163
 30
0.0
 11
21.4925479594128
 21
-24.7337448228163
 31
0.0
  0
LINE
  5
26B
330
1F
100
AcDbEntity
  8
1
  6
Continuous
 62
     3
100
AcDbLine
 10
21.4925479594128
 20
-24.7337448228163
 30
0.0
 11
21.3675479594128
 21
-24.4837448228163
 31
0.0
  0
LINE
  5
26C
330
1F
100
AcDbEntity
  8
1
  6
Continuous
 62
     3
100
AcDbLine
 10
21.3675479594128
 20
-24.4837448228163
 30
0.0
 11
21.3050479594128
 21
-24.3587448228163
 31
0.0
  0
LINE
  5
26D
330
1F
100
AcDbEntity
  8
1
  6
Continuous
 62
     3
100
AcDbLine
 10
21.3050479594128
 20
-24.3587448228163
 30
0.0
 11
21.1175479594128
 21
-24.2337448228163
 31
0.0
  0
LINE
  5
26E
330
1F
100
AcDbEntity
  8
1
  6
Continuous
 62
     3
100
AcDbLine
 10
21.1175479594128
 20
-24.2337448228163
 30
0.0
 11
20.7425479594128
 21
-24.1712448228163
 31
0.0
  0
LINE
  5
26F
330
1F
100
AcDbEntity
  8
1
  6
Continuous
 62
     3
100
AcDbLine
 10
22.9925479594128
 20
-25.4212448228163
 30
0.0
 11
24.3050479594128
 21
-25.4212448228163
 31
0.0
  0
LINE
  5
270
330
1F
100
AcDbEntity
  8
1
  6
Continuous
 62
     3
100
AcDbLine
 10
25.9300479594128
 20
-24.6712448228163
 30
0.0
 11
26.2425479594128
 21
-24.3587448228163
 31
0.0
  0
LINE
  5
271
330
1F
100
AcDbEntity
  8
1
  6
Continuous
 62
     3
100
AcDbLine
 10
26.2425479594128
 20
-24.3587448228163
 30
0.0
 11
26.6800479594128
 21
-24.1712448228163
 31
0.0
  0
LINE
  5
272
330
1F
100
AcDbEntity
  8
1
  6
Continuous
 62
     3
100
AcDbLine
 10
26.6800479594128
 20
-24.1712448228163
 30
0.0
 11
27.1175479594128
 21
-24.3587448228163
 31
0.0
  0
LINE
  5
273
330
1F
100
AcDbEntity
  8
1
  6
Continuous
 62
     3
100
AcDbLine
 10
27.1175479594128
 20
-24.3587448228163
 30
0.0
 11
27.4300479594128
 21
-24.6712448228163
 31
0.0
  0
LINE
  5
274
330
1F
100
AcDbEntity
  8
1
  6
Continuous
 62
     3
100
AcDbLine
 10
27.4300479594128
 20
-24.6712448228163
 30
0.0
 11
27.3675479594128
 21
-24.9837448228163
 31
0.0
  0
LINE
  5
275
330
1F
100
AcDbEntity
  8
1
  6
Continuous
 62
     3
100
AcDbLine
 10
27.3675479594128
 20
-24.9837448228163
 30
0.0
 11
27.1175479594128
 21
-25.3587448228163
 31
0.0
  0
LINE
  5
276
330
1F
100
AcDbEntity
  8
1
  6
Continuous
 62
     3
100
AcDbLine
 10
27.1175479594128
 20
-25.3587448228163
 30
0.0
 11
26.7425479594128
 21
-25.6087448228163
 31
0.0
  0
LINE
  5
277
330
1F
100
AcDbEntity
  8
1
  6
Continuous
 62
     3
100
AcDbLine
 10
26.7425479594128
 20
-25.6087448228163
 30
0.0
 11
26.4300479594128
 21
-25.7337448228163
 31
0.0
  0
LINE
  5
278
330
1F
100
AcDbEntity
  8
1
  6
Continuous
 62
     3
100
AcDbLine
 10
26.4300479594128
 20
-25.7337448228163
 30
0.0
 11
26.1800479594128
 21
-25.9837448228163
 31
0.0
  0
LINE
  5
279
330
1F
100
AcDbEntity
  8
1
  6
Continuous
 62
     3
100
AcDbLine
 10
26.1800479594128
 20
-25.9837448228163
 30
0.0
 11
25.9925479594128
 21
-26.2337448228163
 31
0.0
  0
LINE
  5
27A
330
1F
100
AcDbEntity
  8
1
  6
Continuous
 62
     3
100
AcDbLine
 10
25.9925479594128
 20
-26.2337448228163
 30
0.0
 11
25.8675479594128
 21
-26.6712448228163
 31
0.0
  0
LINE
  5
27B
330
1F
100
AcDbEntity
  8
1
  6
Continuous
 62
     3
100
AcDbLine
 10
25.8675479594128
 20
-26.6712448228163
 30
0.0
 11
27.4925479594128
 21
-26.6712448228163
 31
0.0
  0
LINE
  5
27C
330
1F
100
AcDbEntity
  8
1
  6
Continuous
 62
     3
100
AcDbLine
 10
29.5550479594128
 20
-24.1712448228163
 30
0.0
 11
29.1175479594128
 21
-24.3587448228163
 31
0.0
  0
LINE
  5
27D
330
1F
100
AcDbEntity
  8
1
  6
Continuous
 62
     3
100
AcDbLine
 10
29.1175479594128
 20
-24.3587448228163
 30
0.0
 11
28.8675479594128
 21
-24.7337448228163
 31
0.0
  0
LINE
  5
27E
330
1F
100
AcDbEntity
  8
1
  6
Continuous
 62
     3
100
AcDbLine
 10
28.8675479594128
 20
-24.7337448228163
 30
0.0
 11
28.7425479594128
 21
-25.4212448228163
 31
0.0
  0
LINE
  5
27F
330
1F
100
AcDbEntity
  8
1
  6
Continuous
 62
     3
100
AcDbLine
 10
28.7425479594128
 20
-25.4212448228163
 30
0.0
 11
28.8675479594128
 21
-26.1087448228163
 31
0.0
  0
LINE
  5
280
330
1F
100
AcDbEntity
  8
1
  6
Continuous
 62
     3
100
AcDbLine
 10
28.8675479594128
 20
-26.1087448228163
 30
0.0
 11
29.1175479594128
 21
-26.4837448228163
 31
0.0
  0
LINE
  5
281
330
1F
100
AcDbEntity
  8
1
  6
Continuous
 62
     3
100
AcDbLine
 10
29.1175479594128
 20
-26.4837448228163
 30
0.0
 11
29.5550479594128
 21
-26.6712448228163
 31
0.0
  0
LINE
  5
282
330
1F
100
AcDbEntity
  8
1
  6
Continuous
 62
     3
100
AcDbLine
 10
29.5550479594128
 20
-26.6712448228163
 30
0.0
 11
29.9925479594128
 21
-26.4837448228163
 31
0.0
  0
LINE
  5
283
330
1F
100
AcDbEntity
  8
1
  6
Continuous
 62
     3
100
AcDbLine
 10
29.9925479594128
 20
-26.4837448228163
 30
0.0
 11
30.3050479594128
 21
-26.1087448228163
 31
0.0
  0
LINE
  5
284
330
1F
100
AcDbEntity
  8
1
  6
Continuous
 62
     3
100
AcDbLine
 10
30.3050479594128
 20
-26.1087448228163
 30
0.0
 11
30.3675479594128
 21
-25.4212448228163
 31
0.0
  0
LINE
  5
285
330
1F
100
AcDbEntity
  8
1
  6
Continuous
 62
     3
100
AcDbLine
 10
30.3675479594128
 20
-25.4212448228163
 30
0.0
 11
30.3050479594128
 21
-24.7337448228163
 31
0.0
  0
LINE
  5
286
330
1F
100
AcDbEntity
  8
1
  6
Continuous
 62
     3
100
AcDbLine
 10
30.3050479594128
 20
-24.7337448228163
 30
0.0
 11
29.9925479594128
 21
-24.3587448228163
 31
0.0
  0
LINE
  5
287
330
1F
100
AcDbEntity
  8
1
  6
Continuous
 62
     3
100
AcDbLine
 10
29.9925479594128
 20
-24.3587448228163
 30
0.0
 11
29.5550479594128
 21
-24.1712448228163
 31
0.0
  0
ARC
  5
288
330
1F
100
AcDbEntity
  8
1
  6
Continuous
 62
     3
100
AcDbCircle
 10
-65.52058408150208
 20
0.00000000001218
 30
0.0
 40
17.50000000000006
100
AcDbArc
 50
143.8955081861616
 51
156.1044918138386
  0
ARC
  5
289
330
1F
100
AcDbEntity
  8
1
  6
Continuous
 62
     3
100
AcDbCircle
 10
-65.52058408150208
 20
0.00000000001218
 30
0.0
 40
17.5
100
AcDbArc
 50
131.4843359523014
 51
141.0551964059047
  0
ARC
  5
28A
330
1F
100
AcDbEntity
  8
1
  6
Continuous
 62
     3
100
AcDbCircle
 10
-65.52058408150208
 20
0.00000000001218
 30
0.0
 40
17.50000000000001
100
AcDbArc
 50
203.8955081861616
 51
216.1044918138383
  0
ARC
  5
28B
330
1F
100
AcDbEntity
  8
1
  6
Continuous
 62
     3
100
AcDbCircle
 10
-65.52058408150208
 20
0.00000000001218
 30
0.0
 40
17.50000000000002
100
AcDbArc
 50
218.9448035940952
 51
0.0
  0
ARC
  5
28C
330
1F
100
AcDbEntity
  8
1
  6
Continuous
 62
     3
100
AcDbCircle
 10
-65.52058408150208
 20
0.00000000001218
 30
0.0
 40
17.5
100
AcDbArc
 50
0.0
 51
62.24354080776386
  0
ARC
  5
28D
330
1F
100
AcDbEntity
  8
1
  6
Continuous
 62
     3
100
AcDbCircle
 10
-65.52058408150208
 20
0.00000000001218
 30
0.0
 40
17.5
100
AcDbArc
 50
83.89550818616145
 51
96.10449181383855
  0
ARC
  5
28E
330
1F
100
AcDbEntity
  8
1
  6
Continuous
 62
     3
100
AcDbCircle
 10
-23.02534940686231
 20
13.85322813999458
 30
0.0
 40
7.685975458555061
100
AcDbArc
 50
152.5388774534449
 51
207.4611225465552
  0
ARC
  5
28F
330
1F
100
AcDbEntity
  8
1
  6
Continuous
 62
     3
100
AcDbCircle
 10
-23.02534940686238
 20
-13.85322814004374
 30
0.0
 40
7.685975458555
100
AcDbArc
 50
152.5388774534447
 51
207.4611225465553
  0
ARC
  5
290
330
1F
100
AcDbEntity
  8
1
  6
Continuous
 62
     3
100
AcDbCircle
 10
-1.29247098030605
 20
-0.00000000002457
 30
0.0
 40
29.41885388511132
100
AcDbArc
 50
166.063258115985
 51
193.936741884015
  0
ARC
  5
291
330
1F
100
AcDbEntity
  8
1
  6
Continuous
 62
     3
100
AcDbCircle
 10
-6.50869446729062
 20
-31.16776485675941
 30
0.0
 40
19.00000000000001
100
AcDbArc
 50
118.4252638161419
 51
133.5522735077683
  0
ARC
  5
292
330
1F
100
AcDbEntity
  8
1
  6
Continuous
 62
     3
100
AcDbCircle
 10
-6.50869446729062
 20
3.46130857667194
 30
0.0
 40
19.0
100
AcDbArc
 50
226.4477264922317
 51
241.4131874459774
  0
ARC
  5
293
330
1F
100
AcDbEntity
  8
1
  6
Continuous
 62
     3
100
AcDbCircle
 10
-9.5000000000121
 20
14.06006684585712
 30
0.0
 40
1.414134525735191
100
AcDbArc
 50
270.0000000000007
 51
315.0032023773243
  0
ARC
  5
294
330
1F
100
AcDbEntity
  8
1
  6
Continuous
 62
     3
100
AcDbCircle
 10
-14.60000000001207
 20
14.06006684585712
 30
0.0
 40
1.414134525735192
100
AcDbArc
 50
224.9967976226756
 51
269.9999999999992
  0
ARC
  5
295
330
1F
100
AcDbEntity
  8
1
  6
Continuous
 62
     3
100
AcDbCircle
 10
-6.50869446729062
 20
31.16776485671026
 30
0.0
 40
19.0
100
AcDbArc
 50
226.4477264922317
 51
241.5841479820105
  0
ARC
  5
296
330
1F
100
AcDbEntity
  8
1
  6
Continuous
 62
     3
100
AcDbCircle
 10
-6.50869446729062
 20
-3.4613085767211
 30
0.0
 40
18.99999999999999
100
AcDbArc
 50
118.5868125540226
 51
133.5522735077683
  0
ARC
  5
297
330
1F
100
AcDbEntity
  8
0
  6
Continuous
 62
     3
100
AcDbCircle
 10
-5.37500000001209
 20
2.87317832059288
 30
0.0
 40
1.25
100
AcDbArc
 50
180.0
 51
0.0
  0
ARC
  5
298
330
1F
100
AcDbEntity
  8
0
  6
Continuous
 62
     3
100
AcDbCircle
 10
-5.37500000001209
 20
2.87317832059288
 30
0.0
 40
1.875
100
AcDbArc
 50
180.0
 51
311.8103148957784
  0
ARC
  5
299
330
1F
100
AcDbEntity
  8
0
  6
Continuous
 62
     3
100
AcDbCircle
 10
-5.37500000001209
 20
4.12317832059288
 30
0.0
 40
1.25
100
AcDbArc
 50
0.0
 51
180.0
  0
ARC
  5
29A
330
1F
100
AcDbEntity
  8
0
  6
Continuous
 62
     3
100
AcDbCircle
 10
-5.37500000001209
 20
4.12317832059288
 30
0.0
 40
1.875
100
AcDbArc
 50
0.0
 51
180.0
  0
ARC
  5
29B
330
1F
100
AcDbEntity
  8
0
  6
Continuous
 62
     3
100
AcDbCircle
 10
-9.81238973200153
 20
4.43567832059288
 30
0.0
 40
0.9375
100
AcDbArc
 50
270.0
 51
90.0
  0
ARC
  5
29C
330
1F
100
AcDbEntity
  8
0
  6
Continuous
 62
     3
100
AcDbCircle
 10
-9.81238973200153
 20
4.43567832059288
 30
0.0
 40
1.5625
100
AcDbArc
 50
270.0
 51
90.0
  0
ARC
  5
29D
330
1F
100
AcDbEntity
  8
1
  6
Continuous
 62
     3
100
AcDbCircle
 10
-3.73590251461131
 20
15.59027386062216
 30
0.0
 40
17.99999999999999
100
AcDbArc
 50
208.1957200003332
 51
208.5051265690078
  0
ARC
  5
29E
330
1F
100
AcDbEntity
  8
1
  6
Continuous
 62
     3
100
AcDbCircle
 10
-3.73590251461131
 20
-15.59027386067132
 30
0.0
 40
18.0
100
AcDbArc
 50
151.4948734786393
 51
151.8042799996667
  0
ARC
  5
29F
330
1F
100
AcDbEntity
  8
1
  6
Continuous
 62
     3
100
AcDbCircle
 10
7.43848856659907
 20
2.62849441437228
 30
0.0
 40
1.87154516676282
100
AcDbArc
 50
68.61390381705432
 51
91.533652685896
  0
ARC
  5
2A0
330
1F
100
AcDbEntity
  8
1
  6
Continuous
 62
     3
100
AcDbCircle
 10
8.02236092460414
 20
3.62011068355896
 30
0.0
 40
0.6110617344278327
100
AcDbArc
 50
286.2602047083563
 51
0.0
  0
ARC
  5
2A1
330
1F
100
AcDbEntity
  8
1
  6
Continuous
 62
     3
100
AcDbCircle
 10
7.82682116958762
 20
3.62011068355896
 30
0.0
 40
0.8066014894447804
100
AcDbArc
 50
0.0
 51
68.61390381704746
  0
ARC
  5
2A2
330
1F
100
AcDbEntity
  8
1
  6
Continuous
 62
     3
100
AcDbCircle
 10
7.32836938336164
 20
2.59115235056531
 30
0.0
 40
1.395595373650359
100
AcDbArc
 50
68.62079206314303
 51
102.8931852343792
  0
ARC
  5
2A3
330
1F
100
AcDbEntity
  8
1
  6
Continuous
 62
     3
100
AcDbCircle
 10
7.15009633259438
 20
3.36995901887059
 30
0.0
 40
0.5966453706924488
100
AcDbArc
 50
102.8931852343751
 51
159.8373291807022
  0
ARC
  5
2A4
330
1F
100
AcDbEntity
  8
1
  6
Continuous
 62
     3
100
AcDbCircle
 10
7.34199349336213
 20
2.89371054323959
 30
0.0
 40
1.606329037895527
100
AcDbArc
 50
88.34456527248487
 51
131.6418123880973
  0
ARC
  5
2A5
330
1F
100
AcDbEntity
  8
1
  6
Continuous
 62
     3
100
AcDbCircle
 10
6.84032136771658
 20
3.45792759517927
 30
0.0
 40
0.851335128417179
100
AcDbArc
 50
131.6418123880983
 51
170.5285789484721
  0
ARC
  5
2A6
330
1F
100
AcDbEntity
  8
1
  6
Continuous
 62
     3
100
AcDbCircle
 10
7.7168300573907
 20
3.58344697949332
 30
0.0
 40
0.3299733365908959
100
AcDbArc
 50
270.0
 51
68.62079206313304
  0
ARC
  5
2A7
330
1F
100
AcDbEntity
  8
1
  6
Continuous
 62
     3
100
AcDbCircle
 10
7.7168300573907
 20
2.48353585752324
 30
0.0
 40
0.3299733365909996
100
AcDbArc
 50
294.8219114812197
 51
90.0
  0
ARC
  5
2A8
330
1F
100
AcDbEntity
  8
1
  6
Continuous
 62
     3
100
AcDbCircle
 10
7.38362168808792
 20
3.20394116900567
 30
0.0
 40
1.123706056204723
100
AcDbArc
 50
241.6270114128831
 51
294.8219114812114
  0
ARC
  5
2A9
330
1F
100
AcDbEntity
  8
1
  6
Continuous
 62
     3
100
AcDbCircle
 10
7.09354708827429
 20
2.66685437785162
 30
0.0
 40
0.5132918569192619
100
AcDbArc
 50
184.5280630138053
 51
241.6270114128829
  0
ARC
  5
2AA
330
1F
100
AcDbEntity
  8
1
  6
Continuous
 62
     3
100
AcDbCircle
 10
7.91848042975128
 20
2.37354474532633
 30
0.0
 40
0.7149422292812256
100
AcDbArc
 50
290.2514640410108
 51
67.38013505191672
  0
ARC
  5
2AB
330
1F
100
AcDbEntity
  8
1
  6
Continuous
 62
     3
100
AcDbCircle
 10
7.4052434602345
 20
3.76462496160791
 30
0.0
 40
2.197681705726282
100
AcDbArc
 50
251.2101901767275
 51
290.2514640410192
  0
ARC
  5
2AC
330
1F
100
AcDbEntity
  8
1
  6
Continuous
 62
     3
100
AcDbCircle
 10
7.03174972433899
 20
2.66685437785162
 30
0.0
 40
1.038113758034635
100
AcDbArc
 50
182.5365559993062
 51
251.2101901767212
  0
ARC
  5
2AD
330
1F
100
AcDbEntity
  8
1
  6
Continuous
 62
     3
100
AcDbCircle
 10
6.14452390131488
 20
-3.54921836193762
 30
0.0
 40
0.1445759409238865
100
AcDbArc
 50
109.9999999999994
 51
250.0000000000084
  0
ARC
  5
2AE
330
1F
100
AcDbEntity
  8
1
  6
Continuous
 62
     3
100
AcDbCircle
 10
8.51942389341776
 20
86.30149451071311
 30
0.0
 40
22.19190097197535
100
AcDbArc
 50
343.940639486006
 51
16.05936051399428
  0
ARC
  5
2AF
330
1F
100
AcDbEntity
  8
1
  6
Continuous
 62
     3
100
AcDbCircle
 10
8.51942389341776
 20
70.30149451071311
 30
0.0
 40
22.19190097197535
100
AcDbArc
 50
343.940639486006
 51
16.05936051399399
  0
ARC
  5
2B0
330
1F
100
AcDbEntity
  8
1
  6
Continuous
 62
     3
100
AcDbCircle
 10
22.82086625868136
 20
-13.90602237041854
 30
0.0
 40
7.890458606711767
100
AcDbArc
 50
332.9039201865984
 51
27.09607981340009
  0
ARC
  5
2B1
330
1F
100
AcDbEntity
  8
1
  6
Continuous
 62
     3
100
AcDbCircle
 10
22.82086625868147
 20
13.9060223704429
 30
0.0
 40
7.890458606711577
100
AcDbArc
 50
332.9039201865995
 51
27.09607981340231
  0
ARC
  5
2B2
330
1F
100
AcDbEntity
  8
1
  6
Continuous
 62
     3
100
AcDbCircle
 10
1.26646113672019
 20
0.00000000001229
 30
0.0
 40
29.44486372867287
100
AcDbArc
 50
346.0694454376431
 51
13.93055456235669
  0
ARC
  5
2B3
330
1F
100
AcDbEntity
  8
1
  6
Continuous
 62
     3
100
AcDbCircle
 10
-86.37741808606818
 20
-16.208392165101
 30
0.0
 40
11.99999999999999
100
AcDbArc
 50
124.7686256766013
 51
151.987225282609
  0
ARC
  5
2B4
330
1F
100
AcDbEntity
  8
1
  6
Continuous
 62
     3
100
AcDbCircle
 10
-86.37741808606818
 20
16.20839216512536
 30
0.0
 40
12.0
100
AcDbArc
 50
208.012774717391
 51
235.2313743233987
  0
ARC
  5
2B5
330
1F
100
AcDbEntity
  8
1
  6
Continuous
 62
     3
100
AcDbCircle
 10
-89.53415028285988
 20
9.52627944164106
 30
0.0
 40
3.813566201357737
100
AcDbArc
 50
303.6264291359792
 51
33.62642913597382
  0
ARC
  5
2B6
330
1F
100
AcDbEntity
  8
1
  6
Continuous
 62
     3
100
AcDbCircle
 10
-95.37004504932202
 20
0.00000000001218
 30
0.0
 40
1.601487802197127
100
AcDbArc
 50
180.0
 51
201.9716835378982
  0
ARC
  5
2B7
330
1F
100
AcDbEntity
  8
1
  6
Continuous
 62
     3
100
AcDbCircle
 10
-83.33824616398378
 20
3.91830807499889
 30
0.0
 40
14.25188658040794
100
AcDbArc
 50
198.4801276306137
 51
226.0997003517959
  0
ARC
  5
2B8
330
1F
100
AcDbEntity
  8
1
  6
Continuous
 62
     3
100
AcDbCircle
 10
-95.37004504932202
 20
0.00000000001218
 30
0.0
 40
1.601487802197622
100
AcDbArc
 50
158.0283164621018
 51
180.0
  0
ARC
  5
2B9
330
1F
100
AcDbEntity
  8
1
  6
Continuous
 62
     3
100
AcDbCircle
 10
-83.33824616398375
 20
-3.91830807497453
 30
0.0
 40
14.25188658040796
100
AcDbArc
 50
133.9002996482042
 51
161.5198723693863
  0
ARC
  5
2BA
330
1F
100
AcDbEntity
  8
1
  6
Continuous
 62
     3
100
AcDbCircle
 10
-89.53415028285934
 20
-9.52627944161658
 30
0.0
 40
3.813566201357234
100
AcDbArc
 50
326.3735708640285
 51
56.37357086402596
  0
ARC
  5
2BB
330
1F
100
AcDbEntity
  8
1
  6
Continuous
 62
     3
100
AcDbCircle
 10
-98.42229000367477
 20
0.00000000001214
 30
0.0
 40
12.70170592217267
100
AcDbArc
 50
330.0000000000023
 51
29.99999999999767
  0
ARC
  5
2BC
330
1F
100
AcDbEntity
  8
1
  6
Continuous
 62
     3
100
AcDbCircle
 10
-97.60281931613261
 20
-16.79999999998761
 30
0.0
 40
6.000000000000049
100
AcDbArc
 50
43.08236558305824
 51
90.0
  0
ARC
  5
2BD
330
1F
100
AcDbEntity
  8
1
  6
Continuous
 62
     3
100
AcDbCircle
 10
-97.60281931613261
 20
16.80000000001239
 30
0.0
 40
5.999999999999998
100
AcDbArc
 50
270.0
 51
316.9176344169384
  0
ARC
  5
2BE
330
1F
100
AcDbEntity
  8
1
  6
Continuous
 62
     3
100
AcDbCircle
 10
-0.23526858653815
 20
56.55149451076301
 30
0.0
 40
5.999999999999962
100
AcDbArc
 50
48.59037788854506
 51
64.54055153293511
  0
ARC
  5
2BF
330
1F
100
AcDbEntity
  8
1
  6
Continuous
 62
     3
100
AcDbCircle
 10
-2.10167880916094
 20
54.4769879206435
 30
0.0
 40
20.0
100
AcDbArc
 50
136.5262617094822
 51
151.0350428601681
  0
ARC
  5
2C0
330
1F
100
AcDbEntity
  8
1
  6
Continuous
 62
     3
100
AcDbCircle
 10
-2.10167880916094
 20
102.1260011009239
 30
0.0
 40
19.99999999999994
100
AcDbArc
 50
208.9649571398314
 51
223.4737382905178
  0
ARC
  5
2C1
330
1F
100
AcDbEntity
  8
1
  6
Continuous
 62
     3
100
AcDbCircle
 10
-8.51942389343955
 20
70.30149451095731
 30
0.0
 40
22.19190097197779
100
AcDbArc
 50
163.9406394860075
 51
196.0593605139923
  0
ARC
  5
2C2
330
1F
100
AcDbEntity
  8
1
  6
Continuous
 62
     3
100
AcDbCircle
 10
-8.51942389343955
 20
86.30149451067571
 30
0.0
 40
22.19190097197779
100
AcDbArc
 50
163.9406394860075
 51
196.0593605139925
  0
ARC
  5
2C3
330
1F
100
AcDbEntity
  8
0
  6
Continuous
 62
     3
100
AcDbCircle
 10
-14.60000000001216
 20
92.50082109285661
 30
0.0
 40
1.0
100
AcDbArc
 50
180.0
 51
270.0
  0
ARC
  5
2C4
330
1F
100
AcDbEntity
  8
0
  6
Continuous
 62
     3
100
AcDbCircle
 10
-14.60000000001216
 20
65.45882213962152
 30
0.0
 40
1.0
100
AcDbArc
 50
90.0
 51
180.0
  0
ARC
  5
2C5
330
1F
100
AcDbEntity
  8
1
  6
Continuous
 62
     3
100
AcDbCircle
 10
-0.00000000001225
 20
78.30149451074821
 30
0.0
 40
15.99999999999988
100
AcDbArc
 50
231.0556523566188
 51
308.9443476433816
  0
ARC
  5
2C6
330
1F
100
AcDbEntity
  8
1
  6
Continuous
 62
     3
100
AcDbCircle
 10
-0.00000000001225
 20
78.30149451074821
 30
0.0
 40
16.49999999999981
100
AcDbArc
 50
229.9999999999994
 51
310.0000000000008
  0
ARC
  5
2C7
330
1F
100
AcDbEntity
  8
1
  6
Continuous
 62
     3
100
AcDbCircle
 10
-0.00000000001225
 20
78.30149451074821
 30
0.0
 40
16.50000000000009
100
AcDbArc
 50
49.99999999999984
 51
129.9999999999999
  0
ARC
  5
2C8
330
1F
100
AcDbEntity
  8
1
  6
Continuous
 62
     3
100
AcDbCircle
 10
-0.00000000001225
 20
78.30149451074821
 30
0.0
 40
16.0000000000002
100
AcDbArc
 50
51.05565235661901
 51
128.9443476433805
  0
ARC
  5
2C9
330
1F
100
AcDbEntity
  8
1
  6
Continuous
 62
     3
100
AcDbCircle
 10
-0.00000000001225
 20
78.30149451074821
 30
0.0
 40
22.49999999999988
100
AcDbArc
 50
171.7034100428639
 51
188.2965899571357
  0
ARC
  5
2CA
330
1F
100
AcDbEntity
  8
1
  6
Continuous
 62
     3
100
AcDbCircle
 10
-0.00000000001225
 20
78.30149451074821
 30
0.0
 40
14.4999999999999
100
AcDbArc
 50
155.1632542125953
 51
204.8367457874044
  0
ARC
  5
2CB
330
1F
100
AcDbEntity
  8
1
  6
Continuous
 62
     3
100
AcDbCircle
 10
-0.00000000001225
 20
78.30149451074821
 30
0.0
 40
24.50000000000001
100
AcDbArc
 50
167.7629860987539
 51
192.2370139012457
  0
ARC
  5
2CC
330
1F
100
AcDbEntity
  8
1
  6
Continuous
 62
     3
100
AcDbCircle
 10
-0.00000000001225
 20
78.30149451074821
 30
0.0
 40
25.00000000000005
100
AcDbArc
 50
167.0168880077679
 51
192.9831119922317
  0
ARC
  5
2CD
330
1F
100
AcDbEntity
  8
1
  6
Continuous
 62
     3
100
AcDbCircle
 10
-0.00000000001225
 20
78.30149451074821
 30
0.0
 40
25.00000000000018
100
AcDbArc
 50
347.0168880077683
 51
12.98311199223204
  0
ARC
  5
2CE
330
1F
100
AcDbEntity
  8
1
  6
Continuous
 62
     3
100
AcDbCircle
 10
-0.00000000001225
 20
78.30149451074821
 30
0.0
 40
24.49999999999994
100
AcDbArc
 50
347.7629860987543
 51
12.23701390124597
  0
ARC
  5
2CF
330
1F
100
AcDbEntity
  8
1
  6
Continuous
 62
     3
100
AcDbCircle
 10
-0.00000000001225
 20
78.30149451074821
 30
0.0
 40
22.49999999999999
100
AcDbArc
 50
0.0
 51
8.29658995713612
  0
ARC
  5
2D0
330
1F
100
AcDbEntity
  8
1
  6
Continuous
 62
     3
100
AcDbCircle
 10
-0.00000000001225
 20
78.30149451074821
 30
0.0
 40
22.49999999999994
100
AcDbArc
 50
351.7034100428643
 51
0.0
  0
ARC
  5
2D1
330
1F
100
AcDbEntity
  8
1
  6
Continuous
 62
     3
100
AcDbCircle
 10
-0.00000000001225
 20
78.30149451074821
 30
0.0
 40
14.50000000000004
100
AcDbArc
 50
335.1632542125959
 51
24.83674578740441
  0
ARC
  5
2D2
330
1F
100
AcDbEntity
  8
1
  6
Continuous
 62
     3
100
AcDbCircle
 10
-0.00000000001225
 20
78.30149451074821
 30
0.0
 40
3.800000000000043
100
AcDbArc
 50
7.08045784843182
 51
52.91954215157059
  0
ARC
  5
2D3
330
1F
100
AcDbEntity
  8
1
  6
Continuous
 62
     3
100
AcDbCircle
 10
-0.00000000001225
 20
78.30149451074821
 30
0.0
 40
3.800000000000042
100
AcDbArc
 50
67.08045784842872
 51
112.9195421515701
  0
ARC
  5
2D4
330
1F
100
AcDbEntity
  8
1
  6
Continuous
 62
     3
100
AcDbCircle
 10
-0.00000000001225
 20
78.30149451074821
 30
0.0
 40
3.800000000000001
100
AcDbArc
 50
127.0804578484287
 51
172.919542151568
  0
ARC
  5
2D5
330
1F
100
AcDbEntity
  8
1
  6
Continuous
 62
     3
100
AcDbCircle
 10
-0.00000000001225
 20
78.30149451074821
 30
0.0
 40
3.799999999999938
100
AcDbArc
 50
187.0804578484294
 51
232.9195421515697
  0
ARC
  5
2D6
330
1F
100
AcDbEntity
  8
1
  6
Continuous
 62
     3
100
AcDbCircle
 10
-0.00000000001225
 20
78.30149451074821
 30
0.0
 40
3.799999999999975
100
AcDbArc
 50
247.0804578484311
 51
292.9195421515712
  0
ARC
  5
2D7
330
1F
100
AcDbEntity
  8
1
  6
Continuous
 62
     3
100
AcDbCircle
 10
-0.00000000001225
 20
78.30149451074821
 30
0.0
 40
3.799999999999899
100
AcDbArc
 50
307.080457848431
 51
352.9195421515707
  0
ARC
  5
2D8
330
1F
100
AcDbEntity
  8
1
  6
Continuous
 62
     3
100
AcDbCircle
 10
-0.00000000001225
 20
78.30149451060562
 30
0.0
 40
5.999999999999888
100
AcDbArc
 50
194.4775121859302
 51
260.4059317731403
  0
ARC
  5
2D9
330
1F
100
AcDbEntity
  8
1
  6
Continuous
 62
     3
100
AcDbCircle
 10
-0.00000000001225
 20
78.30149451060562
 30
0.0
 40
6.000000000000155
100
AcDbArc
 50
14.47751218592926
 51
165.5224878140701
  0
ARC
  5
2DA
330
1F
100
AcDbEntity
  8
1
  6
Continuous
 62
     3
100
AcDbCircle
 10
-0.00000000001225
 20
78.30149451060562
 30
0.0
 40
6.000000000000003
100
AcDbArc
 50
279.5940682268613
 51
345.5224878140705
  0
ARC
  5
2DB
330
1F
100
AcDbEntity
  8
1
  6
DOT_CENTER
 62
     3
100
AcDbCircle
 10
-0.00000000001216
 20
78.3014945104528
 30
0.0
 40
10.49999999999993
100
AcDbArc
 50
20.84538197790982
 51
68.87536453337923
  0
ARC
  5
2DC
330
1F
100
AcDbEntity
  8
1
  6
Continuous
 62
     3
100
AcDbCircle
 10
-0.00000000001216
 20
78.3014945104528
 30
0.0
 40
3.799999999999931
100
AcDbArc
 50
187.080457848432
 51
232.9195421515726
  0
ARC
  5
2DD
330
1F
100
AcDbEntity
  8
1
  6
Continuous
 62
     3
100
AcDbCircle
 10
-0.00000000001216
 20
78.3014945104528
 30
0.0
 40
3.800000000000008
100
AcDbArc
 50
247.0804578484299
 51
292.9195421515701
  0
ARC
  5
2DE
330
1F
100
AcDbEntity
  8
1
  6
Continuous
 62
     3
100
AcDbCircle
 10
-0.00000000001216
 20
78.3014945104528
 30
0.0
 40
3.800000000000143
100
AcDbArc
 50
307.0804578484288
 51
352.9195421515682
  0
ARC
  5
2DF
330
1F
100
AcDbEntity
  8
1
  6
Continuous
 62
     3
100
AcDbCircle
 10
-16.80000000001215
 20
110.3837297453438
 30
0.0
 40
6.000000000000005
100
AcDbArc
 50
345.1648884180245
 51
0.0
  0
ARC
  5
2E0
330
1F
100
AcDbEntity
  8
1
  6
Continuous
 62
     3
100
AcDbCircle
 10
-16.80000000001215
 20
110.3837297453438
 30
0.0
 40
6.000000000000005
100
AcDbArc
 50
345.1648884180245
 51
0.0
  0
ARC
  5
2E1
330
1F
100
AcDbEntity
  8
1
  6
Continuous
 62
     3
100
AcDbCircle
 10
16.79999999998782
 20
110.3837297453438
 30
0.0
 40
5.999999999999998
100
AcDbArc
 50
180.0
 51
194.8351115819755
  0
ARC
  5
2E2
330
1F
100
AcDbEntity
  8
1
  6
Continuous
 62
     3
100
AcDbCircle
 10
-5.50000000001219
 20
108.2404871926132
 30
0.0
 40
9.738992681900026
100
AcDbArc
 50
235.615752531957
 51
304.3842474680428
  0
ARC
  5
2E3
330
1F
100
AcDbEntity
  8
1
  6
Continuous
 62
     3
100
AcDbCircle
 10
5.49999999998781
 20
108.2404871926132
 30
0.0
 40
9.738992681900093
100
AcDbArc
 50
235.6157525319574
 51
304.3842474680428
  0
ARC
  5
2E4
330
1F
100
AcDbEntity
  8
1
  6
Continuous
 62
     3
100
AcDbCircle
 10
-13.94867272228345
 20
25.75000000009148
 30
0.0
 40
9.999999999999984
100
AcDbArc
 50
237.2362422419068
 51
270.0000000000011
  0
ARC
  5
2E5
330
1F
100
AcDbEntity
  8
1
  6
Continuous
 62
     3
100
AcDbCircle
 10
-13.94867272228345
 20
-25.74999999998782
 30
0.0
 40
10.0
100
AcDbArc
 50
90.0
 51
122.7637577588566
  0
ARC
  5
2E6
330
1F
100
AcDbEntity
  8
1
  6
Continuous
 62
     3
100
AcDbCircle
 10
-0.23526858653815
 20
-21.74999999998782
 30
0.0
 40
6.00000000000001
100
AcDbArc
 50
48.59037789072904
 51
89.99999999999919
  0
ARC
  5
2E7
330
1F
100
AcDbEntity
  8
1
  6
Continuous
 62
     3
100
AcDbCircle
 10
-0.00000000001216
 20
-108.6999999999878
 30
0.0
 40
150.0000000000001
100
AcDbArc
 50
98.62690346331904
 51
98.89908077844834
  0
ARC
  5
2E8
330
1F
100
AcDbEntity
  8
1
  6
Continuous
 62
     3
100
AcDbCircle
 10
-0.00000000001216
 20
-108.6999999999878
 30
0.0
 40
150.0000000000001
100
AcDbArc
 50
81.10091922155162
 51
81.37309653668093
  0
ARC
  5
2E9
330
1F
100
AcDbEntity
  8
1
  6
Continuous
 62
     3
100
AcDbCircle
 10
-0.00000000001216
 20
-108.6999999999878
 30
0.0
 40
150.0000000000001
100
AcDbArc
 50
94.92050575988183
 51
95.54725433855201
  0
ARC
  5
2EA
330
1F
100
AcDbEntity
  8
1
  6
Continuous
 62
     3
100
AcDbCircle
 10
-0.00000000001216
 20
-108.6999999999878
 30
0.0
 40
150.0
100
AcDbArc
 50
84.452745661448
 51
87.50646881745426
  0
ARC
  5
2EB
330
1F
100
AcDbEntity
  8
1
  6
Continuous
 62
     3
100
AcDbCircle
 10
-59.70840898711867
 20
45.77197178743843
 30
0.0
 40
6.472081621848575
100
AcDbArc
 50
270.3337993495156
 51
300.5743722016892
  0
ARC
  5
2EC
330
1F
100
AcDbEntity
  8
1
  6
Continuous
 62
     3
100
AcDbCircle
 10
-71.33275917588549
 20
45.77197178743843
 30
0.0
 40
6.472081621848518
100
AcDbArc
 50
239.4256277983091
 51
269.6662006504844
  0
ARC
  5
2ED
330
1F
100
AcDbEntity
  8
1
  6
Continuous
 62
     3
100
AcDbCircle
 10
-65.5205840815022
 20
-108.6999999999881
 30
0.0
 40
150.0000000000003
100
AcDbArc
 50
84.41264954953009
 51
95.58735045046991
  0
ARC
  5
2EE
330
1F
100
AcDbEntity
  8
1
  6
Continuous
 62
     3
100
AcDbCircle
 10
-1432.108849144011
 20
-0.42362572513466
 30
0.0
 40
1446.0
100
AcDbArc
 50
1.13398855103923
 51
1.61699909863635
  0
ARC
  5
2EF
330
1F
100
AcDbEntity
  8
1
  6
Continuous
 62
     3
100
AcDbCircle
 10
1432.108849143987
 20
-0.42362572513466
 30
0.0
 40
1446.0
100
AcDbArc
 50
178.3830009013637
 51
178.8660114489608
  0
ARC
  5
2F0
330
1F
100
AcDbEntity
  8
1
  6
Continuous
 62
     3
100
AcDbCircle
 10
-0.00000000000371
 20
-108.7000000000435
 30
0.0
 40
150.0000000000564
100
AcDbArc
 50
95.54725433855315
 51
98.62690346331904
  0
ARC
  5
2F1
330
1F
100
AcDbEntity
  8
1
  6
Continuous
 62
     3
100
AcDbCircle
 10
-0.00000000001216
 20
-108.6999999999878
 30
0.0
 40
150.0000000000001
100
AcDbArc
 50
91.91021317170997
 51
95.54725433855201
  0
ARC
  5
2F2
330
1F
100
AcDbEntity
  8
1
  6
Continuous
 62
     3
100
AcDbCircle
 10
-0.00000000001216
 20
-108.6999999999878
 30
0.0
 40
150.0
100
AcDbArc
 50
88.48902160408727
 51
91.91021317170997
  0
ARC
  5
2F3
330
1F
100
AcDbEntity
  8
1
  6
Continuous
 62
     3
100
AcDbCircle
 10
-0.00000000004043
 20
-108.7000000002043
 30
0.0
 40
150.0000000002184
100
AcDbArc
 50
81.37309653668265
 51
84.45274566144525
  0
ARC
  5
2F4
330
1F
100
AcDbEntity
  8
1
  6
Continuous
 62
     3
100
AcDbCircle
 10
-0.00000000001216
 20
-108.6999999999878
 30
0.0
 40
150.0
100
AcDbArc
 50
88.08978682829002
 51
88.48902160408727
  0
ARC
  5
2F5
330
1F
100
AcDbEntity
  8
1
  6
Continuous
 62
     3
100
AcDbCircle
 10
-0.00000000001216
 20
-108.6999999999878
 30
0.0
 40
150.0000000000001
100
AcDbArc
 50
87.50646881745426
 51
87.70463161158723
  0
ARC
  5
2F6
330
1F
100
AcDbEntity
  8
1
  6
Continuous
 62
     3
100
AcDbCircle
 10
-0.00000000001216
 20
-108.6999999999878
 30
0.0
 40
150.0
100
AcDbArc
 50
87.70222202917631
 51
88.08978682829002
  0
CIRCLE
  5
2F7
330
1F
100
AcDbEntity
  8
1
  6
Continuous
 62
     3
100
AcDbCircle
 10
-65.52058408150208
 20
0.00000000001218
 30
0.0
 40
15.5
  0
CIRCLE
  5
2F8
330
1F
100
AcDbEntity
  8
1
  6
Continuous
 62
     3
100
AcDbCircle
 10
-0.00000000001225
 20
78.30149451074821
 30
0.0
 40
4.999999999999999
  0
CIRCLE
  5
2F9
330
1F
100
AcDbEntity
  8
1
  6
Continuous
 62
     3
100
AcDbCircle
 10
-0.00000000001225
 20
78.30149451074821
 30
0.0
 40
3.5
  0
CIRCLE
  5
2FA
330
1F
100
AcDbEntity
  8
1
  6
Continuous
 62
     3
100
AcDbCircle
 10
7.42462120244673
 20
85.7261157129115
 30
0.0
 40
3.62999999999991
  0
CIRCLE
  5
2FB
330
1F
100
AcDbEntity
  8
1
  6
Continuous
 62
     3
100
AcDbCircle
 10
7.42462120244673
 20
85.7261157129115
 30
0.0
 40
3.500000000000085
  0
CIRCLE
  5
2FC
330
1F
100
AcDbEntity
  8
1
  6
Continuous
 62
     3
100
AcDbCircle
 10
7.42462120244673
 20
85.7261157129115
 30
0.0
 40
3.000000000000084
  0
CIRCLE
  5
2FD
330
1F
100
AcDbEntity
  8
1
  6
Continuous
 62
     3
100
AcDbCircle
 10
-65.52058408150208
 20
0.00000000001218
 30
0.0
 40
8.0
  0
CIRCLE
  5
2FE
330
1F
100
AcDbEntity
  8
1
  6
Continuous
 62
     3
100
AcDbCircle
 10
-65.52058408150208
 20
0.00000000001218
 30
0.0
 40
9.0
  0
CIRCLE
  5
2FF
330
1F
100
AcDbEntity
  8
1
  6
Continuous
 62
     3
100
AcDbCircle
 10
-65.52058408150208
 20
0.00000000001218
 30
0.0
 40
11.53659891954118
  0
CIRCLE
  5
300
330
1F
100
AcDbEntity
  8
1
  6
Continuous
 62
     3
100
AcDbCircle
 10
-65.52058408150208
 20
0.00000000001218
 30
0.0
 40
12.01522357407891
  0
CIRCLE
  5
301
330
1F
100
AcDbEntity
  8
1
  6
Continuous
 62
     3
100
AcDbCircle
 10
-65.52058408150208
 20
0.00000000001218
 30
0.0
 40
13.21470937871567
  0
CIRCLE
  5
302
330
1F
100
AcDbEntity
  8
1
  6
Continuous
 62
     3
100
AcDbCircle
 10
-65.52058408150208
 20
0.00000000001218
 30
0.0
 40
13.39999999999998
  0
CIRCLE
  5
303
330
1F
100
AcDbEntity
  8
1
  6
Continuous
 62
     3
100
AcDbCircle
 10
-65.52058408150208
 20
31.60000000001215
 30
0.0
 40
1.249999999999943
  0
SPLINE
  5
304
330
1F
100
AcDbEntity
  8
0
  6
Continuous
 62
     3
100
AcDbSpline
210
0.0
220
0.0
230
1.0
 70
     8
 71
     3
 72
    21
 73
    17
 74
    15
 42
0.000000001
 43
0.0000000001
 44
0.00000001
 40
0.0
 40
0.0
 40
0.0
 40
0.0
 40
0.0345479065554341
 40
0.0679761872876589
 40
0.1004210109437474
 40
0.1318337506534921
 40
0.1622638982954542
 40
0.1918028856720508
 40
0.2204340970416496
 40
0.2483578879206856
 40
0.3025071712296082
 40
0.3550759413769817
 40
0.3810191146151088
 40
0.4068923633031802
 40
0.432827848966326
 40
0.4588902904701884
 40
0.4588902904701884
 40
0.4588902904701884
 40
0.4588902904701884
 10
-15.36473141348609
 20
14.64174737781531
 30
0.0
 10
-15.37431906492733
 20
14.63536485931666
 30
0.0
 10
-15.39318364395088
 20
14.62280665468884
 30
0.0
 10
-15.41998492417669
 20
14.60272362174069
 30
0.0
 10
-15.44503903829932
 20
14.58211702789846
 30
0.0
 10
-15.46824853657995
 20
14.56090152509999
 30
0.0
 10
-15.48958650132277
 20
14.53914112345689
 30
0.0
 10
-15.50901543006999
 20
14.51687536639386
 30
0.0
 10
-15.52653929250016
 20
14.49412394928486
 30
0.0
 10
-15.54715794007689
 20
14.46349562853208
 30
0.0
 10
-15.56849924459502
 20
14.42384460570869
 30
0.0
 10
-15.58382327543326
 20
14.38219404788385
 30
0.0
 10
-15.59226850466125
 20
14.34841152641453
 30
0.0
 10
-15.59672221364749
 20
14.32286143085276
 30
0.0
 10
-15.59949344702089
 20
14.29702113924042
 30
0.0
 10
-15.59983087916897
 20
14.27968492559412
 30
0.0
 10
-15.60000000001209
 20
14.27099565485611
 30
0.0
 11
-15.36473141348609
 21
14.64174737781531
 31
0.0
 11
-15.39330774699818
 21
14.62233215504085
 31
0.0
 11
-15.42008865160869
 21
14.6023263290691
 31
0.0
 11
-15.4451173262962
 21
14.58168094152034
 31
0.0
 11
-15.46828852299439
 21
14.56047113544051
 31
0.0
 11
-15.48957508290741
 21
14.53872541693705
 31
0.0
 11
-15.50897834028489
 21
14.51645289120081
 31
0.0
 11
-15.52643262282348
 21
14.49375720191889
 31
0.0
 11
-15.54200985631879
 21
14.47058204448972
 31
0.0
 11
-15.56756854424333
 21
14.42284423469751
 31
0.0
 11
-15.58568073364609
 21
14.37349421598661
 31
0.0
 11
-15.59196732295673
 21
14.34832425213582
 31
0.0
 11
-15.59643835251049
 21
14.32284023843552
 31
0.0
 11
-15.59911252355999
 21
14.29704298439255
 31
0.0
 11
-15.60000000001209
 21
14.27099565485611
 31
0.0
  0
SPLINE
  5
305
330
1F
100
AcDbEntity
  8
0
  6
Continuous
 62
     3
100
AcDbSpline
210
0.0
220
0.0
230
1.0
 70
     8
 71
     3
 72
    21
 73
    17
 74
    15
 42
0.000000001
 43
0.0000000001
 44
0.00000001
 40
0.0
 40
0.0
 40
0.0
 40
0.0
 40
0.0821017106554429
 40
0.1699987351320807
 40
0.2162939513437543
 40
0.2639967418361565
 40
0.3130765798480114
 40
0.3634374317899412
 40
0.4147103932350648
 40
0.4670560153785328
 40
0.5205498323019034
 40
0.5748665256101331
 40
0.6300273905611611
 40
0.6857063046211742
 40
0.7414627602215013
 40
0.7973936439949346
 40
0.7973936439949346
 40
0.7973936439949346
 40
0.7973936439949346
 10
-15.36473141350059
 20
14.6417473778273
 30
0.0
 10
-15.34130855539584
 20
14.65594001588543
 30
0.0
 10
-15.29280948225717
 20
14.68532709479909
 30
0.0
 10
-15.22695552399855
 20
14.71507829868137
 30
0.0
 10
-15.17046473747626
 20
14.7370954636234
 30
0.0
 10
-15.12534804190346
 20
14.75260659173549
 30
0.0
 10
-15.07840102502235
 20
14.76683983205074
 30
0.0
 10
-15.02982617146268
 20
14.7797000051802
 30
0.0
 10
-14.9797841381399
 20
14.79115211509145
 30
0.0
 10
-14.92837192883052
 20
14.80117294271725
 30
0.0
 10
-14.87566920618682
 20
14.80973685941414
 30
0.0
 10
-14.82179951183212
 20
14.81680793574239
 30
0.0
 10
-14.76701838914858
 20
14.82235062759271
 30
0.0
 10
-14.71162020335062
 20
14.82629167288016
 30
0.0
 10
-14.65587462969597
 20
14.8287608015632
 30
0.0
 10
-14.61864425820683
 20
14.82906588226926
 30
0.0
 10
-14.60000000001209
 20
14.82921865359191
 30
0.0
 11
-15.36473141350059
 21
14.6417473778273
 31
0.0
 11
-15.29370254727432
 21
14.68292493578427
 31
0.0
 11
-15.21393785909849
 21
14.71985029156602
 31
0.0
 11
-15.17079331407663
 21
14.73663705521106
 31
0.0
 11
-15.12569464963199
 21
14.75218269310021
 31
0.0
 11
-15.07873117990176
 21
14.76643973252326
 31
0.0
 11
-15.03005294232509
 21
14.77934882710461
 31
0.0
 11
-14.98007589631662
 21
14.79080358725148
 31
0.0
 11
-14.92870004084769
 21
14.8008328282166
 31
0.0
 11
-14.8759008040854
 21
14.80942521155078
 31
0.0
 11
-14.82204767868149
 21
14.81650645547312
 31
0.0
 11
-14.76716722830781
 21
14.82206137026802
 31
0.0
 11
-14.71163080209709
 21
14.82604215357951
 31
0.0
 11
-14.65592523088944
 21
14.82842362926781
 31
0.0
 11
-14.60000000001209
 21
14.82921865359191
 31
0.0
  0
SPLINE
  5
306
330
1F
100
AcDbEntity
  8
0
  6
Continuous
 62
     3
100
AcDbSpline
210
0.0
220
0.0
230
1.0
 70
     8
 71
     3
 72
    33
 73
    29
 74
    27
 42
0.000000001
 43
0.0000000001
 44
0.00000001
 40
0.0
 40
0.0
 40
0.0
 40
0.0
 40
0.0628901901474
 40
0.125532597080887
 40
0.1879553236364043
 40
0.2496471045779676
 40
0.302126262177015
 40
0.353764122674347
 40
0.4044130388320422
 40
0.4539960176581462
 40
0.5371195503566885
 40
0.6164086136692856
 40
0.6912635263103787
 40
0.762015900304901
 40
0.8545468301793856
 40
0.9397064932066123
 40
0.9796211809266041
 40
1.018135729440706
 40
1.055451852371029
 40
1.091758948409852
 40
1.113368865405418
 40
1.134737777605148
 40
1.155925618015109
 40
1.176973520691429
 40
1.197914324920469
 40
1.218815411055769
 40
1.23972201690253
 40
1.260684507701092
 40
1.260684507701092
 40
1.260684507701092
 40
1.260684507701092
 10
-9.500000000012086
 20
14.82921865359191
 30
0.0
 10
-9.479035707726743
 20
14.82902553881452
 30
0.0
 10
-9.437189721230517
 20
14.82864006247257
 30
0.0
 10
-9.374599240587889
 20
14.825521375683
 30
0.0
 10
-9.312537190867069
 20
14.82054836286915
 30
0.0
 10
-9.254040503716425
 20
14.81386933749068
 30
0.0
 10
-9.199344915393432
 20
14.80587107537404
 30
0.0
 10
-9.148539523605125
 20
14.79686935925143
 30
0.0
 10
-9.098982425463843
 20
14.78649133962244
 30
0.0
 10
-9.039587315923535
 20
14.7720417795498
 30
0.0
 10
-8.971708873531533
 20
14.7522299216449
 30
0.0
 10
-8.897270142639591
 20
14.72534793237588
 30
0.0
 10
-8.828598025494518
 20
14.69511934770737
 30
0.0
 10
-8.75846421142377
 20
14.65778532382024
 30
0.0
 10
-8.689315742281059
 20
14.61184164639437
 30
0.0
 10
-8.634507584293036
 20
14.56392010271679
 30
0.0
 10
-8.5977980240953
 20
14.52353213200312
 30
0.0
 10
-8.574157365930006
 20
14.4929865323905
 30
0.0
 10
-8.553789065922517
 20
14.46159197424707
 30
0.0
 10
-8.538864497851435
 20
14.4335243821723
 30
0.0
 10
-8.528168223312028
 20
14.40934405787754
 30
0.0
 10
-8.52060092140682
 20
14.38932658949647
 30
0.0
 10
-8.51421449044883
 20
14.36909819197394
 30
0.0
 10
-8.50900733290007
 20
14.34868217536354
 30
0.0
 10
-8.50496536437853
 20
14.3281001886517
 30
0.0
 10
-8.502109233618961
 20
14.30737136009085
 30
0.0
 10
-8.500327531854905
 20
14.2865078432065
 30
0.0
 10
-8.500109270344689
 20
14.27254969336233
 30
0.0
 10
-8.500000000012086
 20
14.26556130289001
 30
0.0
 11
-9.500000000012086
 21
14.82921865359191
 31
0.0
 11
-9.437117855389785
 21
14.8282132674511
 31
0.0
 11
-9.374547826783177
 21
14.82520285572811
 31
0.0
 11
-9.3123277136576
 21
14.8201774902654
 31
0.0
 11
-9.251034790728475
 21
14.81317367477152
 31
0.0
 11
-9.199109701311023
 21
14.80556794855796
 31
0.0
 11
-9.148265966146546
 21
14.79654668302382
 31
0.0
 11
-9.098695489825609
 21
14.78615050170713
 31
0.0
 11
-9.050521662910926
 21
14.77441362860192
 31
0.0
 11
-8.970755732712085
 21
14.75102734910073
 31
0.0
 11
-8.896220922665016
 21
14.72398446367842
 31
0.0
 11
-8.827762515724512
 21
14.69370733594412
 31
0.0
 11
-8.765374286910667
 21
14.66033658036692
 31
0.0
 11
-8.688538983740184
 21
14.60877778714028
 31
0.0
 11
-8.624704449309824
 21
14.55241006229512
 31
0.0
 11
-8.597893242225892
 21
14.5228407967462
 31
0.0
 11
-8.574354900181945
 21
14.49235609738861
 31
0.0
 11
-8.554077132325158
 21
14.46103030682512
 31
0.0
 11
-8.537057585228926
 21
14.42895944416161
 31
0.0
 11
-8.528320164140336
 21
14.40919467797369
 31
0.0
 11
-8.520767599474318
 21
14.3892049512897
 31
0.0
 11
-8.514391615270139
 21
14.36899922426544
 31
0.0
 11
-8.509190021972287
 21
14.3486041848207
 31
0.0
 11
-8.50515935547441
 21
14.32805495089388
 31
0.0
 11
-8.502288503663816
 21
14.30735196463202
 31
0.0
 11
-8.500571007203302
 21
14.28651602212855
 31
0.0
 11
-8.500000000012086
 21
14.26556130289001
 31
0.0
  0
SPLINE
  5
307
330
1F
100
AcDbEntity
  8
0
  6
Continuous
 62
     3
100
AcDbSpline
210
0.0
220
0.0
230
1.0
 70
     8
 71
     3
 72
   105
 73
   101
 74
    99
 42
0.000000001
 43
0.0000000001
 44
0.00000001
 40
0.0
 40
0.0
 40
0.0
 40
0.0
 40
0.1019560687671804
 40
0.2032291792867941
 40
0.2914095852512293
 40
0.3790334853066584
 40
0.4660941698624814
 40
0.5525847539971616
 40
0.6384981810618864
 40
0.7238903037601423
 40
0.8086750739232217
 40
0.8928453444885693
 40
0.9763938168223089
 40
1.059313043885109
 40
1.141501160838736
 40
1.223032227194091
 40
1.303898537383983
 40
1.384092258002233
 40
1.46360543052632
 40
1.542184163768643
 40
1.620057131196067
 40
1.697216008498997
 40
1.773652365815318
 40
1.849357670025889
 40
1.924035704790916
 40
1.997958360832156
 40
2.071116664396382
 40
2.143501555773446
 40
2.2151038912077
 40
2.28614478245436
 40
2.356366835686444
 40
2.425760223169354
 40
2.4943150458963
 40
2.562021335222471
 40
2.629065535981578
 40
2.695223655775156
 40
2.760485048239245
 40
2.824839008672928
 40
2.888274775418272
 40
2.95083336654809
 40
3.012438617971112
 40
3.073079231673932
 40
3.13274386292032
 40
3.191421121389861
 40
3.240176508716975
 40
3.288205143542368
 40
3.335499968957801
 40
3.382053909293465
 40
3.427859870510818
 40
3.472910740598765
 40
3.5170724143968
 40
3.560461527710828
 40
3.603070977499759
 40
3.644893646512744
 40
3.685922403594533
 40
3.726150103996047
 40
3.765422377696004
 40
3.803878449616194
 40
3.841511397769064
 40
3.878314289752898
 40
3.914280182982037
 40
3.949402124924249
 40
3.983695264557086
 40
4.017123167305347
 40
4.049679248358004
 40
4.081356915455445
 40
4.112149569060904
 40
4.142050602540625
 40
4.169320820295551
 40
4.195789173013406
 40
4.221450601051882
 40
4.246300040660326
 40
4.270312255293937
 40
4.293501224297288
 40
4.315862324116327
 40
4.337390928119786
 40
4.358057722437442
 40
4.377882705263919
 40
4.396861784627164
 40
4.414990866355327
 40
4.432271582260427
 40
4.448691853102784
 40
4.464248186551712
 40
4.478937088785885
 40
4.492751246716316
 40
4.505690281464127
 40
4.517751386964288
 40
4.528931756211501
 40
4.539224230374153
 40
4.548630421926316
 40
4.55714827779128
 40
4.564775744328042
 40
4.571509992231197
 40
4.57734974729406
 40
4.582293756906449
 40
4.5863407681197
 40
4.589455546023384
 40
4.591648783095935
 40
4.592987549324575
 40
4.593538913880236
 40
4.593538913880236
 40
4.593538913880236
 40
4.593538913880236
 10
3.794174072807344
 20
15.37461056273514
 30
0.0
 10
3.826713891402872
 20
15.38441731798735
 30
0.0
 10
3.891575554617508
 20
15.40396515140932
 30
0.0
 10
3.984351919872049
 20
15.43274440306258
 30
0.0
 10
4.072416577527398
 20
15.46058113156299
 30
0.0
 10
4.155818658106553
 20
15.48744614730644
 30
0.0
 10
4.238543912787647
 20
15.51457106755759
 30
0.0
 10
4.320586967283264
 20
15.5419429063922
 30
0.0
 10
4.401963580237478
 20
15.56955132766404
 30
0.0
 10
4.482664260595142
 20
15.59737894420686
 30
0.0
 10
4.562679563897811
 20
15.62540858403294
 30
0.0
 10
4.641980411190604
 20
15.65361592155177
 30
0.0
 10
4.720562646588015
 20
15.68198518879242
 30
0.0
 10
4.798392601697348
 20
15.71048982504653
 30
0.0
 10
4.875462397291525
 20
15.73911213875983
 30
0.0
 10
4.951763977513352
 20
15.76783508475533
 30
0.0
 10
5.027318640058164
 20
15.79665298352896
 30
0.0
 10
5.102122175999947
 20
15.82555067585885
 30
0.0
 10
5.176094067101491
 20
15.85448316013682
 30
0.0
 10
5.249227765301771
 20
15.88343308648095
 30
0.0
 10
5.321516446022375
 20
15.91238382601695
 30
0.0
 10
5.393029047286047
 20
15.94134995339154
 30
0.0
 10
5.463761087950968
 20
15.97031697792314
 30
0.0
 10
5.533619513706001
 20
15.99923374644454
 30
0.0
 10
5.602598176322108
 20
16.02808373636747
 30
0.0
 10
5.670690586214785
 20
16.05685114213877
 30
0.0
 10
5.737978179575914
 20
16.08555823127696
 30
0.0
 10
5.804456048609172
 20
16.11419115817873
 30
0.0
 10
5.870189698667068
 20
16.14276668747971
 30
0.0
 10
5.93516845071078
 20
16.171269406953
 30
0.0
 10
5.999381229507959
 20
16.19968441346314
 30
0.0
 10
6.062746898555279
 20
16.22796500810024
 30
0.0
 10
6.125259915200725
 20
16.25609765070704
 30
0.0
 10
6.18697437941961
 20
16.28409585984015
 30
0.0
 10
6.247879192077618
 20
16.31194429735755
 30
0.0
 10
6.307962836679511
 20
16.33962813568663
 30
0.0
 10
6.367154398307562
 20
16.36710455812493
 30
0.0
 10
6.425447655504081
 20
16.39436032846456
 30
0.0
 10
6.482852018559434
 20
16.4213895716657
 30
0.0
 10
6.539357145853938
 20
16.44817727229682
 30
0.0
 10
6.594952288991596
 20
16.47470897486001
 30
0.0
 10
6.649611060047107
 20
16.50096257865372
 30
0.0
 10
6.703326623194534
 20
16.52692525057445
 30
0.0
 10
6.753417281650406
 20
16.55128342570524
 30
0.0
 10
6.799971182632211
 20
16.57404510805729
 30
0.0
 10
6.843076001820576
 20
16.59522295433404
 30
0.0
 10
6.885482973005959
 20
16.61615686892099
 30
0.0
 10
6.927187687019392
 20
16.63683943176813
 30
0.0
 10
6.968185734008904
 20
16.65726322291234
 30
0.0
 10
7.008434852066348
 20
16.67740188470653
 30
0.0
 10
7.04792979497268
 20
16.69724729108114
 30
0.0
 10
7.086665129638702
 20
16.71679173380553
 30
0.0
 10
7.124673146490456
 20
16.73604673982632
 30
0.0
 10
7.161949285689386
 20
16.75500531824088
 30
0.0
 10
7.198488987491372
 20
16.77366047794168
 30
0.0
 10
7.234244020330967
 20
16.79198285134324
 30
0.0
 10
7.269209699416594
 20
16.80996509545326
 30
0.0
 10
7.303381202259663
 20
16.82760032654369
 30
0.0
 10
7.336797302895653
 20
16.84490437139045
 30
0.0
 10
7.369453457147237
 20
16.86187077681612
 30
0.0
 10
7.401345121010372
 20
16.87849308931174
 30
0.0
 10
7.432474280218093
 20
16.89476827366578
 30
0.0
 10
7.462834210630641
 20
16.91068875740301
 30
0.0
 10
7.492418091341121
 20
16.92624743548876
 30
0.0
 10
7.52121270452453
 20
16.94143381277492
 30
0.0
 10
7.549213649192644
 20
16.95624201103959
 30
0.0
 10
7.576416519908289
 20
16.9706661603655
 30
0.0
 10
7.602306973692416
 20
16.98442927912345
 30
0.0
 10
7.626911803326202
 20
16.99753994737406
 30
0.0
 10
7.650257921514886
 20
17.0100076407372
 30
0.0
 10
7.672881439641802
 20
17.02211544234729
 30
0.0
 10
7.694773009332578
 20
17.03385579866922
 30
0.0
 10
7.715928893744892
 20
17.04522412915763
 30
0.0
 10
7.73634536007757
 20
17.05621616363169
 30
0.0
 10
7.756024719204281
 20
17.06683090507132
 30
0.0
 10
7.774956581351324
 20
17.0770605109771
 30
0.0
 10
7.793137792493393
 20
17.08690101874373
 30
0.0
 10
7.810565224540587
 20
17.09634879803969
 30
0.0
 10
7.827243132238891
 20
17.10540424369172
 30
0.0
 10
7.843170385920638
 20
17.11406484159797
 30
0.0
 10
7.858343520681171
 20
17.12232680343705
 30
0.0
 10
7.872759113516842
 20
17.13018668738666
 30
0.0
 10
7.886412241911045
 20
17.13764023581495
 30
0.0
 10
7.899299380209122
 20
17.14468395099612
 30
0.0
 10
7.911417919792552
 20
17.15131482433346
 30
0.0
 10
7.922765312669243
 20
17.157530216594
 30
0.0
 10
7.933340324867572
 20
17.16332821806625
 30
0.0
 10
7.943139740311038
 20
17.16870583516066
 30
0.0
 10
7.952161640820385
 20
17.17366077248868
 30
0.0
 10
7.960404183726671
 20
17.17819112069163
 30
0.0
 10
7.96786701295045
 20
17.18229579962951
 30
0.0
 10
7.974548472845978
 20
17.18597302065676
 30
0.0
 10
7.980447143052155
 20
17.18922110700252
 30
0.0
 10
7.985561689555905
 20
17.19203877931157
 30
0.0
 10
7.989891233410329
 20
17.19442502149407
 30
0.0
 10
7.993424975203109
 20
17.19637336506597
 30
0.0
 10
7.996155619122021
 20
17.19787923392655
 30
0.0
 10
7.998095669704731
 20
17.19894930838681
 30
0.0
 10
7.999287447587994
 20
17.19960681904566
 30
0.0
 10
7.999839084044303
 20
17.19991120720472
 30
0.0
 10
7.999999999987914
 20
17.19999999997542
 30
0.0
 11
3.794174072807344
 21
15.37461056273514
 31
0.0
 11
3.891753413607228
 21
15.40416242057214
 31
0.0
 11
3.988491196195945
 21
15.43412981014423
 31
0.0
 11
4.072568996110301
 21
15.46071378349328
 31
0.0
 11
4.155973685753148
 21
15.48757650281853
 31
0.0
 11
4.238700857111409
 21
15.51470173090583
 31
0.0
 11
4.320746102172007
 21
15.54207323054105
 31
0.0
 11
4.402105012921865
 21
15.56967476451003
 31
0.0
 11
4.482832737621234
 21
15.59751087719818
 31
0.0
 11
4.562850230234091
 21
15.62554047249868
 31
0.0
 11
4.642153331002644
 21
15.65374778962638
 31
0.0
 11
4.720737880169091
 21
15.68211706779614
 31
0.0
 11
4.798599717975634
 21
15.71063254622283
 31
0.0
 11
4.875646345308222
 21
15.73924554784018
 31
0.0
 11
4.951950317846208
 21
15.76796868535893
 31
0.0
 11
5.027507425014768
 21
15.79678680030691
 31
0.0
 11
5.102313456239081
 21
15.825684734212
 31
0.0
 11
5.176364200944324
 21
15.85464732860203
 31
0.0
 11
5.249427030352644
 21
15.88356860678944
 31
0.0
 11
5.321718304724488
 21
15.91251978562736
 31
0.0
 11
5.3932335419946
 21
15.9414863738066
 31
0.0
 11
5.463968260097722
 21
15.97045388001802
 31
0.0
 11
5.533917976968596
 21
15.99940781295243
 31
0.0
 11
5.602813049995878
 21
16.02822235479343
 31
0.0
 11
5.670908248763913
 21
16.05699044492257
 31
0.0
 11
5.738198664917036
 21
16.08569823654115
 31
0.0
 11
5.804679390099581
 21
16.11433188285047
 31
0.0
 11
5.870345515955883
 21
16.14287753705182
 31
0.0
 11
5.935402869548712
 21
16.17141433766229
 31
0.0
 11
5.999618684107795
 21
16.19983028274038
 31
0.0
 11
6.062987416751485
 21
16.22811183081348
 31
0.0
 11
6.12550352459813
 21
16.25624544040896
 31
0.0
 11
6.187161464766085
 21
16.28421757005422
 31
0.0
 11
6.248134210955202
 21
16.31209675735231
 31
0.0
 11
6.308221118559336
 21
16.33978177775479
 31
0.0
 11
6.367415966103975
 21
16.36725939364263
 31
0.0
 11
6.425712532114606
 21
16.39451636739676
 31
0.0
 11
6.483104595116714
 21
16.42153946139813
 31
0.0
 11
6.539632689822723
 21
16.44833781647356
 31
0.0
 11
6.595231266711811
 21
16.47487091376422
 31
0.0
 11
6.649893490436239
 21
16.50112591953883
 31
0.0
 11
6.703612525648271
 21
16.52709000006612
 31
0.0
 11
6.756381537000173
 21
16.55275032161482
 31
0.0
 11
6.800181911900964
 21
16.5741656187503
 31
0.0
 11
6.843288856944045
 21
16.59534440652228
 31
0.0
 11
6.885697962546695
 21
16.61627926434682
 31
0.0
 11
6.927404819126195
 21
16.63696277163995
 31
0.0
 11
6.968405017099828
 21
16.65738750781774
 31
0.0
 11
7.008694146884874
 21
16.67754605229622
 31
0.0
 11
7.048154356004603
 21
16.69737394495908
 31
0.0
 11
7.086891813967076
 21
16.71691939208326
 31
0.0
 11
7.124901961168457
 21
16.73617540203991
 31
0.0
 11
7.162180238004913
 21
16.75513498320019
 31
0.0
 11
7.198722084872612
 21
16.77379114393524
 31
0.0
 11
7.234522942167722
 21
16.79213689261623
 31
0.0
 11
7.269447351200443
 21
16.81009788182697
 31
0.0
 11
7.303620908359866
 21
16.82773413587139
 31
0.0
 11
7.337039069766927
 21
16.84503920082008
 31
0.0
 11
7.369697291542574
 21
16.86200662274367
 31
0.0
 11
7.401591029807736
 21
16.87862994771271
 31
0.0
 11
7.432715740683353
 21
16.89490272179783
 31
0.0
 11
7.463086422187338
 21
16.91082883647236
 31
0.0
 11
7.492672244372517
 21
16.92638852173638
 31
0.0
 11
7.521468805586339
 21
16.94157590048863
 31
0.0
 11
7.549471704176259
 21
16.95638509562788
 31
0.0
 11
7.576676538489729
 21
16.9708102300529
 31
0.0
 11
7.603078906874202
 21
16.98484542666243
 31
0.0
 11
7.627145692679988
 21
16.99766941179766
 31
0.0
 11
7.650493301590206
 21
17.01013788608244
 31
0.0
 11
7.67311831361506
 21
17.02224646638023
 31
0.0
 11
7.695017308764744
 21
17.03399076955442
 31
0.0
 11
7.716169084121114
 21
17.04535689675489
 31
0.0
 11
7.736586907188554
 21
17.05634965714641
 31
0.0
 11
7.756267628393926
 21
17.06696511728477
 31
0.0
 11
7.775208098164086
 21
17.07719934372572
 31
0.0
 11
7.79338344105393
 21
17.08703668552383
 31
0.0
 11
7.810812070562775
 21
17.0964851146282
 31
0.0
 11
7.82749118117115
 21
17.10554120192502
 31
0.0
 11
7.843417967359585
 21
17.11420151830053
 31
0.0
 11
7.85859463132015
 21
17.12246541608984
 31
0.0
 11
7.873011243394274
 21
17.13032586032906
 31
0.0
 11
7.88666539659006
 21
17.13777996004439
 31
0.0
 11
7.899554683915603
 21
17.14482482426202
 31
0.0
 11
7.91167332646416
 21
17.15145577085859
 31
0.0
 11
7.923021535883112
 21
17.15767161779511
 31
0.0
 11
7.933597370206362
 21
17.16347006438462
 31
0.0
 11
7.943398887467804
 21
17.16884880994012
 31
0.0
 11
7.952420308595713
 21
17.17380350206545
 31
0.0
 11
7.960663446621903
 21
17.17833418678047
 31
0.0
 11
7.968126876384844
 21
17.18243919264999
 31
0.0
 11
7.974809172723006
 21
17.18611684823883
 31
0.0
 11
7.980708207061989
 21
17.18936515251263
 31
0.0
 11
7.985823114208174
 21
17.19218303425757
 31
0.0
 11
7.990153022902264
 21
17.19456947843697
 31
0.0
 11
7.993697061884951
 21
17.19652347001413
 31
0.0
 11
7.996424581305556
 21
17.19802762339545
 31
0.0
 11
7.998345044008384
 21
17.1990869210601
 31
0.0
 11
7.999517250175238
 21
17.19973362569209
 31
0.0
 11
7.999999999987914
 21
17.19999999997542
 31
0.0
  0
SPLINE
  5
308
330
1F
100
AcDbEntity
  8
0
  6
Continuous
 62
     3
100
AcDbSpline
210
0.0
220
0.0
230
1.0
 70
     8
 71
     3
 72
    45
 73
    41
 74
    39
 42
0.000000001
 43
0.0000000001
 44
0.00000001
 40
0.0
 40
0.0
 40
0.0
 40
0.0
 40
0.0553188717778988
 40
0.1106259597390006
 40
0.1659229760354762
 40
0.2212031806792863
 40
0.2764615379346607
 40
0.331698353844364
 40
0.3869351580978079
 40
0.4421460527031203
 40
0.5419680181548527
 40
0.6416883731664424
 40
0.7413139462268724
 40
0.8408203614920134
 40
0.940295827098973
 40
1.039639895419006
 40
1.13875429977708
 40
1.237730651966427
 40
1.33658589929611
 40
1.435300446154892
 40
1.53406830040742
 40
1.632695724888308
 40
1.731366144822603
 40
1.829899040075126
 40
1.92841851833088
 40
2.026805443506152
 40
2.152202818141956
 40
2.277397083817457
 40
2.402122483855434
 40
2.526661408049201
 40
2.650591194634816
 40
2.774352698826204
 40
2.898061777822341
 40
3.021620015582173
 40
3.145203145275307
 40
3.268653418887337
 40
3.392129263026315
 40
3.515490928374865
 40
3.613524865321348
 40
3.711496637377541
 40
3.711496637377541
 40
3.711496637377541
 40
3.711496637377541
 10
0.1928108611571773
 20
13.26407478332423
 30
0.0
 10
0.2112458371083827
 20
13.26451299052686
 30
0.0
 10
0.248111861659398
 20
13.26538932593744
 30
0.0
 10
0.3033610392121896
 20
13.26804037621811
 30
0.0
 10
0.3585394649718268
 20
13.27166470049379
 30
0.0
 10
0.4136225289605127
 20
13.27635150104688
 30
0.0
 10
0.4685877345967875
 20
13.2820674822711
 30
0.0
 10
0.523421889830989
 20
13.28881048508802
 30
0.0
 10
0.5781056740161219
 20
13.29656903040805
 30
0.0
 10
0.6473106587633314
 20
13.3076927675721
 30
0.0
 10
0.7307948645471966
 20
13.32331996679608
 30
0.0
 10
0.8281847701505587
 20
13.34484085747243
 30
0.0
 10
0.9247394499204966
 20
13.36941960690212
 30
0.0
 10
1.020406302206605
 20
13.39695728537792
 30
0.0
 10
1.115106515671652
 20
13.42734668573713
 30
0.0
 10
1.208748087709193
 20
13.46046397707521
 30
0.0
 10
1.30125021783264
 20
13.49618039148848
 30
0.0
 10
1.392578146627111
 20
13.53437810297472
 30
0.0
 10
1.482728113603976
 20
13.574952899916
 30
0.0
 10
1.571732931747274
 20
13.617819981513
 30
0.0
 10
1.659566859423541
 20
13.6628701363706
 30
0.0
 10
1.746268427101592
 20
13.71003065977378
 30
0.0
 10
1.831772125429533
 20
13.75917153187181
 30
0.0
 10
1.916108026064329
 20
13.81021998046162
 30
0.0
 10
1.999225540536901
 20
13.86305237000767
 30
0.0
 10
2.088658491897466
 20
13.92259673643388
 30
0.0
 10
2.183970567877906
 20
13.98930857652102
 30
0.0
 10
2.284645924190306
 20
14.06359850966138
 30
0.0
 10
2.383286743539642
 20
14.14010189375283
 30
0.0
 10
2.479814336598504
 20
14.21858699323147
 30
0.0
 10
2.574344081232857
 20
14.29897078805067
 30
0.0
 10
2.666940764285255
 20
14.38115675967786
 30
0.0
 10
2.757748866906047
 20
14.46513155341396
 30
0.0
 10
2.846837202153774
 20
14.55084210967791
 30
0.0
 10
2.934212697761812
 20
14.63817554142847
 30
0.0
 10
3.019933841607961
 20
14.72709436001352
 30
0.0
 10
3.104000497643487
 20
14.81747830011793
 30
0.0
 10
3.180787269624068
 20
14.90303582311905
 30
0.0
 10
3.250752198809012
 20
14.98327743895853
 30
0.0
 10
3.292859906496402
 20
15.03323502409043
 30
0.0
 10
3.313907077723982
 20
15.05820589883494
 30
0.0
 11
0.1928108611571773
 21
13.26407478332423
 31
0.0
 11
0.2481083660259387
 21
13.26561225756793
 31
0.0
 11
0.3033547489048374
 21
13.26820289478823
 31
0.0
 11
0.3585318652103129
 21
13.27184240339263
 31
0.0
 11
0.4136134732634851
 21
13.27652402731162
 31
0.0
 11
0.4685754330433091
 21
13.28223971719313
 31
0.0
 11
0.5233994544113507
 21
13.28898008635562
 31
0.0
 11
0.578088744165405
 21
13.2967380615003
 31
0.0
 11
0.6326001586440668
 21
13.30549869001872
 31
0.0
 11
0.7307197987885592
 21
13.32385519011272
 31
0.0
 11
0.8280933669073143
 21
13.34536187514412
 31
0.0
 11
0.9246429711217934
 21
13.3699266626218
 31
0.0
 11
1.020270035150404
 21
13.39744013830601
 31
0.0
 11
1.114992175500787
 21
13.42782244266689
 31
0.0
 11
1.208656001497936
 21
13.46093334174783
 31
0.0
 11
1.301122452156346
 21
13.49662116429255
 31
0.0
 11
1.392439237951834
 21
13.53479920701041
 31
0.0
 11
1.482590334835936
 21
13.57535952843251
 31
0.0
 11
1.571533215297045
 21
13.61818155306331
 31
0.0
 11
1.659421696448654
 21
13.66324488549174
 31
0.0
 11
1.746067676826144
 21
13.71036009490192
 31
0.0
 11
1.831622133582376
 21
13.75951583425707
 31
0.0
 11
1.915922157086882
 21
13.81052796512093
 31
0.0
 11
1.999072816233355
 21
13.86336786945085
 31
0.0
 11
2.080974906742036
 21
13.91788423969992
 31
0.0
 11
2.183720055273774
 21
13.98977259781445
 31
0.0
 11
2.284469522685484
 21
14.06409048924162
 31
0.0
 11
2.383038182246234
 21
14.14051460046964
 31
0.0
 11
2.479678675549742
 21
14.21906750430702
 31
0.0
 11
2.574099277473541
 21
14.29933793435895
 31
0.0
 11
2.666670931287374
 21
14.38148048625273
 31
0.0
 11
2.757506062968377
 21
14.4654621215964
 31
0.0
 11
2.846556086284632
 21
14.55111684390373
 31
0.0
 11
2.933971219982557
 21
14.63847463873335
 31
0.0
 11
3.019660708901174
 21
14.72734128874772
 31
0.0
 11
3.103756060412765
 21
14.8177528798706
 31
0.0
 11
3.186180516062905
 21
14.90953691591123
 31
0.0
 11
3.250557707870822
 21
14.98347086956462
 31
0.0
 11
3.313907077723982
 21
15.05820589883494
 31
0.0
  0
SPLINE
  5
309
330
1F
100
AcDbEntity
  8
0
  6
Continuous
 62
     3
100
AcDbSpline
210
0.0
220
0.0
230
1.0
 70
     8
 71
     3
 72
    25
 73
    21
 74
    19
 42
0.000000001
 43
0.0000000001
 44
0.00000001
 40
0.0
 40
0.0
 40
0.0
 40
0.0
 40
0.179465182979562
 40
0.3602184792107567
 40
0.5418333691685351
 40
0.7245821937812728
 40
0.9082670618107469
 40
1.092923787213212
 40
1.278543309051893
 40
1.464961871518533
 40
1.651950508026955
 40
1.839550893794637
 40
2.027686084146158
 40
2.216235700747053
 40
2.405066224474712
 40
2.594105131137049
 40
2.6886656809605
 40
2.783238925896456
 40
2.877813036384072
 40
2.972373421812138
 40
2.972373421812138
 40
2.972373421812138
 40
2.972373421812138
 10
-2.750000000014065
 20
13.61443997644753
 30
0.0
 10
-2.691931458413847
 20
13.600059293563
 30
0.0
 10
-2.575377584156772
 20
13.57119472454373
 30
0.0
 10
-2.399293373417202
 20
13.53096793954266
 30
0.0
 10
-2.221604725349149
 20
13.49294617428051
 30
0.0
 10
-2.042388737931019
 20
13.45748507176213
 30
0.0
 10
-1.861647339975212
 20
13.42462501746844
 30
0.0
 10
-1.679460337149675
 20
13.3944943033135
 30
0.0
 10
-1.495905277806048
 20
13.36719992421084
 30
0.0
 10
-1.311151516494236
 20
13.34285383678532
 30
0.0
 10
-1.125356369758022
 20
13.32155865349642
 30
0.0
 10
-0.9386537936626448
 20
13.3033946859174
 30
0.0
 10
-0.7511446946271443
 20
13.28843845229216
 30
0.0
 10
-0.5629924209292089
 20
13.27675048962006
 30
0.0
 10
-0.3743616898320861
 20
13.26838609221391
 30
0.0
 10
-0.2169312246655952
 20
13.2642151204623
 30
0.0
 10
-0.0908829817490689
 20
13.26256243203731
 30
0.0
 10
0.0036866052557496
 20
13.26218466695387
 30
0.0
 10
0.0982568720623291
 20
13.26259330633501
 30
0.0
 10
0.1612943896891203
 20
13.2635809766737
 30
0.0
 10
0.1928108611571773
 20
13.26407478332423
 30
0.0
 11
-2.750000000014065
 21
13.61443997644753
 31
0.0
 11
-2.575667934208566
 21
13.57182445491986
 31
0.0
 11
-2.399484502604928
 21
13.53143692580312
 31
0.0
 11
-2.221879910026398
 21
13.49348199274786
 31
0.0
 11
-2.042607063694195
 21
13.45800834802043
 31
0.0
 11
-1.861882727584757
 21
13.42516257057771
 31
0.0
 11
-1.679699403126968
 21
13.39504044332232
 31
0.0
 11
-1.496097537112535
 21
13.36774645648834
 31
0.0
 11
-1.311275768608226
 21
13.34339908780082
 31
0.0
 11
-1.125502754437019
 21
13.32211206261046
 31
0.0
 11
-0.9387833271416071
 21
13.30395275993153
 31
0.0
 11
-0.7512434600263549
 21
13.28899788894185
 31
0.0
 11
-0.5630563148203294
 21
13.27731215447133
 31
0.0
 11
-0.3744110571724288
 21
13.26894952519648
 31
0.0
 11
-0.1854384638001853
 21
13.26394279723883
 31
0.0
 11
-0.0908860006155447
 21
13.26270613689429
 31
0.0
 11
0.0036864387444631
 21
13.26231573043113
 31
0.0
 11
0.0982594481334487
 21
13.2627721545188
 31
0.0
 11
0.1928108611571773
 21
13.26407478332423
 31
0.0
  0
SPLINE
  5
30A
330
1F
100
AcDbEntity
  8
0
  6
Continuous
 62
     3
100
AcDbSpline
210
0.0
220
0.0
230
1.0
 70
     8
 71
     3
 72
   104
 73
   100
 74
    98
 42
0.000000001
 43
0.0000000001
 44
0.00000001
 40
0.0
 40
0.0
 40
0.0
 40
0.0
 40
0.1183253813418551
 40
0.2360120861663496
 40
0.3530498556249269
 40
0.4694276879093731
 40
0.5851338579049115
 40
0.7001559366436132
 40
0.8144808105837744
 40
0.9320201435488223
 40
1.048746526526859
 40
1.164647243849906
 40
1.279708891753608
 40
1.393405645853562
 40
1.506217025341439
 40
1.618129654394604
 40
1.729129584719538
 40
1.839530226385115
 40
1.948958790880884
 40
2.057400471192417
 40
2.164839979796537
 40
2.250321808852604
 40
2.335124830509947
 40
2.419240588560039
 40
2.502660462239587
 40
2.585375670112707
 40
2.66748319944722
 40
2.748851626315487
 40
2.829471447207128
 40
2.909333025200212
 40
2.988426593186308
 40
3.066699161635932
 40
3.144170535509898
 40
3.220830144190147
 40
3.296667310688555
 40
3.371671254281181
 40
3.445657720108762
 40
3.518779354966969
 40
3.591024582069648
 40
3.66238174109971
 40
3.732839090326955
 40
3.802109836578274
 40
3.870451062256425
 40
3.937850326821089
 40
4.004295125089388
 40
4.069772888912277
 40
4.137026634491441
 40
4.203185630119335
 40
4.268234772061739
 40
4.332158897328115
 40
4.394942785318387
 40
4.456755424617146
 40
4.517375707036472
 40
4.57678767037352
 40
4.634975307017337
 40
4.691922565252442
 40
4.747629691060074
 40
4.802049860262802
 40
4.855166816365998
 40
4.906964269281272
 40
4.957425896323259
 40
4.998362439369599
 40
5.038345802278068
 40
5.077366816260638
 40
5.1154163009498
 40
5.152485064688109
 40
5.188563904827819
 40
5.223211451005191
 40
5.256869768802532
 40
5.289530453553564
 40
5.321185092799369
 40
5.351822685555087
 40
5.381433367224116
 40
5.410009301122912
 40
5.437542644741935
 40
5.464038095328882
 40
5.489470677962102
 40
5.513833309615377
 40
5.537118903091229
 40
5.559303860147886
 40
5.5803964446089
 40
5.600390548084186
 40
5.61928005939706
 40
5.637047816067104
 40
5.653698165224771
 40
5.669226147629787
 40
5.683626802345094
 40
5.696893717881383
 40
5.709022455520309
 40
5.72000935101646
 40
5.729850739201301
 40
5.738540988483304
 40
5.746078641663519
 40
5.75246145053458
 40
5.757687166327131
 40
5.761709591679534
 40
5.764542202164823
 40
5.766271412948727
 40
5.766983638668626
 40
5.766983638668626
 40
5.766983638668626
 40
5.766983638668626
 10
-2.750000000014065
 20
13.61443997644753
 30
0.0
 10
-2.788220852615801
 20
13.62417873249139
 30
0.0
 10
-2.864456252203566
 20
13.64360369252108
 30
0.0
 10
-2.978154238407313
 20
13.67397965707332
 30
0.0
 10
-3.090970949515972
 20
13.70511868533255
 30
0.0
 10
-3.202871852492337
 20
13.73707874624774
 30
0.0
 10
-3.313852909752787
 20
13.76979679598275
 30
0.0
 10
-3.423901986342845
 20
13.80324194041532
 30
0.0
 10
-3.534257888921336
 20
13.83776544025562
 30
0.0
 10
-3.6448712196963
 20
13.87335621166403
 30
0.0
 10
-3.755693146415125
 20
13.91000107667651
 30
0.0
 10
-3.86544167227725
 20
13.94724985191872
 30
0.0
 10
-3.973947833625846
 20
13.98500621827775
 30
0.0
 10
-4.081199790003808
 20
14.02322367716173
 30
0.0
 10
-4.187185747117342
 20
14.0618578006397
 30
0.0
 10
-4.29205374188783
 20
14.10092572188192
 30
0.0
 10
-4.39589939732798
 20
14.14042834065984
 30
0.0
 10
-4.498706009735657
 20
14.1803264371788
 30
0.0
 10
-4.60045643289962
 20
14.22058247559175
 30
0.0
 10
-4.701032837045712
 20
14.26111682130258
 30
0.0
 10
-4.793971156838731
 20
14.29924388070561
 30
0.0
 10
-4.879427181528222
 20
14.33484473766032
 30
0.0
 10
-4.957551368731438
 20
14.36782562557864
 30
0.0
 10
-5.034890127722661
 20
14.40089740927243
 30
0.0
 10
-5.111439822189701
 20
14.43404220813411
 30
0.0
 10
-5.18722914688872
 20
14.46725631071909
 30
0.0
 10
-5.262249244259472
 20
14.50052011000201
 30
0.0
 10
-5.33649073755088
 20
14.5338149236867
 30
0.0
 10
-5.409912143659176
 20
14.56710712793815
 30
0.0
 10
-5.482509172145321
 20
14.60037959313691
 30
0.0
 10
-5.554264498774355
 20
14.63360914906188
 30
0.0
 10
-5.625169903171285
 20
14.66677662660884
 30
0.0
 10
-5.695216579034223
 20
14.6998637637363
 30
0.0
 10
-5.764408548908194
 20
14.73285841533501
 30
0.0
 10
-5.832740694898567
 20
14.76574416651565
 30
0.0
 10
-5.900155914885151
 20
14.79847935393503
 30
0.0
 10
-5.966646469545156
 20
14.83104552734207
 30
0.0
 10
-6.032204011488002
 20
14.86342510505082
 30
0.0
 10
-6.096871662056589
 20
14.89562641038691
 30
0.0
 10
-6.160643404708132
 20
14.92763370605186
 30
0.0
 10
-6.223431433665224
 20
14.95938988256884
 30
0.0
 10
-6.285228382113396
 20
14.99087745060737
 30
0.0
 10
-6.346026292199934
 20
15.02207974877949
 30
0.0
 10
-6.405898309997514
 20
15.0530224768375
 30
0.0
 10
-6.464837551908976
 20
15.08369055986167
 30
0.0
 10
-6.52365082492225
 20
15.11449511336249
 30
0.0
 10
-6.582297104439213
 20
15.14541266496228
 30
0.0
 10
-6.64073452415195
 20
15.17641951290548
 30
0.0
 10
-6.698112213915199
 20
15.20705516680441
 30
0.0
 10
-6.754421353878063
 20
15.23730304844618
 30
0.0
 10
-6.809707161015591
 20
15.26717577997649
 30
0.0
 10
-6.863954273829616
 20
15.29665380607941
 30
0.0
 10
-6.917146713166471
 20
15.32571829211847
 30
0.0
 10
-6.969214636487356
 20
15.35432046879825
 30
0.0
 10
-7.020148299632063
 20
15.38244422320334
 30
0.0
 10
-7.069942719270308
 20
15.41007608822024
 30
0.0
 10
-7.1185839591494
 20
15.43719764953578
 30
0.0
 10
-7.16605757897021
 20
15.46379133715087
 30
0.0
 10
-7.212344388733944
 20
15.48983685095524
 30
0.0
 10
-7.2574341095274
 20
15.5153188549707
 30
0.0
 10
-7.298947102251793
 20
15.53887741293654
 30
0.0
 10
-7.337001062373943
 20
15.56055224015607
 30
0.0
 10
-7.371713786559813
 20
15.5803878826047
 30
0.0
 10
-7.405564769902616
 20
15.59979181380784
 30
0.0
 10
-7.438548053387946
 20
15.61875583104566
 30
0.0
 10
-7.470657672172557
 20
15.63727174110987
 30
0.0
 10
-7.501762976270516
 20
15.65525920729855
 30
0.0
 10
-7.531863766563303
 20
15.67271280616963
 30
0.0
 10
-7.560959788646639
 20
15.68962776225667
 30
0.0
 10
-7.589175395927109
 20
15.70607212541097
 30
0.0
 10
-7.616504284091118
 20
15.72203822292265
 30
0.0
 10
-7.642939746165327
 20
15.73751812173733
 30
0.0
 10
-7.668475042952922
 20
15.75250433745757
 30
0.0
 10
-7.693104347062917
 20
15.76698992372285
 30
0.0
 10
-7.716826018139857
 20
15.78097040115204
 30
0.0
 10
-7.739633498646008
 20
15.79443839360473
 30
0.0
 10
-7.761520242136664
 20
15.80738701406149
 30
0.0
 10
-7.78247632835653
 20
15.81980737178569
 30
0.0
 10
-7.802492241656269
 20
15.83169080154718
 30
0.0
 10
-7.821562881546543
 20
15.84303123015563
 30
0.0
 10
-7.839683206748418
 20
15.85382313027031
 30
0.0
 10
-7.856853177056877
 20
15.8640639745317
 30
0.0
 10
-7.873065472388511
 20
15.87374690090362
 30
0.0
 10
-7.888315777796368
 20
15.88286681798817
 30
0.0
 10
-7.902599877207258
 20
15.89141922172715
 30
0.0
 10
-7.915917037025045
 20
15.89940171242815
 30
0.0
 10
-7.928263445725177
 20
15.90681005319658
 30
0.0
 10
-7.939635451167749
 20
15.91364008195104
 30
0.0
 10
-7.95002953345003
 20
15.91988825849819
 30
0.0
 10
-7.959442950473935
 20
15.92555152724657
 30
0.0
 10
-7.967872616519718
 20
15.93062663409688
 30
0.0
 10
-7.975316089554855
 20
15.93511068375242
 30
0.0
 10
-7.981771087018044
 20
15.93900143269872
 30
0.0
 10
-7.987236283823862
 20
15.94229723383701
 30
0.0
 10
-7.991697571904517
 20
15.94498875918025
 30
0.0
 10
-7.995145363021582
 20
15.94706933570366
 30
0.0
 10
-7.997595126216885
 20
15.94854796994362
 30
0.0
 10
-7.999100122488521
 20
15.94945659819994
 30
0.0
 10
-7.999796771145355
 20
15.94987727728628
 30
0.0
 10
-8.000000000012086
 20
15.94999999997543
 30
0.0
 11
-2.750000000014065
 21
13.61443997644753
 31
0.0
 11
-2.864605033181929
 21
13.64387774886579
 31
0.0
 11
-2.978320529170935
 21
13.67419188240921
 31
0.0
 11
-3.091136038608917
 21
13.70534474021973
 31
0.0
 11
-3.203041112123707
 21
13.7372986854393
 31
0.0
 11
-3.314025300343144
 21
13.77001608120989
 31
0.0
 11
-3.424078153895055
 21
13.8034592906734
 31
0.0
 11
-3.533189223407277
 21
13.83759067697181
 31
0.0
 11
-3.645080106831843
 21
13.8735896381852
 31
0.0
 11
-3.755905738837027
 21
13.91023289063665
 31
0.0
 11
-3.86565826382562
 21
13.94748016809798
 31
0.0
 11
-3.974329826200407
 21
13.98529120434102
 31
0.0
 11
-4.081431055989718
 21
14.02345242227855
 31
0.0
 11
-4.187421111785856
 21
14.06208551011138
 31
0.0
 11
-4.292293448802253
 21
14.10115249762268
 31
0.0
 11
-4.396041522252347
 21
14.14061541459562
 31
0.0
 11
-4.498963980074087
 21
14.18055623799205
 31
0.0
 11
-4.600719051592762
 21
14.22081187308767
 31
0.0
 11
-4.701300312340919
 21
14.26134590839142
 31
0.0
 11
-4.800701337851105
 21
14.30212193241222
 31
0.0
 11
-4.879609898548185
 21
14.33499414171517
 31
0.0
 11
-4.957736747928722
 21
14.36797516480068
 31
0.0
 11
-5.035078241683519
 21
14.40104711803625
 31
0.0
 11
-5.111630735503375
 21
14.43419211778937
 31
0.0
 11
-5.187390585079086
 21
14.46739228042753
 31
0.0
 11
-5.262450805851731
 21
14.50067305001097
 31
0.0
 11
-5.336695283482798
 21
14.53396837138147
 31
0.0
 11
-5.410119727069354
 21
14.56726111229163
 31
0.0
 11
-5.482719845708469
 21
14.60053414049408
 31
0.0
 11
-5.554491348497209
 21
14.63377032374142
 31
0.0
 11
-5.625390857961536
 21
14.66693437841125
 31
0.0
 11
-5.695440820241644
 21
14.70002239055001
 31
0.0
 11
-5.764636117683366
 21
14.73301794188465
 31
0.0
 11
-5.832971632632533
 21
14.76590461414211
 31
0.0
 11
-5.900442247434977
 21
14.79866598904933
 31
0.0
 11
-5.966887187983253
 21
14.83120929857078
 31
0.0
 11
-6.032448284640982
 21
14.86359009663025
 31
0.0
 11
-6.097119521506146
 21
14.89579264241777
 31
0.0
 11
-6.160894882676732
 21
14.92780119512336
 31
0.0
 11
-6.223768352250726
 21
14.95960001393702
 31
0.0
 11
-6.285489017326065
 21
14.99104831728112
 31
0.0
 11
-6.346290698497302
 21
15.02225214218252
 31
0.0
 11
-6.406166511918965
 21
15.05319641185615
 31
0.0
 11
-6.465109573745569
 21
15.08386604951695
 31
0.0
 11
-6.523113000131644
 21
15.11424597837983
 31
0.0
 11
-6.582605827765199
 21
15.1456094882181
 31
0.0
 11
-6.641047768530076
 21
15.17661839431134
 31
0.0
 11
-6.698430002791797
 21
15.20725611703488
 31
0.0
 11
-6.754743710915889
 21
15.23750607676406
 31
0.0
 11
-6.809980073267877
 21
15.26735169387423
 31
0.0
 11
-6.864291988890566
 21
15.2968647112404
 31
0.0
 11
-6.917489151634197
 21
15.32593153962549
 31
0.0
 11
-6.969561817904839
 21
15.35453606393304
 31
0.0
 11
-7.02050024410857
 21
15.38266216906661
 31
0.0
 11
-7.070294686651458
 21
15.41029373992973
 31
0.0
 11
-7.118949582785098
 21
15.43742278237864
 31
0.0
 11
-7.166427964494936
 21
15.4640189866682
 31
0.0
 11
-7.212719553597456
 21
15.49006701539214
 31
0.0
 11
-7.257814071909142
 21
15.5155515311442
 31
0.0
 11
-7.301701241246477
 21
15.54045719651812
 31
0.0
 11
-7.337272398899477
 21
15.56071783070037
 31
0.0
 11
-7.371987784010416
 21
15.58055495105049
 31
0.0
 11
-7.405841436538235
 21
15.59996035597933
 31
0.0
 11
-7.438827396441865
 21
15.61892584389774
 31
0.0
 11
-7.470939703680243
 21
15.63744321321655
 31
0.0
 11
-7.502172398212306
 21
15.65550426234663
 31
0.0
 11
-7.532145705538498
 21
15.6728839430616
 31
0.0
 11
-7.561244159344497
 21
15.68980027661024
 31
0.0
 11
-7.589462203453305
 21
15.70624601504538
 31
0.0
 11
-7.616794281687916
 21
15.72221391041983
 31
0.0
 11
-7.643232578206395
 21
15.73769546604574
 31
0.0
 11
-7.668770131094666
 21
15.7526829894846
 31
0.0
 11
-7.69340169948412
 21
15.76716987438577
 31
0.0
 11
-7.717122042506155
 21
15.78114951439862
 31
0.0
 11
-7.739936684697504
 21
15.79462174511867
 31
0.0
 11
-7.761825459927097
 21
15.80757156269487
 31
0.0
 11
-7.78278358645707
 21
15.81999310648042
 31
0.0
 11
-7.802806282549557
 21
15.83188051582852
 31
0.0
 11
-7.821874545197583
 21
15.8432195490941
 31
0.0
 11
-7.839996616782365
 21
15.85401249292764
 31
0.0
 11
-7.857168342358777
 21
15.864254368233
 31
0.0
 11
-7.873385566981686
 21
15.87394019591402
 31
0.0
 11
-7.88863461716836
 21
15.88305938666841
 31
0.0
 11
-7.902920129784963
 21
15.89161264629666
 31
0.0
 11
-7.916238711872428
 21
15.89959597902792
 31
0.0
 11
-7.928586970471685
 21
15.90700538909132
 31
0.0
 11
-7.939960231580272
 21
15.91383619952488
 31
0.0
 11
-7.950355353886466
 21
15.92008501538544
 31
0.0
 11
-7.959769819769589
 21
15.92574890923934
 31
0.0
 11
-7.968201111608956
 21
15.93082495365292
 31
0.0
 11
-7.975644987901224
 21
15.93530927381292
 31
0.0
 11
-7.982100619052875
 21
15.93920042162612
 31
0.0
 11
-7.987566456060268
 21
15.94249661087407
 31
0.0
 11
-7.992040949919755
 21
15.94519605533832
 31
0.0
 11
-7.995484887833338
 21
15.94727432211795
 31
0.0
 11
-7.997909973866764
 21
15.94873809772825
 31
0.0
 11
-7.99939031044977
 21
15.94963183830286
 31
0.0
 11
-8.000000000012086
 21
15.94999999997543
 31
0.0
  0
SPLINE
  5
30B
330
1F
100
AcDbEntity
  8
1
  6
Continuous
 62
     3
100
AcDbSpline
210
0.0
220
0.0
230
1.0
 70
     8
 71
     3
 72
     9
 73
     5
 74
     3
 42
0.000000001
 43
0.0000000001
 44
0.00000001
 40
0.0
 40
0.0
 40
0.0
 40
0.0
 40
2.500485457239597
 40
5.00053678931376
 40
5.00053678931376
 40
5.00053678931376
 40
5.00053678931376
 10
10.99999999998775
 20
95.80149451077811
 30
0.0
 10
10.28829583743753
 20
95.36646877384453
 30
0.0
 10
8.8650110659988
 20
94.49649284495828
 30
0.0
 10
7.358686389718629
 20
93.77984596734635
 30
0.0
 10
6.605589433300935
 20
93.42155364550989
 30
0.0
 11
10.99999999998775
 21
95.80149451077811
 31
0.0
 11
8.844123926328088
 21
94.53475622737764
 31
0.0
 11
6.605589433300935
 21
93.42155364550989
 31
0.0
  0
SPLINE
  5
30C
330
1F
100
AcDbEntity
  8
1
  6
Continuous
 62
     3
100
AcDbSpline
210
0.0
220
0.0
230
1.0
 70
     8
 71
     3
 72
     9
 73
     5
 74
     3
 42
0.000000001
 43
0.0000000001
 44
0.00000001
 40
0.0
 40
0.0
 40
0.0
 40
0.0
 40
4.225572544221867
 40
7.134857741247226
 40
7.134857741247226
 40
7.134857741247226
 40
7.134857741247226
 10
-5.40000000001217
 20
110.3837297453438
 30
0.0
 10
-6.179419475639817
 20
109.1347366401248
 30
0.0
 10
-7.495465307171658
 20
107.0258181516422
 30
0.0
 10
-9.842841788533569
 20
106.332495468135
 30
0.0
 10
-10.80000000001215
 20
106.0497885885413
 30
0.0
 11
-5.40000000001217
 21
110.3837297453438
 31
0.0
 11
-8.100000000012159
 21
107.1332738777419
 31
0.0
 11
-10.80000000001215
 21
106.0497885885413
 31
0.0
  0
SPLINE
  5
30D
330
1F
100
AcDbEntity
  8
1
  6
Continuous
 62
     3
100
AcDbSpline
210
0.0
220
0.0
230
1.0
 70
     8
 71
     3
 72
     9
 73
     5
 74
     3
 42
0.000000001
 43
0.0000000001
 44
0.00000001
 40
0.0
 40
0.0
 40
0.0
 40
0.0
 40
2.909285197025349
 40
7.134857741247238
 40
7.134857741247238
 40
7.134857741247238
 40
7.134857741247238
 10
10.79999999998782
 20
106.0497885885413
 30
0.0
 10
9.842841788509244
 20
106.332495468135
 30
0.0
 10
7.495465307147308
 20
107.0258181516421
 30
0.0
 10
6.179419475615483
 20
109.1347366401247
 30
0.0
 10
5.399999999987841
 20
110.3837297453438
 30
0.0
 11
10.79999999998782
 21
106.0497885885413
 31
0.0
 11
8.09999999998783
 21
107.1332738777419
 31
0.0
 11
5.399999999987841
 21
110.3837297453438
 31
0.0
  0
SPLINE
  5
30E
330
1F
100
AcDbEntity
  8
1
  6
Continuous
 62
     3
100
AcDbSpline
210
0.0
220
0.0
230
1.0
 70
     8
 71
     3
 72
     9
 73
     5
 74
     3
 42
0.000000001
 43
0.0000000001
 44
0.00000001
 40
0.0
 40
0.0
 40
0.0
 40
0.0
 40
2.909285197025347
 40
7.134857741247236
 40
7.134857741247236
 40
7.134857741247236
 40
7.134857741247236
 10
-0.0000000000121929
 20
106.0497885885413
 30
0.0
 10
-0.95715821149077
 20
106.332495468135
 30
0.0
 10
-3.304534692852702
 20
107.0258181516421
 30
0.0
 10
-4.620580524384527
 20
109.1347366401248
 30
0.0
 10
-5.40000000001217
 20
110.3837297453438
 30
0.0
 11
-0.0000000000121929
 21
106.0497885885413
 31
0.0
 11
-2.700000000012182
 21
107.1332738777419
 31
0.0
 11
-5.40000000001217
 21
110.3837297453438
 31
0.0
  0
SPLINE
  5
30F
330
1F
100
AcDbEntity
  8
1
  6
Continuous
 62
     3
100
AcDbSpline
210
0.0
220
0.0
230
1.0
 70
     8
 71
     3
 72
     9
 73
     5
 74
     3
 42
0.000000001
 43
0.0000000001
 44
0.00000001
 40
0.0
 40
0.0
 40
0.0
 40
0.0
 40
4.225572544221876
 40
7.134857741247274
 40
7.134857741247274
 40
7.134857741247274
 40
7.134857741247274
 10
5.399999999987841
 20
110.3837297453438
 30
0.0
 10
4.620580524360189
 20
109.1347366401248
 30
0.0
 10
3.304534692828338
 20
107.0258181516421
 30
0.0
 10
0.9571582114663985
 20
106.332495468135
 30
0.0
 10
-0.0000000000121929
 20
106.0497885885413
 30
0.0
 11
5.399999999987841
 21
110.3837297453438
 31
0.0
 11
2.699999999987838
 21
107.1332738777419
 31
0.0
 11
-0.0000000000121929
 21
106.0497885885413
 31
0.0
  0
XLINE
  5
310
330
1F
100
AcDbEntity
  8
1
  6
DOT_CENTER
 62
     3
 60
     1
100
AcDbXline
 10
7.99999999998791
 20
17.50000000001218
 30
0.0
 11
0.0
 21
1.0
 31
0.0
  0
XLINE
  5
311
330
1F
100
AcDbEntity
  8
1
  6
DOT_CENTER
 62
     3
 60
     1
100
AcDbXline
 10
-65.52058408150208
 20
-19.83312649627372
 30
0.0
 11
0.0
 21
1.0
 31
0.0
  0
LWPOLYLINE
  5
312
330
1F
100
AcDbEntity
  8
1
  6
Continuous
 62
     3
 60
     1
100
AcDbPolyline
 90
        3
 70
     0
 43
0.0
 10
-56.9168527382185
 20
13.19235790042553
 10
-57.32943093207626
 20
13.74604413828572
 10
-57.3705840815021
 20
15.29275585407364
  0
LWPOLYLINE
  5
313
330
1F
100
AcDbEntity
  8
1
  6
Continuous
 62
     3
 60
     1
100
AcDbPolyline
 90
        2
 70
     0
 43
0.0
 10
14.49999999998783
 20
40.5975217476956
 10
14.12499999998783
 20
40.55563431577266
  0
LWPOLYLINE
  5
314
330
1F
100
AcDbEntity
  8
1
  6
Continuous
 62
     3
 60
     1
100
AcDbPolyline
 90
        4
 70
     0
 43
0.0
 10
24.99999999998783
 20
29.16078793460936
 10
24.87339740675944
 20
30.39521331073787
 10
24.57640719008025
 20
36.06212423011148
 10
24.47008289843595
 20
38.09091257219997
  0
LWPOLYLINE
  5
315
330
1F
100
AcDbEntity
  8
1
  6
Continuous
 62
     3
 60
     1
100
AcDbPolyline
 90
        7
 70
     0
 43
0.0
 10
13.99251602224854
 20
20.58953015100157
 10
14.29480917892265
 20
20.30000000001225
 10
15.20519082105324
 20
20.30000000001225
 10
15.49999999998783
 20
20.54443429101976
 10
15.55916238894224
 20
22.14161619824946
 10
15.87423047298515
 20
31.16398565426768
 10
16.01866327656754
 20
35.30000000001225
  0
LWPOLYLINE
  5
316
330
1F
100
AcDbEntity
  8
1
  6
Continuous
 62
     3
 60
     1
100
AcDbPolyline
 90
        6
 70
     0
 43
0.0
 10
-14.50000000001217
 20
40.59752174769575
 10
-14.04363253084617
 20
40.64114096705755
 10
-12.03637181069536
 20
40.81630597910937
 10
-9.04586953006597
 20
41.02699237094456
 10
-7.00674165002016
 20
41.33626253832445
 10
-6.52598885733076
 20
41.35797099066106
  0
LWPOLYLINE
  5
317
330
1F
100
AcDbEntity
  8
1
  6
Continuous
 62
     3
 60
     1
100
AcDbPolyline
 90
        2
 70
     0
 43
0.0
 10
14.49999999998783
 20
40.5975217476956
 10
14.12499999998783
 20
40.55563431577266
  0
LWPOLYLINE
  5
318
330
1F
100
AcDbEntity
  8
1
  6
Continuous
 62
     3
 60
     1
100
AcDbPolyline
 90
        4
 70
     0
 43
0.0
 10
24.98183147787724
 20
28.32616797813365
 10
24.99999999998783
 20
29.16078793460936
 10
24.63007152108665
 20
35.03814779492008
 10
24.47008289843595
 20
38.09091257219997
  0
LWPOLYLINE
  5
319
330
1F
100
AcDbEntity
  8
1
  6
Continuous
 62
     3
 60
     1
100
AcDbPolyline
 90
        4
 70
     0
 43
0.0
 10
15.49999999998783
 20
20.54443429101976
 10
15.51481752491024
 20
20.87174544003445
 10
15.87423047298515
 20
31.16398565426768
 10
16.01866327656754
 20
35.30000000001225
  0
LWPOLYLINE
  5
31A
330
1F
100
AcDbEntity
  8
1
  6
Continuous
 62
     3
 60
     1
100
AcDbPolyline
 90
       15
 70
     0
 43
0.0
 10
-23.50293604822875
 20
39.41535342115967
 10
-22.63899615690065
 20
39.58174484073216
 10
-17.87540127736136
 20
40.23109154631688
 10
-12.84396277566657
 20
40.74909708734027
 10
-7.70286680651506
 20
41.10208891388977
 10
-3.95527369827656
 20
41.44784363229594
 10
-3.75000000001216
 20
41.04791317411964
 10
-3.75000000001216
 20
35.30000000001213
 10
-2.25000000001216
 20
35.30000000001213
 10
-2.25000000001216
 20
31.30000000001213
 10
-4.50000000001217
 20
31.30000000001213
 10
-4.50000000001217
 20
25.70000000001217
 10
-6.93381822001547
 20
27.30000000001225
 10
-7.47705266719035
 20
27.34241540268348
 10
-7.77483248403186
 20
27.77383202189078
  0
LWPOLYLINE
  5
31B
330
1F
100
AcDbEntity
  8
1
  6
Continuous
 62
     3
 60
     1
100
AcDbPolyline
 90
        3
 70
     0
 43
0.0
 10
15.49999999998783
 20
20.54443429101976
 10
15.51481752491024
 20
20.87174544003445
 10
16.01866327656754
 20
35.30000000001225
  0
LWPOLYLINE
  5
31C
330
1F
100
AcDbEntity
  8
1
  6
Continuous
 62
     3
 60
     1
100
AcDbPolyline
 90
        2
 70
     0
 43
0.0
 10
-15.20514510177335
 20
20.30000000001213
 10
-14.50000000001217
 20
20.30000000001225
  0
LWPOLYLINE
  5
31D
330
1F
100
AcDbEntity
  8
1
  6
Continuous
 62
     3
 60
     1
100
AcDbPolyline
 90
        2
 70
     0
 43
0.0
 10
-15.89699919751305
 20
31.81599661608404
 10
-10.50000000001217
 20
25.30000000001225
  0
LWPOLYLINE
  5
31E
330
1F
100
AcDbEntity
  8
1
  6
Continuous
 62
     3
 60
     1
100
AcDbPolyline
 90
        3
 70
     0
 43
0.0
 10
-9.00000000001216
 20
24.49950000001213
 10
-9.19950000001205
 20
24.30000000001213
 10
-13.61673662244186
 20
24.30000000001213
  0
LWPOLYLINE
  5
31F
330
1F
100
AcDbEntity
  8
1
  6
Continuous
 62
     3
 60
     1
100
AcDbPolyline
 90
        2
 70
     0
 43
0.0
 10
15.50514512960014
 20
20.59476427808104
 10
15.20519082105324
 20
20.30000000001225
  0
LWPOLYLINE
  5
320
330
1F
100
AcDbEntity
  8
1
  6
Continuous
 62
     3
 60
     1
100
AcDbPolyline
 90
       11
 70
     0
 43
0.0
 10
14.29480917892265
 20
20.30000000001225
 10
13.99999999998783
 20
20.53241311153564
 10
13.92521628850844
 20
22.51674237225736
 10
13.64725708764764
 20
30.47645245042545
 10
13.47928369259324
 20
35.28658113599535
 10
13.38310178616955
 20
38.04087056957697
 10
13.17768385043153
 20
38.88296063489288
 10
12.78553310715964
 20
39.19942573241237
 10
12.08171675590614
 20
39.32106306479128
 10
10.40092203808464
 20
39.45266522487096
 10
9.43806491864143
 20
39.50535970464348
  0
LWPOLYLINE
  5
321
330
1F
100
AcDbEntity
  8
1
  6
Continuous
 62
     3
 60
     1
100
AcDbPolyline
 90
        3
 70
     0
 43
0.0
 10
-14.35307242521157
 20
40.61171860226047
 10
-16.00000000001217
 20
40.44422550002948
 10
-16.00000000001217
 20
41.34935854579204
  0
LWPOLYLINE
  5
322
330
1F
100
AcDbEntity
  8
1
  6
Continuous
 62
     3
 60
     1
100
AcDbPolyline
 90
        4
 70
     0
 43
0.0
 10
-16.01866327659175
 20
35.30000000001225
 10
-15.50496234987915
 20
20.58953015100146
 10
-15.20514510177335
 20
20.30000000001213
 10
-14.50000000001217
 20
20.30000000001225
  0
LWPOLYLINE
  5
323
330
1F
100
AcDbEntity
  8
1
  6
Continuous
 62
     3
 60
     1
100
AcDbPolyline
 90
        2
 70
     0
 43
0.0
 10
15.50514512960014
 20
20.59476427808104
 10
15.20519082105324
 20
20.30000000001225
  0
LWPOLYLINE
  5
324
330
1F
100
AcDbEntity
  8
1
  6
Continuous
 62
     3
 60
     1
100
AcDbPolyline
 90
        2
 70
     0
 43
0.0
 10
14.49999999998783
 20
40.5975217476956
 10
14.12499999998783
 20
40.55563431577266
  0
LWPOLYLINE
  5
325
330
1F
100
AcDbEntity
  8
1
  6
Continuous
 62
     3
 60
     1
100
AcDbPolyline
 90
        5
 70
     0
 43
0.0
 10
-57.32943093207626
 20
13.74604413828572
 10
-57.3705840815021
 20
14.02996792584869
 10
-57.3705840815021
 20
16.86523167559027
 10
-57.40309266468888
 20
17.33582467351174
 10
-57.67058408150206
 20
17.50000000001218
  0
LWPOLYLINE
  5
326
330
1F
100
AcDbEntity
  8
1
  6
Continuous
 62
     3
 60
     1
100
AcDbPolyline
 90
        2
 70
     0
 43
0.0
 10
-70.12058408150199
 20
20.30000000001213
 10
-72.77058408150208
 20
20.30000000001213
  0
LWPOLYLINE
  5
327
330
1F
100
AcDbEntity
  8
1
  6
Continuous
 62
     3
 60
     1
100
AcDbPolyline
 90
        3
 70
     0
 43
0.0
 10
-72.77058408150208
 20
20.30000000001213
 10
-72.25682885719732
 20
20.30000000001213
 10
-70.12058408150199
 20
20.30000000001213
  0
LWPOLYLINE
  5
328
330
1F
100
AcDbEntity
  8
1
  6
Continuous
 62
     3
 60
     1
100
AcDbPolyline
 90
        2
 70
     0
 43
0.0
 10
-58.27058408150208
 20
20.30000000001213
 10
-60.92058408150206
 20
20.30000000001213
  0
LWPOLYLINE
  5
329
330
1F
100
AcDbEntity
  8
1
  6
Continuous
 62
     3
 60
     1
100
AcDbPolyline
 90
        2
 70
     0
 43
0.0
 10
-58.27058408150208
 20
20.30000000001213
 10
-60.92058408150206
 20
20.30000000001213
  0
LWPOLYLINE
  5
32A
330
1F
100
AcDbEntity
  8
1
  6
Continuous
 62
     3
 60
     1
100
AcDbPolyline
 90
        2
 70
     0
 43
0.0
 10
-70.12058408150199
 20
20.30000000001213
 10
-72.77058408150208
 20
20.30000000001213
  0
LWPOLYLINE
  5
32B
330
1F
100
AcDbEntity
  8
1
  6
Continuous
 62
     3
 60
     1
100
AcDbPolyline
 90
        4
 70
     0
 43
0.0
 10
-57.3705840815021
 20
10.59977354802677
 10
-57.3705840815021
 20
8.60312546993653
 10
-57.02415551007357
 20
7.84626062879575
 10
-55.7318763813405
 20
6.56161888635275
  0
LWPOLYLINE
  5
32C
330
1F
100
AcDbEntity
  8
1
  6
Continuous
 62
     3
 60
     1
100
AcDbPolyline
 90
        5
 70
     0
 43
0.0
 10
-57.3705840815021
 20
14.69281034621544
 10
-57.3705840815021
 20
16.32012446218626
 10
-57.3705840815021
 20
17.20000000001217
 10
-57.67058408150206
 20
17.50000000001218
 10
-58.27058408150208
 20
17.80000000001213
  0
LWPOLYLINE
  5
32D
330
1F
100
AcDbEntity
  8
1
  6
Continuous
 62
     3
 60
     1
100
AcDbPolyline
 90
        2
 70
     0
 43
0.0
 10
6.52598885730654
 20
41.15797099066113
 10
6.87499999998784
 20
41.10208891388977
  0
LWPOLYLINE
  5
32E
330
1F
100
AcDbEntity
  8
1
  6
Continuous
 62
     3
 60
     1
100
AcDbPolyline
 90
        2
 70
     0
 43
0.0
 10
4.99999999998788
 20
40.97448851127982
 10
5.30278285250397
 20
41.20623900966487
  0
LWPOLYLINE
  5
32F
330
1F
100
AcDbEntity
  8
1
  6
Continuous
 62
     3
 60
     1
100
AcDbPolyline
 90
        2
 70
     0
 43
0.0
 10
6.52598885730654
 20
41.15797099066113
 10
6.87499999998784
 20
41.10208891388977
  0
LWPOLYLINE
  5
330
330
1F
100
AcDbEntity
  8
1
  6
Continuous
 62
     3
 60
     1
100
AcDbPolyline
 90
        2
 70
     0
 43
0.0
 10
6.52598885730654
 20
41.15797099066113
 10
6.87499999998784
 20
41.10208891388977
  0
ARC
  5
331
330
1F
100
AcDbEntity
  8
1
  6
Continuous
 62
     3
100
AcDbCircle
 10
-79.02058408140638
 20
18.20000000013755
 30
0.0
 40
0.5
100
AcDbArc
 50
90.0
 51
180.0
  0
ARC
  5
332
330
1F
100
AcDbEntity
  8
1
  6
Continuous
 62
     3
100
AcDbCircle
 10
-78.35001441151508
 20
19.20000000013755
 30
0.0
 40
0.5
100
AcDbArc
 50
270.0
 51
0.0
  0
ARC
  5
333
330
1F
100
AcDbEntity
  8
1
  6
Continuous
 62
     3
100
AcDbCircle
 10
-78.52058408140638
 20
15.07735026916505
 30
0.0
 40
1.0
100
AcDbArc
 50
180.0
 51
239.9999999999997
  0
ARC
  5
334
330
1F
100
AcDbEntity
  8
1
  6
Continuous
 62
     3
100
AcDbCircle
 10
-56.3705840815021
 20
14.02996792584869
 30
0.0
 40
1.0
100
AcDbArc
 50
180.0
 51
196.494528936576
  0
ARC
  5
335
330
1F
100
AcDbEntity
  8
1
  6
Continuous
 62
     3
100
AcDbCircle
 10
-3.50000000001209
 20
-6.00000004892753
 30
0.0
 40
1.000000000000001
100
AcDbArc
 50
270.0000028111492
 51
0.0
  0
ARC
  5
336
330
1F
100
AcDbEntity
  8
1
  6
Continuous
 62
     3
100
AcDbCircle
 10
-3.50000000001209
 20
6.00000004840989
 30
0.0
 40
1.0
100
AcDbArc
 50
0.0
 51
89.99999723412596
  0
ARC
  5
337
330
1F
100
AcDbEntity
  8
1
  6
Continuous
 62
     3
100
AcDbCircle
 10
10.84771215792408
 20
-0.95510566845125
 30
0.0
 40
0.0448943315089814
100
AcDbArc
 50
180.0
 51
270.0
  0
ARC
  5
338
330
1F
100
AcDbEntity
  8
1
  6
Continuous
 62
     3
100
AcDbCircle
 10
11.35651458169263
 20
-0.95510566845125
 30
0.0
 40
0.0448943315089991
100
AcDbArc
 50
270.0
 51
0.0
  0
ARC
  5
339
330
1F
100
AcDbEntity
  8
1
  6
Continuous
 62
     3
100
AcDbCircle
 10
11.95510566847892
 20
-0.35651458166475
 30
0.0
 40
0.0448943315089849
100
AcDbArc
 50
270.0
 51
0.0
  0
ARC
  5
33A
330
1F
100
AcDbEntity
  8
1
  6
Continuous
 62
     3
100
AcDbCircle
 10
11.95510566847892
 20
0.07746395625533
 30
0.0
 40
0.0448943315089902
100
AcDbArc
 50
0.0
 51
90.0
  0
ARC
  5
33B
330
1F
100
AcDbEntity
  8
1
  6
Continuous
 62
     3
100
AcDbCircle
 10
10.97858161848656
 20
1.94806110246287
 30
0.0
 40
0.0448943315089851
100
AcDbArc
 50
90.0
 51
134.9999999999854
  0
ARC
  5
33C
330
1F
100
AcDbEntity
  8
1
  6
Continuous
 62
     3
100
AcDbCircle
 10
11.35651458169263
 20
1.94806110246287
 30
0.0
 40
0.0448943315089991
100
AcDbArc
 50
0.0
 51
90.0
  0
ARC
  5
33D
330
1F
100
AcDbEntity
  8
1
  6
Continuous
 62
     3
100
AcDbCircle
 10
9.35123444095814
 20
0.32071392493447
 30
0.0
 40
0.0448943315090373
100
AcDbArc
 50
135.0000000000096
 51
180.0
  0
ARC
  5
33E
330
1F
100
AcDbEntity
  8
1
  6
Continuous
 62
     3
100
AcDbCircle
 10
9.35123444095814
 20
-0.35651458166475
 30
0.0
 40
0.0448943315089814
100
AcDbArc
 50
180.0
 51
270.0
  0
ARC
  5
33F
330
1F
100
AcDbEntity
  8
1
  6
Continuous
 62
     3
100
AcDbCircle
 10
7.21087094128458
 20
3.20947719802359
 30
0.0
 40
0.0439964448788293
100
AcDbArc
 50
90.0
 51
180.0
  0
ARC
  5
340
330
1F
100
AcDbEntity
  8
1
  6
Continuous
 62
     3
100
AcDbCircle
 10
7.21087094128458
 20
2.85750563899318
 30
0.0
 40
0.0439964448788075
100
AcDbArc
 50
180.0
 51
270.0
  0
ARC
  5
341
330
1F
100
AcDbEntity
  8
1
  6
Continuous
 62
     3
100
AcDbCircle
 10
6.53799820279348
 20
2.62285793297282
 30
0.0
 40
0.0439964448787777
100
AcDbArc
 50
4.52806301385534
 51
90.0
  0
ARC
  5
342
330
1F
100
AcDbEntity
  8
1
  6
Continuous
 62
     3
100
AcDbCircle
 10
6.03860645916819
 20
2.62285793297282
 30
0.0
 40
0.0439964448787999
100
AcDbArc
 50
90.0
 51
182.5365559993462
  0
ARC
  5
343
330
1F
100
AcDbEntity
  8
1
  6
Continuous
 62
     3
100
AcDbCircle
 10
6.54871446250209
 20
3.59077972030649
 30
0.0
 40
0.043996444878815
100
AcDbArc
 50
270.0
 51
339.8373291805345
  0
ARC
  5
344
330
1F
100
AcDbEntity
  8
1
  6
Continuous
 62
     3
100
AcDbCircle
 10
6.04398848331044
 20
3.59077972030649
 30
0.0
 40
0.0439964448788485
100
AcDbArc
 50
170.5285789485913
 51
270.0
  0
ARC
  5
345
330
1F
100
AcDbEntity
  8
1
  6
Continuous
 62
     3
100
AcDbCircle
 10
11.95510566847893
 20
-3.76620763089771
 30
0.0
 40
0.0448943315089991
100
AcDbArc
 50
270.0
 51
0.0
  0
ARC
  5
346
330
1F
100
AcDbEntity
  8
1
  6
Continuous
 62
     3
100
AcDbCircle
 10
11.95510566847893
 20
-3.33222909297757
 30
0.0
 40
0.0448943315089796
100
AcDbArc
 50
0.0
 51
90.0
  0
ARC
  5
347
330
1F
100
AcDbEntity
  8
1
  6
Continuous
 62
     3
100
AcDbCircle
 10
8.43920663904563
 20
-3.24244042995959
 30
0.0
 40
0.0448943315089885
100
AcDbArc
 50
180.0
 51
270.0
  0
ARC
  5
348
330
1F
100
AcDbEntity
  8
1
  6
Continuous
 62
     3
100
AcDbCircle
 10
8.43920663904563
 20
-3.85599629391568
 30
0.0
 40
0.0448943315089698
100
AcDbArc
 50
90.0
 51
180.0
  0
ARC
  5
349
330
1F
100
AcDbEntity
  8
1
  6
Continuous
 62
     3
100
AcDbCircle
 10
8.34941797602766
 20
-4.45781312790702
 30
0.0
 40
0.0448943315089556
100
AcDbArc
 50
250.0000000000184
 51
0.0
  0
ARC
  5
34A
330
1F
100
AcDbEntity
  8
1
  6
Continuous
 62
     3
100
AcDbCircle
 10
8.34941797602766
 20
-2.64062359596829
 30
0.0
 40
0.0448943315089814
100
AcDbArc
 50
0.0
 51
109.9999999999723
  0
ARC
  5
34B
330
1F
100
AcDbEntity
  8
1
  6
Continuous
 62
     3
100
AcDbCircle
 10
4.08095308580784
 20
14.41661379984788
 30
0.0
 40
1.000000000000005
100
AcDbArc
 50
106.6652181310316
 51
140.0893589853161
  0
ARC
  5
34C
330
1F
100
AcDbEntity
  8
1
  6
Continuous
 62
     3
100
AcDbCircle
 10
14.78994949364904
 20
61.00149451045964
 30
0.0
 40
0.7000000000000527
100
AcDbArc
 50
225.0000000000001
 51
270.0
  0
ARC
  5
34D
330
1F
100
AcDbEntity
  8
1
  6
Continuous
 62
     3
100
AcDbCircle
 10
19.49999999998785
 20
60.80149451071311
 30
0.0
 40
0.5
100
AcDbArc
 50
270.0
 51
0.0
  0
ARC
  5
34E
330
1F
100
AcDbEntity
  8
1
  6
Continuous
 62
     3
100
AcDbCircle
 10
20.49999999998785
 20
61.80149451071311
 30
0.0
 40
0.5
100
AcDbArc
 50
90.0
 51
180.0
  0
ARC
  5
34F
330
1F
100
AcDbEntity
  8
1
  6
Continuous
 62
     3
100
AcDbCircle
 10
19.49999999998785
 20
95.80149451071311
 30
0.0
 40
0.5
100
AcDbArc
 50
0.0
 51
90.0
  0
ARC
  5
350
330
1F
100
AcDbEntity
  8
1
  6
Continuous
 62
     3
100
AcDbCircle
 10
20.49999999998785
 20
94.80149451071311
 30
0.0
 40
0.5
100
AcDbArc
 50
180.0
 51
270.0
  0
ARC
  5
351
330
1F
100
AcDbEntity
  8
1
  6
Continuous
 62
     3
100
AcDbCircle
 10
14.78994949364904
 20
95.6014945106461
 30
0.0
 40
0.7000000000000455
100
AcDbArc
 50
90.0
 51
134.9999999999999
  0
ARC
  5
352
330
1F
100
AcDbEntity
  8
1
  6
Continuous
 62
     3
100
AcDbCircle
 10
-107.5205840815019
 20
-7.79999999998761
 30
0.0
 40
3.0
100
AcDbArc
 50
180.0000000000003
 51
270.0
  0
ARC
  5
353
330
1F
100
AcDbEntity
  8
1
  6
Continuous
 62
     3
100
AcDbCircle
 10
-107.5205840815019
 20
7.80000000001239
 30
0.0
 40
3.000000000000002
100
AcDbArc
 50
90.0
 51
179.9999999999997
  0
ARC
  5
354
330
1F
100
AcDbEntity
  8
1
  6
Continuous
 62
     3
100
AcDbCircle
 10
-18.79254431024225
 20
70.30149451089191
 30
0.0
 40
3.000000000000034
100
AcDbArc
 50
316.5262617094803
 51
346.157206862307
  0
ARC
  5
355
330
1F
100
AcDbEntity
  8
1
  6
Continuous
 62
     3
100
AcDbCircle
 10
11.99999999998775
 20
96.80149451077811
 30
0.0
 40
1.0
100
AcDbArc
 50
180.0
 51
270.0
  0
ARC
  5
356
330
1F
100
AcDbEntity
  8
1
  6
Continuous
 62
     3
100
AcDbCircle
 10
4.39479620802493
 20
61.80149451058652
 30
0.0
 40
0.9999999999999957
100
AcDbArc
 50
228.5903778885487
 51
270.0
  0
ARC
  5
357
330
1F
100
AcDbEntity
  8
1
  6
Continuous
 62
     3
100
AcDbCircle
 10
-16.60000000001216
 20
93.3014945109454
 30
0.0
 40
0.9999999999999982
100
AcDbArc
 50
0.0
 51
90.0
  0
ARC
  5
358
330
1F
100
AcDbEntity
  8
1
  6
Continuous
 62
     3
100
AcDbCircle
 10
-16.60000000001216
 20
63.3014945105863
 30
0.0
 40
1.0
100
AcDbArc
 50
270.0
 51
0.0
  0
ARC
  5
359
330
1F
100
AcDbEntity
  8
1
  6
Continuous
 62
     3
100
AcDbCircle
 10
-7.50000000001217
 20
63.55149451092332
 30
0.0
 40
0.9999999999999991
100
AcDbArc
 50
180.0
 51
270.0
  0
ARC
  5
35A
330
1F
100
AcDbEntity
  8
1
  6
Continuous
 62
     3
100
AcDbCircle
 10
-18.79254431024225
 20
86.30149451067571
 30
0.0
 40
2.999999999999869
100
AcDbArc
 50
13.84279313640079
 51
43.47373829051659
  0
ARC
  5
35B
330
1F
100
AcDbEntity
  8
1
  6
Continuous
 62
     3
100
AcDbCircle
 10
14.78994949364905
 20
95.6014945107758
 30
0.0
 40
0.700000000000017
100
AcDbArc
 50
90.0
 51
134.9999999999994
  0
ARC
  5
35C
330
1F
100
AcDbEntity
  8
1
  6
Continuous
 62
     3
100
AcDbCircle
 10
13.71005050632664
 20
96.5014945107758
 30
0.0
 40
0.6999999999999886
100
AcDbArc
 50
270.0
 51
315.0000000000053
  0
ARC
  5
35D
330
1F
100
AcDbEntity
  8
1
  6
Continuous
 62
     3
100
AcDbCircle
 10
14.78994949364905
 20
61.0014945105893
 30
0.0
 40
0.7000000000000313
100
AcDbArc
 50
224.9999999999994
 51
270.0
  0
ARC
  5
35E
330
1F
100
AcDbEntity
  8
1
  6
Continuous
 62
     3
100
AcDbCircle
 10
13.71005050632664
 20
60.10149451058921
 30
0.0
 40
0.7000000000000137
100
AcDbArc
 50
44.99999999999918
 51
90.0
  0
ARC
  5
35F
330
1F
100
AcDbEntity
  8
1
  6
Continuous
 62
     3
100
AcDbCircle
 10
-11.33382044080187
 20
91.67913629363859
 30
0.0
 40
2.652170501333089
100
AcDbArc
 50
17.41659232660258
 51
81.40111398475823
  0
ARC
  5
360
330
1F
100
AcDbEntity
  8
1
  6
Continuous
 62
     3
100
AcDbCircle
 10
-12.00000000001225
 20
95.30149451080449
 30
0.0
 40
1.0
100
AcDbArc
 50
270.0
 51
0.0
  0
ARC
  5
361
330
1F
100
AcDbEntity
  8
1
  6
Continuous
 62
     3
100
AcDbCircle
 10
17.37112312541174
 20
64.81134079778282
 30
0.0
 40
4.99999999999996
100
AcDbArc
 50
105.0000000000001
 51
130.0000000000015
  0
ARC
  5
362
330
1F
100
AcDbEntity
  8
1
  6
Continuous
 62
     3
100
AcDbCircle
 10
17.12843647350974
 20
65.2639511955969
 30
0.0
 40
4.999999999999904
100
AcDbArc
 50
105.0000000000014
 51
130.0000000000004
  0
ARC
  5
363
330
1F
100
AcDbEntity
  8
1
  6
Continuous
 62
     3
100
AcDbCircle
 10
17.12843647350974
 20
91.33903782590009
 30
0.0
 40
5.000000000000176
100
AcDbArc
 50
230.0000000000031
 51
255.0
  0
ARC
  5
364
330
1F
100
AcDbEntity
  8
1
  6
Continuous
 62
     3
100
AcDbCircle
 10
17.37112312541174
 20
91.79164822371409
 30
0.0
 40
4.999999999999991
100
AcDbArc
 50
229.9999999999985
 51
254.9999999999999
  0
ARC
  5
365
330
1F
100
AcDbEntity
  8
1
  6
Continuous
 62
     3
100
AcDbCircle
 10
-17.37112312543607
 20
91.79164822371409
 30
0.0
 40
4.999999999999966
100
AcDbArc
 50
285.0000000000003
 51
310.0000000000018
  0
ARC
  5
366
330
1F
100
AcDbEntity
  8
1
  6
Continuous
 62
     3
100
AcDbCircle
 10
-17.12843647353407
 20
91.33903782590009
 30
0.0
 40
5.00000000000035
100
AcDbArc
 50
284.9999999999991
 51
309.9999999999978
  0
ARC
  5
367
330
1F
100
AcDbEntity
  8
1
  6
Continuous
 62
     3
100
AcDbCircle
 10
-17.37112312543607
 20
64.81134079778282
 30
0.0
 40
5.000000000000012
100
AcDbArc
 50
49.99999999999825
 51
74.9999999999997
  0
ARC
  5
368
330
1F
100
AcDbEntity
  8
1
  6
Continuous
 62
     3
100
AcDbCircle
 10
-17.12843647353407
 20
65.2639511955969
 30
0.0
 40
4.999999999999875
100
AcDbArc
 50
49.99999999999861
 51
74.99999999999947
  0
ARC
  5
369
330
1F
100
AcDbEntity
  8
1
  6
Continuous
 62
     3
100
AcDbCircle
 10
-21.76975633556396
 20
75.1269537422758
 30
0.0
 40
0.5000000000001459
100
AcDbArc
 50
188.2965899571429
 51
251.248950760872
  0
ARC
  5
36A
330
1F
100
AcDbEntity
  8
1
  6
Continuous
 62
     3
100
AcDbCircle
 10
-21.76975633556396
 20
81.4760352792212
 30
0.0
 40
0.4999999999997921
100
AcDbArc
 50
108.7510492391426
 51
171.7034100429022
  0
ARC
  5
36B
330
1F
100
AcDbEntity
  8
1
  6
Continuous
 62
     3
100
AcDbCircle
 10
-13.43112258205855
 20
84.51800045750319
 30
0.0
 40
0.2999999999999014
100
AcDbArc
 50
335.1632542125795
 51
108.7510492391165
  0
ARC
  5
36C
330
1F
100
AcDbEntity
  8
1
  6
Continuous
 62
     3
100
AcDbCircle
 10
-13.43112258205855
 20
72.08498856399332
 30
0.0
 40
0.2999999999998156
100
AcDbArc
 50
251.2489507608538
 51
24.83674578742051
  0
ARC
  5
36D
330
1F
100
AcDbEntity
  8
1
  6
Continuous
 62
     3
100
AcDbCircle
 10
22.89925368643983
 20
83.581094931567
 30
0.0
 40
1.500000000000243
100
AcDbArc
 50
12.98311199223679
 51
74.99999999999956
  0
ARC
  5
36E
330
1F
100
AcDbEntity
  8
1
  6
Continuous
 62
     3
100
AcDbCircle
 10
22.89925368643983
 20
73.0218940899296
 30
0.0
 40
1.500000000000185
100
AcDbArc
 50
284.9999999999996
 51
347.0168880077632
  0
ARC
  5
36F
330
1F
100
AcDbEntity
  8
1
  6
Continuous
 62
     3
100
AcDbCircle
 10
-22.89925368646436
 20
83.581094931567
 30
0.0
 40
1.500000000000044
100
AcDbArc
 50
104.9999999999921
 51
167.0168880077614
  0
ARC
  5
370
330
1F
100
AcDbEntity
  8
1
  6
Continuous
 62
     3
100
AcDbCircle
 10
-22.47742094381246
 20
73.42650243739992
 30
0.0
 40
1.500000000000037
100
AcDbArc
 50
192.2370139012443
 51
254.9999999999959
  0
ARC
  5
371
330
1F
100
AcDbEntity
  8
1
  6
Continuous
 62
     3
100
AcDbCircle
 10
-22.47742094381246
 20
83.1764865840966
 30
0.0
 40
1.500000000000094
100
AcDbArc
 50
104.9999999999993
 51
167.7629860987525
  0
ARC
  5
372
330
1F
100
AcDbEntity
  8
1
  6
Continuous
 62
     3
100
AcDbCircle
 10
22.47742094378805
 20
83.1764865840966
 30
0.0
 40
1.500000000000131
100
AcDbArc
 50
12.23701390124687
 51
74.99999999999693
  0
ARC
  5
373
330
1F
100
AcDbEntity
  8
1
  6
Continuous
 62
     3
100
AcDbCircle
 10
22.47742094378805
 20
73.42650243739992
 30
0.0
 40
1.499999999999654
100
AcDbArc
 50
285.0000000000078
 51
347.7629860987547
  0
ARC
  5
374
330
1F
100
AcDbEntity
  8
1
  6
Continuous
 62
     3
100
AcDbCircle
 10
-22.89925368646436
 20
73.0218940899296
 30
0.0
 40
1.500000000000039
100
AcDbArc
 50
192.9831119922386
 51
255.0000000000088
  0
ARC
  5
375
330
1F
100
AcDbEntity
  8
1
  6
Continuous
 62
     3
100
AcDbCircle
 10
21.76975633553974
 20
81.4760352792212
 30
0.0
 40
0.4999999999998916
100
AcDbArc
 50
8.29658995710106
 51
71.24895076087861
  0
ARC
  5
376
330
1F
100
AcDbEntity
  8
1
  6
Continuous
 62
     3
100
AcDbCircle
 10
21.76975633553974
 20
75.1269537422758
 30
0.0
 40
0.500000000000106
100
AcDbArc
 50
288.7510492391067
 51
351.7034100428538
  0
ARC
  5
377
330
1F
100
AcDbEntity
  8
1
  6
Continuous
 62
     3
100
AcDbCircle
 10
13.43112258203445
 20
84.51800045750319
 30
0.0
 40
0.3000000000002023
100
AcDbArc
 50
71.24895076092334
 51
204.8367457874037
  0
ARC
  5
378
330
1F
100
AcDbEntity
  8
1
  6
Continuous
 62
     3
100
AcDbCircle
 10
13.43112258203445
 20
72.08498856399332
 30
0.0
 40
0.3000000000000916
100
AcDbArc
 50
155.1632542125963
 51
288.7510492391064
  0
ARC
  5
379
330
1F
100
AcDbEntity
  8
1
  6
Continuous
 62
     3
100
AcDbCircle
 10
-7.80000000001215
 20
120.3294945107132
 30
0.0
 40
3.0
100
AcDbArc
 50
90.0
 51
180.0
  0
ARC
  5
37A
330
1F
100
AcDbEntity
  8
1
  6
Continuous
 62
     3
100
AcDbCircle
 10
7.79999999998782
 20
120.3294945107131
 30
0.0
 40
3.000000000000001
100
AcDbArc
 50
0.0
 51
90.0
  0
ARC
  5
37B
330
1F
100
AcDbEntity
  8
1
  6
Continuous
 62
     3
100
AcDbCircle
 10
8.24999999998795
 20
18.50000000001218
 30
0.0
 40
1.0
100
AcDbArc
 50
180.0
 51
269.9999999999935
  0
ARC
  5
37C
330
1F
100
AcDbEntity
  8
1
  6
Continuous
 62
     3
100
AcDbCircle
 10
-7.75000000001217
 20
17.25000000001218
 30
0.0
 40
0.25
100
AcDbArc
 50
89.99999999997374
 51
180.0
  0
ARC
  5
37D
330
1F
100
AcDbEntity
  8
1
  6
Continuous
 62
     3
100
AcDbCircle
 10
-7.50000000001205
 20
17.75000000001218
 30
0.0
 40
0.25
100
AcDbArc
 50
270.0
 51
0.0
  0
ARC
  5
37E
330
1F
100
AcDbEntity
  8
1
  6
Continuous
 62
     3
100
AcDbCircle
 10
-9.00000000001205
 20
16.75000000001218
 30
0.0
 40
0.9999999999999982
100
AcDbArc
 50
270.0
 51
0.0
  0
ARC
  5
37F
330
1F
100
AcDbEntity
  8
1
  6
Continuous
 62
     3
100
AcDbCircle
 10
4.39479620782495
 20
-16.49999999998782
 30
0.0
 40
1.000000000000039
100
AcDbArc
 50
228.5903778907266
 51
270.0
  0
ARC
  5
380
330
1F
100
AcDbEntity
  8
1
  6
Continuous
 62
     3
100
AcDbCircle
 10
-19.90161317217886
 20
-16.49999999998782
 30
0.0
 40
1.0
100
AcDbArc
 50
270.0000000000051
 51
302.7637577588628
  0
ARC
  5
381
330
1F
100
AcDbEntity
  8
1
  6
Continuous
 62
     3
100
AcDbCircle
 10
-19.90161317205556
 20
16.50000000001218
 30
0.0
 40
1.000000000000016
100
AcDbArc
 50
57.23624224190293
 51
89.99999999999369
  0
ARC
  5
382
330
1F
100
AcDbEntity
  8
1
  6
Continuous
 62
     3
100
AcDbCircle
 10
-15.20514510177335
 20
20.60000000001226
 30
0.0
 40
0.3000000000000729
100
AcDbArc
 50
182.000000000009
 51
270.0
  0
ARC
  5
383
330
1F
100
AcDbEntity
  8
1
  6
Continuous
 62
     3
100
AcDbCircle
 10
15.20519082105324
 20
20.60000000001226
 30
0.0
 40
0.2999999999998777
100
AcDbArc
 50
349.3260974134071
 51
358.9999999999937
  0
ARC
  5
384
330
1F
100
AcDbEntity
  8
1
  6
Continuous
 62
     3
100
AcDbCircle
 10
-22.97213859632836
 20
38.01240863783558
 30
0.0
 40
1.500000000000021
100
AcDbArc
 50
98.899080778448
 51
110.7238969184349
  0
ARC
  5
385
330
1F
100
AcDbEntity
  8
1
  6
Continuous
 62
     3
100
AcDbCircle
 10
15.20519082105324
 20
20.60000000001226
 30
0.0
 40
0.3000000000000078
100
AcDbArc
 50
270.0
 51
349.3260974134071
  0
ARC
  5
386
330
1F
100
AcDbEntity
  8
1
  6
Continuous
 62
     3
100
AcDbCircle
 10
22.97213859630403
 20
38.01240863783558
 30
0.0
 40
1.500000000000058
100
AcDbArc
 50
2.99999999999896
 51
81.10091922154746
  0
ARC
  5
387
330
1F
100
AcDbEntity
  8
1
  6
Continuous
 62
     3
100
AcDbCircle
 10
-22.97213859632836
 20
38.01240863783558
 30
0.0
 40
1.50000000000008
100
AcDbArc
 50
110.7238969184349
 51
177.000000000001
  0
ARC
  5
388
330
1F
100
AcDbEntity
  8
1
  6
Continuous
 62
     3
100
AcDbCircle
 10
20.19999999998804
 20
17.70000000001217
 30
0.0
 40
0.2000000000001094
100
AcDbArc
 50
180.0
 51
270.0
  0
ARC
  5
389
330
1F
100
AcDbEntity
  8
1
  6
Continuous
 62
     3
100
AcDbCircle
 10
19.79999999998795
 20
17.80000000001213
 30
0.0
 40
0.1999999999999815
100
AcDbArc
 50
0.0
 51
90.0
  0
ARC
  5
38A
330
1F
100
AcDbEntity
  8
1
  6
Continuous
 62
     3
100
AcDbCircle
 10
20.19999999998804
 20
-17.69999999998787
 30
0.0
 40
0.200000000000049
100
AcDbArc
 50
90.0
 51
180.0
  0
ARC
  5
38B
330
1F
100
AcDbEntity
  8
1
  6
Continuous
 62
     3
100
AcDbCircle
 10
19.79999999998795
 20
-17.79999999998783
 30
0.0
 40
0.1999999999999318
100
AcDbArc
 50
270.0
 51
0.0
  0
ARC
  5
38C
330
1F
100
AcDbEntity
  8
1
  6
Continuous
 62
     3
100
AcDbCircle
 10
-81.48230004878273
 20
28.08259009952435
 30
0.0
 40
0.5000000000000939
100
AcDbArc
 50
182.9999999999912
 51
269.9999999999788
  0
ARC
  5
38D
330
1F
100
AcDbEntity
  8
1
  6
Continuous
 62
     3
100
AcDbCircle
 10
-49.55886811422143
 20
28.08259009952435
 30
0.0
 40
0.5
100
AcDbArc
 50
270.0
 51
357.0000000000089
  0
ARC
  5
38E
330
1F
100
AcDbEntity
  8
1
  6
Continuous
 62
     3
100
AcDbCircle
 10
-56.1159519742364
 20
39.80000000001213
 30
0.0
 40
0.5
100
AcDbArc
 50
90.00000000002524
 51
126.9259975817433
  0
ARC
  5
38F
330
1F
100
AcDbEntity
  8
1
  6
Continuous
 62
     3
100
AcDbCircle
 10
-60.3903452970776
 20
38.30000000001185
 30
0.0
 40
0.9999999999998654
100
AcDbArc
 50
2.22441336033158
 51
90.00000000000692
  0
ARC
  5
390
330
1F
100
AcDbEntity
  8
1
  6
Continuous
 62
     3
100
AcDbCircle
 10
-51.06215262794069
 20
39.09446457802893
 30
0.0
 40
1.499999999999812
100
AcDbArc
 50
3.00000000000163
 51
84.41264954953859
  0
ARC
  5
391
330
1F
100
AcDbEntity
  8
1
  6
Continuous
 62
     3
100
AcDbCircle
 10
-50.31539326043674
 20
20.60000000001204
 30
0.0
 40
0.3000000000000718
100
AcDbArc
 50
269.9999999999661
 51
358.9999999999789
  0
ARC
  5
392
330
1F
100
AcDbEntity
  8
1
  6
Continuous
 62
     3
100
AcDbCircle
 10
-74.92521618876776
 20
39.80000000001213
 30
0.0
 40
0.4999999999999761
100
AcDbArc
 50
53.07400241827686
 51
90.0
  0
ARC
  5
393
330
1F
100
AcDbEntity
  8
1
  6
Continuous
 62
     3
100
AcDbCircle
 10
-70.65082286592656
 20
38.30000000001185
 30
0.0
 40
1.0
100
AcDbArc
 50
90.0
 51
177.7755866396689
  0
ARC
  5
394
330
1F
100
AcDbEntity
  8
1
  6
Continuous
 62
     3
100
AcDbCircle
 10
-79.97901553506347
 20
39.09446457802893
 30
0.0
 40
1.500000000000078
100
AcDbArc
 50
95.58735045047035
 51
176.9999999999989
  0
ARC
  5
395
330
1F
100
AcDbEntity
  8
1
  6
Continuous
 62
     3
100
AcDbCircle
 10
-80.72577490256742
 20
20.60000000001204
 30
0.0
 40
0.3000000000000285
100
AcDbArc
 50
181.0000000000204
 51
270.0
  0
ARC
  5
396
330
1F
100
AcDbEntity
  8
1
  6
Continuous
 62
     3
100
AcDbCircle
 10
-54.19115375139336
 20
21.24896456672709
 30
0.0
 40
1.000000000000059
100
AcDbArc
 50
273.0000000000054
 51
288.3839189333622
  0
ARC
  5
397
330
1F
100
AcDbEntity
  8
1
  6
Continuous
 62
     3
100
AcDbCircle
 10
-74.67058408150206
 20
14.02996792584869
 30
0.0
 40
0.9999999999999767
100
AcDbArc
 50
343.5054710634259
 51
0.0
  0
ARC
  5
398
330
1F
100
AcDbEntity
  8
1
  6
Continuous
 62
     3
100
AcDbCircle
 10
-57.97058408150201
 20
17.80000000001213
 30
0.0
 40
0.3000000000000682
100
AcDbArc
 50
180.0
 51
270.0
  0
ARC
  5
399
330
1F
100
AcDbEntity
  8
1
  6
Continuous
 62
     3
100
AcDbCircle
 10
-57.67058408150217
 20
17.20000000001217
 30
0.0
 40
0.3000000000000682
100
AcDbArc
 50
0.0
 51
89.9999999999783
  0
ARC
  5
39A
330
1F
100
AcDbEntity
  8
1
  6
Continuous
 62
     3
100
AcDbCircle
 10
-73.07058408150215
 20
17.80000000001213
 30
0.0
 40
0.299999999999951
100
AcDbArc
 50
270.0
 51
0.0
  0
ARC
  5
39B
330
1F
100
AcDbEntity
  8
1
  6
Continuous
 62
     3
100
AcDbCircle
 10
-73.37058408150199
 20
17.20000000001217
 30
0.0
 40
0.3000000000000078
100
AcDbArc
 50
90.0
 51
180.0
  0
ARC
  5
39C
330
1F
100
AcDbEntity
  8
1
  6
DASHED
 62
     3
100
AcDbCircle
 10
-54.19115375139336
 20
21.24896456672709
 30
0.0
 40
1.000000000000059
100
AcDbArc
 50
273.0000000000054
 51
288.3839189333622
  0
ARC
  5
39D
330
1F
100
AcDbEntity
  8
1
  6
Continuous
 62
     3
100
AcDbCircle
 10
24.47949482174685
 20
28.3576610723625
 30
0.0
 40
0.4999999999999167
100
AcDbArc
 50
285.0000000000105
 51
3.00000000000538
  0
ARC
  5
39E
330
1F
100
AcDbEntity
  8
1
  6
Continuous
 62
     3
100
AcDbCircle
 10
-24.4794948217711
 20
28.3576610723625
 30
0.0
 40
0.5000000000000222
100
AcDbArc
 50
176.9999999999945
 51
254.9999999999895
  0
ENDSEC
  0
SECTION
  2
OBJECTS
  0
DICTIONARY
  5
C
330
0
100
AcDbDictionary
281
     1
  3
ACAD_GROUP
350
D
  3
ACAD_LAYOUT
350
1A
  3
ACAD_MATERIAL
350
43
  3
ACAD_MLEADERSTYLE
350
3A1
  3
ACAD_MLINESTYLE
350
17
  3
ACAD_PLOTSETTINGS
350
19
  3
ACAD_PLOTSTYLENAME
350
E
  3
ACAD_SCALELIST
350
47
  3
ACAD_VISUALSTYLE
350
2A
  3
AcDbVariableDictionary
350
39F
  0
DICTIONARY
  5
D
102
{ACAD_REACTORS
330
C
102
}
330
C
100
AcDbDictionary
281
     1
  0
DICTIONARY
  5
1A
102
{ACAD_REACTORS
330
C
102
}
330
C
100
AcDbDictionary
281
     1
  3
Layout1
350
1E
  3
Layout2
350
26
  3
Model
350
22
  0
DICTIONARY
  5
43
102
{ACAD_REACTORS
330
C
102
}
330
C
100
AcDbDictionary
281
     1
  3
ByBlock
350
45
  3
ByLayer
350
44
  3
Global
350
46
  0
DICTIONARY
  5
3A1
102
{ACAD_REACTORS
330
C
102
}
330
C
100
AcDbDictionary
281
     1
  0
DICTIONARY
  5
17
102
{ACAD_REACTORS
330
C
102
}
330
C
100
AcDbDictionary
281
     1
  3
Standard
350
18
  0
DICTIONARY
  5
19
102
{ACAD_REACTORS
330
C
102
}
330
C
100
AcDbDictionary
281
     1
  0
ACDBDICTIONARYWDFLT
  5
E
102
{ACAD_REACTORS
330
C
102
}
330
C
100
AcDbDictionary
281
     1
  3
Normal
350
F
100
AcDbDictionaryWithDefault
340
F
  0
DICTIONARY
  5
47
102
{ACAD_REACTORS
330
C
102
}
330
C
100
AcDbDictionary
281
     1
  3
A0
350
48
  3
A1
350
49
  3
A2
350
4A
  3
A3
350
4B
  3
A4
350
4C
  3
A5
350
4D
  3
A6
350
4E
  3
A7
350
4F
  3
A8
350
50
  3
A9
350
51
  3
B0
350
52
  3
B1
350
53
  3
B2
350
54
  3
B3
350
55
  3
B4
350
56
  3
B5
350
57
  3
B6
350
58
  3
B7
350
59
  3
B8
350
5A
  3
B9
350
5B
  3
C0
350
5C
  3
C1
350
5D
  3
C2
350
5E
  3
C3
350
5F
  3
C4
350
60
  3
C5
350
61
  3
C6
350
62
  3
C7
350
63
  3
C8
350
64
  3
C9
350
65
  3
D0
350
66
  3
D1
350
67
  3
D2
350
68
  0
DICTIONARY
  5
2A
102
{ACAD_REACTORS
330
C
102
}
330
C
100
AcDbDictionary
281
     1
  3
2dWireframe
350
2F
  3
Basic
350
32
  3
Brighten
350
36
  3
ColorChange
350
3A
  3
Conceptual
350
34
  3
Dim
350
35
  3
EdgeColorOff
350
3D
  3
Facepattern
350
39
  3
Flat
350
2B
  3
FlatWithEdges
350
2C
  3
Gouraud
350
2D
  3
GouraudWithEdges
350
2E
  3
Hidden
350
31
  3
JitterOff
350
3B
  3
Linepattern
350
38
  3
OverhangOff
350
3C
  3
Realistic
350
33
  3
Shaded
350
42
  3
Shaded with edges
350
41
  3
Shades of Gray
350
3E
  3
Sketchy
350
3F
  3
Thicken
350
37
  3
Wireframe
350
30
  3
X-Ray
350
40
  0
DICTIONARY
  5
39F
102
{ACAD_REACTORS
330
C
102
}
330
C
100
AcDbDictionary
281
     1
  3
CANNOSCALE
350
3A6
  3
DIMASSOC
350
3A4
  3
HIDETEXT
350
3A5
  3
MSLTSCALE
350
3A7
  0
LAYOUT
  5
1E
102
{ACAD_REACTORS
330
1A
102
}
330
1A
100
AcDbPlotSettings
  1

  2
none_device
  4

  6

 40
0.0
 41
0.0
 42
0.0
 43
0.0
 44
0.0
 45
0.0
 46
0.0
 47
0.0
 48
0.0
 49
0.0
140
0.0
141
0.0
142
1.0
143
1.0
 70
   688
 72
     0
 73
     0
 74
     5
  7

 75
    16
147
1.0
148
0.0
149
0.0
100
AcDbLayout
  1
Layout1
 70
     1
 71
     1
 10
0.0
 20
0.0
 11
12.0
 21
9.0
 12
0.0
 22
0.0
 32
0.0
 14
1.00000000000000E+20
 24
1.00000000000000E+20
 34
1.00000000000000E+20
 15
-1.00000000000000E+20
 25
-1.00000000000000E+20
 35
-1.00000000000000E+20
146
0.0
 13
0.0
 23
0.0
 33
0.0
 16
1.0
 26
0.0
 36
0.0
 17
0.0
 27
1.0
 37
0.0
 76
     0
330
1B
  0
LAYOUT
  5
26
102
{ACAD_REACTORS
330
1A
102
}
330
1A
100
AcDbPlotSettings
  1

  2
none_device
  4

  6

 40
0.0
 41
0.0
 42
0.0
 43
0.0
 44
0.0
 45
0.0
 46
0.0
 47
0.0
 48
0.0
 49
0.0
140
0.0
141
0.0
142
1.0
143
1.0
 70
   688
 72
     0
 73
     0
 74
     5
  7

 75
    16
147
1.0
148
0.0
149
0.0
100
AcDbLayout
  1
Layout2
 70
     1
 71
     2
 10
0.0
 20
0.0
 11
0.0
 21
0.0
 12
0.0
 22
0.0
 32
0.0
 14
0.0
 24
0.0
 34
0.0
 15
0.0
 25
0.0
 35
0.0
146
0.0
 13
0.0
 23
0.0
 33
0.0
 16
1.0
 26
0.0
 36
0.0
 17
0.0
 27
1.0
 37
0.0
 76
     0
330
23
  0
LAYOUT
  5
22
102
{ACAD_REACTORS
330
1A
102
}
330
1A
100
AcDbPlotSettings
  1

  2
none_device
  4
Letter_(8.50_x_11.00_Inches)
  6

 40
6.35
 41
6.35
 42
6.35000508
 43
6.35000508
 44
215.9
 45
279.4
 46
0.0
 47
0.0
 48
0.0
 49
0.0
140
0.0
141
0.0
142
1.0
143
1.0
 70
  1712
 72
     0
 73
     0
 74
     0
  7

 75
     0
147
1.0
148
0.0
149
0.0
100
AcDbLayout
  1
Model
 70
     1
 71
     0
 10
0.0
 20
0.0
 11
12.0
 21
9.0
 12
0.0
 22
0.0
 32
0.0
 14
-112.1834761896707
 24
-26.6712448228163
 34
0.0
 15
33.26377673165564
 25
124.6788590874255
 35
0.0
146
0.0
 13
0.0
 23
0.0
 33
0.0
 16
1.0
 26
0.0
 36
0.0
 17
0.0
 27
1.0
 37
0.0
 76
     0
330
1F
331
29
  0
MATERIAL
  5
45
102
{ACAD_REACTORS
330
43
102
}
102
{ACAD_XDICTIONARY
360
3DA
102
}
330
43
100
AcDbMaterial
  1
ByBlock
  0
MATERIAL
  5
44
102
{ACAD_REACTORS
330
43
102
}
102
{ACAD_XDICTIONARY
360
3D8
102
}
330
43
100
AcDbMaterial
  1
ByLayer
  0
MATERIAL
  5
46
102
{ACAD_REACTORS
330
43
102
}
102
{ACAD_XDICTIONARY
360
3DC
102
}
330
43
100
AcDbMaterial
  1
Global
  0
MLINESTYLE
  5
18
102
{ACAD_REACTORS
330
17
102
}
330
17
100
AcDbMlineStyle
  2
Standard
 70
     0
  3

 62
   256
 51
90.0
 52
90.0
 71
     2
 49
0.5
 62
   256
  6
BYLAYER
 49
-0.5
 62
   256
  6
BYLAYER
  0
ACDBPLACEHOLDER
  5
F
102
{ACAD_REACTORS
330
E
102
}
330
E
  0
SCALE
  5
48
102
{ACAD_REACTORS
330
47
102
}
330
47
100
AcDbScale
 70
     0
300
1:1
140
1.0
141
1.0
290
     1
  0
SCALE
  5
49
102
{ACAD_REACTORS
330
47
102
}
330
47
100
AcDbScale
 70
     0
300
1:2
140
1.0
141
2.0
290
     0
  0
SCALE
  5
4A
102
{ACAD_REACTORS
330
47
102
}
330
47
100
AcDbScale
 70
     0
300
1:4
140
1.0
141
4.0
290
     0
  0
SCALE
  5
4B
102
{ACAD_REACTORS
330
47
102
}
330
47
100
AcDbScale
 70
     0
300
1:5
140
1.0
141
5.0
290
     0
  0
SCALE
  5
4C
102
{ACAD_REACTORS
330
47
102
}
330
47
100
AcDbScale
 70
     0
300
1:8
140
1.0
141
8.0
290
     0
  0
SCALE
  5
4D
102
{ACAD_REACTORS
330
47
102
}
330
47
100
AcDbScale
 70
     0
300
1:10
140
1.0
141
10.0
290
     0
  0
SCALE
  5
4E
102
{ACAD_REACTORS
330
47
102
}
330
47
100
AcDbScale
 70
     0
300
1:16
140
1.0
141
16.0
290
     0
  0
SCALE
  5
4F
102
{ACAD_REACTORS
330
47
102
}
330
47
100
AcDbScale
 70
     0
300
1:20
140
1.0
141
20.0
290
     0
  0
SCALE
  5
50
102
{ACAD_REACTORS
330
47
102
}
330
47
100
AcDbScale
 70
     0
300
1:30
140
1.0
141
30.0
290
     0
  0
SCALE
  5
51
102
{ACAD_REACTORS
330
47
102
}
330
47
100
AcDbScale
 70
     0
300
1:40
140
1.0
141
40.0
290
     0
  0
SCALE
  5
52
102
{ACAD_REACTORS
330
47
102
}
330
47
100
AcDbScale
 70
     0
300
1:50
140
1.0
141
50.0
290
     0
  0
SCALE
  5
53
102
{ACAD_REACTORS
330
47
102
}
330
47
100
AcDbScale
 70
     0
300
1:100
140
1.0
141
100.0
290
     0
  0
SCALE
  5
54
102
{ACAD_REACTORS
330
47
102
}
330
47
100
AcDbScale
 70
     0
300
2:1
140
2.0
141
1.0
290
     0
  0
SCALE
  5
55
102
{ACAD_REACTORS
330
47
102
}
330
47
100
AcDbScale
 70
     0
300
4:1
140
4.0
141
1.0
290
     0
  0
SCALE
  5
56
102
{ACAD_REACTORS
330
47
102
}
330
47
100
AcDbScale
 70
     0
300
8:1
140
8.0
141
1.0
290
     0
  0
SCALE
  5
57
102
{ACAD_REACTORS
330
47
102
}
330
47
100
AcDbScale
 70
     0
300
10:1
140
10.0
141
1.0
290
     0
  0
SCALE
  5
58
102
{ACAD_REACTORS
330
47
102
}
330
47
100
AcDbScale
 70
     0
300
100:1
140
100.0
141
1.0
290
     0
  0
SCALE
  5
59
102
{ACAD_REACTORS
330
47
102
}
330
47
100
AcDbScale
 70
     0
300
1/128" = 1'-0"
140
0.0078125
141
12.0
290
     0
  0
SCALE
  5
5A
102
{ACAD_REACTORS
330
47
102
}
330
47
100
AcDbScale
 70
     0
300
1/64" = 1'-0"
140
0.015625
141
12.0
290
     0
  0
SCALE
  5
5B
102
{ACAD_REACTORS
330
47
102
}
330
47
100
AcDbScale
 70
     0
300
1/32" = 1'-0"
140
0.03125
141
12.0
290
     0
  0
SCALE
  5
5C
102
{ACAD_REACTORS
330
47
102
}
330
47
100
AcDbScale
 70
     0
300
1/16" = 1'-0"
140
0.0625
141
12.0
290
     0
  0
SCALE
  5
5D
102
{ACAD_REACTORS
330
47
102
}
330
47
100
AcDbScale
 70
     0
300
3/32" = 1'-0"
140
0.09375
141
12.0
290
     0
  0
SCALE
  5
5E
102
{ACAD_REACTORS
330
47
102
}
330
47
100
AcDbScale
 70
     0
300
1/8" = 1'-0"
140
0.125
141
12.0
290
     0
  0
SCALE
  5
5F
102
{ACAD_REACTORS
330
47
102
}
330
47
100
AcDbScale
 70
     0
300
3/16" = 1'-0"
140
0.1875
141
12.0
290
     0
  0
SCALE
  5
60
102
{ACAD_REACTORS
330
47
102
}
330
47
100
AcDbScale
 70
     0
300
1/4" = 1'-0"
140
0.25
141
12.0
290
     0
  0
SCALE
  5
61
102
{ACAD_REACTORS
330
47
102
}
330
47
100
AcDbScale
 70
     0
300
3/8" = 1'-0"
140
0.375
141
12.0
290
     0
  0
SCALE
  5
62
102
{ACAD_REACTORS
330
47
102
}
330
47
100
AcDbScale
 70
     0
300
1/2" = 1'-0"
140
0.5
141
12.0
290
     0
  0
SCALE
  5
63
102
{ACAD_REACTORS
330
47
102
}
330
47
100
AcDbScale
 70
     0
300
3/4" = 1'-0"
140
0.75
141
12.0
290
     0
  0
SCALE
  5
64
102
{ACAD_REACTORS
330
47
102
}
330
47
100
AcDbScale
 70
     0
300
1" = 1'-0"
140
1.0
141
12.0
290
     0
  0
SCALE
  5
65
102
{ACAD_REACTORS
330
47
102
}
330
47
100
AcDbScale
 70
     0
300
1-1/2" = 1'-0"
140
1.5
141
12.0
290
     0
  0
SCALE
  5
66
102
{ACAD_REACTORS
330
47
102
}
330
47
100
AcDbScale
 70
     0
300
3" = 1'-0"
140
3.0
141
12.0
290
     0
  0
SCALE
  5
67
102
{ACAD_REACTORS
330
47
102
}
330
47
100
AcDbScale
 70
     0
300
6" = 1'-0"
140
6.0
141
12.0
290
     0
  0
SCALE
  5
68
102
{ACAD_REACTORS
330
47
102
}
330
47
100
AcDbScale
 70
     0
300
1'-0" = 1'-0"
140
12.0
141
12.0
290
     0
  0
VISUALSTYLE
  5
2F
102
{ACAD_REACTORS
330
2A
102
}
102
{ACAD_XDICTIONARY
360
3B0
102
}
330
2A
100
AcDbVisualStyle
  2
2dWireframe
 70
     4
 71
     0
 72
     2
 73
     0
 90
        0
 40
0.6
 41
30.0
 62
     5
 63
     7
 74
     1
 91
        4
 64
     7
 65
   257
 75
     1
175
     1
 42
1.0
 92
        0
 66
   257
 43
1.0
 76
     1
 77
     6
 78
     2
 67
     7
 79
     5
170
     0
171
     0
290
     0
174
     0
 93
        1
 44
0.0
173
     0
291
     0
 45
0.0
1001
ACAD
1000
AcDbSavedByObjectVersion
1070
     0
  0
VISUALSTYLE
  5
32
102
{ACAD_REACTORS
330
2A
102
}
102
{ACAD_XDICTIONARY
360
3B6
102
}
330
2A
100
AcDbVisualStyle
  2
Basic
 70
     7
 71
     1
 72
     0
 73
     1
 90
        0
 40
0.6
 41
30.0
 62
     5
 63
     7
 74
     0
 91
        4
 64
     7
 65
   257
 75
     1
175
     1
 42
1.0
 92
        8
 66
     7
 43
1.0
 76
     1
 77
     6
 78
     2
 67
     7
 79
     5
170
     0
171
     0
290
     0
174
     0
 93
        1
 44
0.0
173
     0
291
     1
 45
0.0
1001
ACAD
1000
AcDbSavedByObjectVersion
1070
     0
  0
VISUALSTYLE
  5
36
102
{ACAD_REACTORS
330
2A
102
}
102
{ACAD_XDICTIONARY
360
3BE
102
}
330
2A
100
AcDbVisualStyle
  2
Brighten
 70
    12
 71
     2
 72
     2
 73
     0
 90
        0
 40
0.6
 41
30.0
 62
     5
 63
     7
 74
     1
 91
        4
 64
     7
 65
   257
 75
     1
175
     1
 42
1.0
 92
        8
 66
     7
 43
1.0
 76
     1
 77
     6
 78
     2
 67
     7
 79
     5
170
     0
171
     0
290
     0
174
     0
 93
        1
 44
50.0
173
     0
291
     1
 45
0.0
1001
ACAD
1000
AcDbSavedByObjectVersion
1070
     0
  0
VISUALSTYLE
  5
3A
102
{ACAD_REACTORS
330
2A
102
}
102
{ACAD_XDICTIONARY
360
3C6
102
}
330
2A
100
AcDbVisualStyle
  2
ColorChange
 70
    16
 71
     2
 72
     2
 73
     3
 90
        0
 40
0.6
 41
30.0
 62
     5
 63
     8
 74
     1
 91
        4
 64
     7
 65
   257
 75
     1
175
     1
 42
1.0
 92
        8
 66
     8
 43
1.0
 76
     1
 77
     6
 78
     2
 67
     7
 79
     5
170
     0
171
     0
290
     0
174
     0
 93
        1
 44
0.0
173
     0
291
     1
 45
0.0
1001
ACAD
1000
AcDbSavedByObjectVersion
1070
     0
  0
VISUALSTYLE
  5
34
102
{ACAD_REACTORS
330
2A
102
}
102
{ACAD_XDICTIONARY
360
3BA
102
}
330
2A
100
AcDbVisualStyle
  2
Conceptual
 70
     9
 71
     3
 72
     2
 73
     0
 90
        0
 40
0.6
 41
30.0
 62
     5
 63
     7
 74
     2
 91
        2
 64
     7
 65
   257
 75
     1
175
     1
 42
179.0
 92
        8
 66
     7
 43
1.0
 76
     1
 77
     6
 78
     2
 67
     7
 79
     3
170
     0
171
     0
290
     0
174
     0
 93
        1
 44
0.0
173
     0
291
     0
 45
0.0
1001
ACAD
1000
AcDbSavedByObjectVersion
1070
     0
  0
VISUALSTYLE
  5
35
102
{ACAD_REACTORS
330
2A
102
}
102
{ACAD_XDICTIONARY
360
3BC
102
}
330
2A
100
AcDbVisualStyle
  2
Dim
 70
    11
 71
     2
 72
     2
 73
     0
 90
        0
 40
0.6
 41
30.0
 62
     5
 63
     7
 74
     1
 91
        4
 64
     7
 65
   257
 75
     1
175
     1
 42
1.0
 92
        8
 66
     7
 43
1.0
 76
     1
 77
     6
 78
     2
 67
     7
 79
     5
170
     0
171
     0
290
     0
174
     0
 93
        1
 44
-50.0
173
     0
291
     1
 45
0.0
1001
ACAD
1000
AcDbSavedByObjectVersion
1070
     0
  0
VISUALSTYLE
  5
3D
102
{ACAD_REACTORS
330
2A
102
}
102
{ACAD_XDICTIONARY
360
3CC
102
}
330
2A
100
AcDbVisualStyle
  2
EdgeColorOff
 70
    22
 71
     2
 72
     2
 73
     0
 90
        0
 40
0.6
 41
30.0
 62
     5
 63
     7
 74
     1
 91
        4
 64
     7
 65
   257
 75
     1
175
     1
 42
1.0
 92
        8
 66
     7
 43
1.0
 76
     1
 77
     6
 78
     2
 67
     7
 79
     5
170
     0
171
     0
290
     0
174
     0
 93
        1
 44
0.0
173
     0
291
     1
 45
0.0
1001
ACAD
1000
AcDbSavedByObjectVersion
1070
     0
  0
VISUALSTYLE
  5
39
102
{ACAD_REACTORS
330
2A
102
}
102
{ACAD_XDICTIONARY
360
3C4
102
}
330
2A
100
AcDbVisualStyle
  2
Facepattern
 70
    15
 71
     2
 72
     2
 73
     0
 90
        0
 40
0.6
 41
30.0
 62
     5
 63
     7
 74
     1
 91
        4
 64
     7
 65
   257
 75
     1
175
     1
 42
1.0
 92
        8
 66
     7
 43
1.0
 76
     1
 77
     6
 78
     2
 67
     7
 79
     5
170
     0
171
     0
290
     0
174
     0
 93
        1
 44
0.0
173
     0
291
     1
 45
0.0
1001
ACAD
1000
AcDbSavedByObjectVersion
1070
     0
  0
VISUALSTYLE
  5
2B
102
{ACAD_REACTORS
330
2A
102
}
102
{ACAD_XDICTIONARY
360
3A8
102
}
330
2A
100
AcDbVisualStyle
  2
Flat
 70
     0
 71
     2
 72
     1
 73
     1
 90
        2
 40
0.6
 41
30.0
 62
     5
 63
     7
 74
     0
 91
        0
 64
     7
 65
   257
 75
     1
175
     1
 42
1.0
 92
        8
 66
     7
 43
1.0
 76
     1
 77
     6
 78
     2
 67
     7
 79
     5
170
     0
171
     0
290
     0
174
     0
 93
       13
 44
0.0
173
     0
291
     1
 45
0.0
1001
ACAD
1000
AcDbSavedByObjectVersion
1070
     0
  0
VISUALSTYLE
  5
2C
102
{ACAD_REACTORS
330
2A
102
}
102
{ACAD_XDICTIONARY
360
3AA
102
}
330
2A
100
AcDbVisualStyle
  2
FlatWithEdges
 70
     1
 71
     2
 72
     1
 73
     1
 90
        2
 40
0.6
 41
30.0
 62
     5
 63
     7
 74
     1
 91
        0
 64
     7
 65
   257
 75
     1
175
     1
 42
1.0
 92
        0
 66
   257
 43
1.0
 76
     1
 77
     6
 78
     2
 67
     7
 79
     5
170
     0
171
     0
290
     0
174
     0
 93
       13
 44
0.0
173
     0
291
     1
 45
0.0
1001
ACAD
1000
AcDbSavedByObjectVersion
1070
     0
  0
VISUALSTYLE
  5
2D
102
{ACAD_REACTORS
330
2A
102
}
102
{ACAD_XDICTIONARY
360
3AC
102
}
330
2A
100
AcDbVisualStyle
  2
Gouraud
 70
     2
 71
     2
 72
     2
 73
     1
 90
        2
 40
0.6
 41
30.0
 62
     5
 63
     7
 74
     0
 91
        0
 64
     7
 65
   257
 75
     1
175
     1
 42
1.0
 92
        0
 66
     7
 43
1.0
 76
     1
 77
     6
 78
     2
 67
     7
 79
     5
170
     0
171
     0
290
     0
174
     0
 93
       13
 44
0.0
173
     0
291
     1
 45
0.0
1001
ACAD
1000
AcDbSavedByObjectVersion
1070
     0
  0
VISUALSTYLE
  5
2E
102
{ACAD_REACTORS
330
2A
102
}
102
{ACAD_XDICTIONARY
360
3AE
102
}
330
2A
100
AcDbVisualStyle
  2
GouraudWithEdges
 70
     3
 71
     2
 72
     2
 73
     1
 90
        2
 40
0.6
 41
30.0
 62
     5
 63
     7
 74
     1
 91
        0
 64
     7
 65
   257
 75
     1
175
     1
 42
1.0
 92
        0
 66
   257
 43
1.0
 76
     1
 77
     6
 78
     2
 67
     7
 79
     5
170
     0
171
     0
290
     0
174
     0
 93
       13
 44
0.0
173
     0
291
     1
 45
0.0
1001
ACAD
1000
AcDbSavedByObjectVersion
1070
     0
  0
VISUALSTYLE
  5
31
102
{ACAD_REACTORS
330
2A
102
}
102
{ACAD_XDICTIONARY
360
3B4
102
}
330
2A
100
AcDbVisualStyle
  2
Hidden
 70
     6
 71
     1
 72
     2
 73
     2
 90
        0
 40
0.6
 41
30.0
 62
     5
 63
     7
 74
     2
 91
        2
 64
     7
 65
   257
 75
     2
175
     1
 42
40.0
 92
        0
 66
   257
 43
1.0
 76
     1
 77
     6
 78
     2
 67
     7
 79
     3
170
     0
171
     0
290
     0
174
     0
 93
        1
 44
0.0
173
     0
291
     0
 45
0.0
1001
ACAD
1000
AcDbSavedByObjectVersion
1070
     0
  0
VISUALSTYLE
  5
3B
102
{ACAD_REACTORS
330
2A
102
}
102
{ACAD_XDICTIONARY
360
3C8
102
}
330
2A
100
AcDbVisualStyle
  2
JitterOff
 70
    20
 71
     2
 72
     2
 73
     0
 90
        0
 40
0.6
 41
30.0
 62
     5
 63
     7
 74
     1
 91
        4
 64
     7
 65
   257
 75
     1
175
     1
 42
1.0
 92
       10
 66
     7
 43
1.0
 76
     1
 77
     6
 78
     2
 67
     7
 79
     5
170
     0
171
     0
290
     0
174
     0
 93
        1
 44
0.0
173
     0
291
     1
 45
0.0
1001
ACAD
1000
AcDbSavedByObjectVersion
1070
     0
  0
VISUALSTYLE
  5
38
102
{ACAD_REACTORS
330
2A
102
}
102
{ACAD_XDICTIONARY
360
3C2
102
}
330
2A
100
AcDbVisualStyle
  2
Linepattern
 70
    14
 71
     2
 72
     2
 73
     0
 90
        0
 40
0.6
 41
30.0
 62
     5
 63
     7
 74
     1
 91
        4
 64
     7
 65
   257
 75
     7
175
     7
 42
1.0
 92
        8
 66
     7
 43
1.0
 76
     1
 77
     6
 78
     2
 67
     7
 79
     5
170
     0
171
     0
290
     0
174
     0
 93
        1
 44
0.0
173
     0
291
     1
 45
0.0
1001
ACAD
1000
AcDbSavedByObjectVersion
1070
     0
  0
VISUALSTYLE
  5
3C
102
{ACAD_REACTORS
330
2A
102
}
102
{ACAD_XDICTIONARY
360
3CA
102
}
330
2A
100
AcDbVisualStyle
  2
OverhangOff
 70
    21
 71
     2
 72
     2
 73
     0
 90
        0
 40
0.6
 41
30.0
 62
     5
 63
     7
 74
     1
 91
        4
 64
     7
 65
   257
 75
     1
175
     1
 42
1.0
 92
        9
 66
     7
 43
1.0
 76
     1
 77
     6
 78
     2
 67
     7
 79
     5
170
     0
171
     0
290
     0
174
     0
 93
        1
 44
0.0
173
     0
291
     1
 45
0.0
1001
ACAD
1000
AcDbSavedByObjectVersion
1070
     0
  0
VISUALSTYLE
  5
33
102
{ACAD_REACTORS
330
2A
102
}
102
{ACAD_XDICTIONARY
360
3B8
102
}
330
2A
100
AcDbVisualStyle
  2
Realistic
 70
     8
 71
     2
 72
     3
 73
     0
 90
        2
 40
0.6
 41
30.0
 62
     5
 63
     7
 74
     0
 91
        0
 64
     7
 65
   257
 75
     1
175
     1
 42
1.0
 92
        8
 66
   257
 43
1.0
 76
     1
 77
     6
 78
     2
 67
     7
 79
     3
170
     0
171
     0
290
     0
174
     0
 93
       13
 44
0.0
173
     0
291
     0
 45
0.0
1001
ACAD
1000
AcDbSavedByObjectVersion
1070
     0
  0
VISUALSTYLE
  5
42
102
{ACAD_REACTORS
330
2A
102
}
102
{ACAD_XDICTIONARY
360
3D6
102
}
330
2A
100
AcDbVisualStyle
  2
Shaded
 70
    27
 71
     2
 72
     2
 73
     1
 90
        2
 40
0.6
 41
30.0
 62
     5
 63
     7
 74
     0
 91
        4
 64
     7
 65
   257
 75
     1
175
     1
 42
1.0
 92
        8
 66
   257
 43
1.0
 76
     1
 77
     6
 78
     2
 67
     8
 79
     3
170
     0
171
     0
290
     0
174
     0
 93
        5
 44
0.0
173
     0
291
     0
 45
0.0
1001
ACAD
1000
AcDbSavedByObjectVersion
1070
     0
  0
VISUALSTYLE
  5
41
102
{ACAD_REACTORS
330
2A
102
}
102
{ACAD_XDICTIONARY
360
3D4
102
}
330
2A
100
AcDbVisualStyle
  2
Shaded with edges
 70
    26
 71
     2
 72
     2
 73
     1
 90
        2
 40
0.6
 41
30.0
 62
     5
 63
     7
 74
     1
 91
       10
 64
     7
 65
   257
 75
     2
175
     1
 42
1.0
 92
        8
 66
   257
 43
1.0
 76
     1
 77
     6
 78
     2
 67
     7
 79
     3
170
     0
171
     0
290
     0
174
     0
 93
        5
 44
0.0
173
     0
291
     0
 45
0.0
1001
ACAD
1000
AcDbSavedByObjectVersion
1070
     0
  0
VISUALSTYLE
  5
3E
102
{ACAD_REACTORS
330
2A
102
}
102
{ACAD_XDICTIONARY
360
3CE
102
}
330
2A
100
AcDbVisualStyle
  2
Shades of Gray
 70
    23
 71
     2
 72
     2
 73
     3
 90
        0
 40
0.6
 41
30.0
 62
     5
 63
     7
 74
     2
 91
        2
 64
     7
 65
     7
 75
     1
175
     1
 42
40.0
 92
        8
 66
     7
 43
1.0
 76
     1
 77
     6
 78
     2
 67
     7
 79
     3
170
     0
171
     0
290
     0
174
     0
 93
        1
 44
0.0
173
     0
291
     0
 45
0.0
1001
ACAD
1000
AcDbSavedByObjectVersion
1070
     0
  0
VISUALSTYLE
  5
3F
102
{ACAD_REACTORS
330
2A
102
}
102
{ACAD_XDICTIONARY
360
3D0
102
}
330
2A
100
AcDbVisualStyle
  2
Sketchy
 70
    24
 71
     1
 72
     2
 73
     2
 90
        0
 40
0.6
 41
30.0
 62
     5
 63
     7
 74
     2
 91
        2
 64
     7
 65
     7
 75
     1
175
     1
 42
40.0
 92
       11
 66
     7
 43
1.0
 76
     1
 77
     6
 78
     2
 67
     7
 79
     6
170
     0
171
     0
290
     0
174
     0
 93
        1
 44
0.0
173
     0
291
     0
 45
0.0
1001
ACAD
1000
AcDbSavedByObjectVersion
1070
     0
  0
VISUALSTYLE
  5
37
102
{ACAD_REACTORS
330
2A
102
}
102
{ACAD_XDICTIONARY
360
3C0
102
}
330
2A
100
AcDbVisualStyle
  2
Thicken
 70
    13
 71
     2
 72
     2
 73
     0
 90
        0
 40
0.6
 41
30.0
 62
     5
 63
     7
 74
     1
 91
        4
 64
     7
 65
   257
 75
     1
175
     1
 42
1.0
 92
       12
 66
     7
 43
1.0
 76
     1
 77
     6
 78
     2
 67
     7
 79
     5
170
     0
171
     0
290
     0
174
     0
 93
        1
 44
0.0
173
     0
291
     1
 45
0.0
1001
ACAD
1000
AcDbSavedByObjectVersion
1070
     0
  0
VISUALSTYLE
  5
30
102
{ACAD_REACTORS
330
2A
102
}
102
{ACAD_XDICTIONARY
360
3B2
102
}
330
2A
100
AcDbVisualStyle
  2
Wireframe
 70
     5
 71
     0
 72
     2
 73
     0
 90
        0
 40
0.6
 41
30.0
 62
     5
 63
     7
 74
     1
 91
        4
 64
     7
 65
   257
 75
     1
175
     1
 42
1.0
 92
        0
 66
   257
 43
1.0
 76
     1
 77
     6
 78
     2
 67
     7
 79
     3
170
     0
171
     0
290
     0
174
     0
 93
        1
 44
0.0
173
     0
291
     0
 45
0.0
1001
ACAD
1000
AcDbSavedByObjectVersion
1070
     0
  0
VISUALSTYLE
  5
40
102
{ACAD_REACTORS
330
2A
102
}
102
{ACAD_XDICTIONARY
360
3D2
102
}
330
2A
100
AcDbVisualStyle
  2
X-Ray
 70
    25
 71
     2
 72
     2
 73
     1
 90
        1
 40
0.5
 41
30.0
 62
     5
 63
     7
 74
     1
 91
        0
 64
     7
 65
   257
 75
     1
175
     1
 42
1.0
 92
        8
 66
     7
 43
1.0
 76
     1
 77
     6
 78
     2
 67
     7
 79
     3
170
     0
171
     0
290
     0
174
     0
 93
       13
 44
0.0
173
     0
291
     0
 45
0.0
1001
ACAD
1000
AcDbSavedByObjectVersion
1070
     0
  0
DICTIONARYVAR
  5
3A6
102
{ACAD_REACTORS
330
39F
102
}
330
39F
100
DictionaryVariables
280
     0
  1
1:1
  0
DICTIONARYVAR
  5
3A4
102
{ACAD_REACTORS
330
39F
102
}
330
39F
100
DictionaryVariables
280
     0
  1
2
  0
DICTIONARYVAR
  5
3A5
102
{ACAD_REACTORS
330
39F
102
}
330
39F
100
DictionaryVariables
280
     0
  1
1
  0
DICTIONARYVAR
  5
3A7
102
{ACAD_REACTORS
330
39F
102
}
330
39F
100
DictionaryVariables
280
     0
  1
1
  0
DICTIONARY
  5
3DA
330
45
100
AcDbDictionary
280
     1
281
     1
  3
ACAD_XREC_ROUNDTRIP
360
3DB
  0
DICTIONARY
  5
3D8
330
44
100
AcDbDictionary
280
     1
281
     1
  3
ACAD_XREC_ROUNDTRIP
360
3D9
  0
DICTIONARY
  5
3DC
330
46
100
AcDbDictionary
280
     1
281
     1
  3
ACAD_XREC_ROUNDTRIP
360
3DD
  0
DICTIONARY
  5
3B0
330
2F
100
AcDbDictionary
280
     1
281
     1
  3
ACAD_XREC_ROUNDTRIP
360
3B1
  0
DICTIONARY
  5
3B6
330
32
100
AcDbDictionary
280
     1
281
     1
  3
ACAD_XREC_ROUNDTRIP
360
3B7
  0
DICTIONARY
  5
3BE
330
36
100
AcDbDictionary
280
     1
281
     1
  3
ACAD_XREC_ROUNDTRIP
360
3BF
  0
DICTIONARY
  5
3C6
330
3A
100
AcDbDictionary
280
     1
281
     1
  3
ACAD_XREC_ROUNDTRIP
360
3C7
  0
DICTIONARY
  5
3BA
330
34
100
AcDbDictionary
280
     1
281
     1
  3
ACAD_XREC_ROUNDTRIP
360
3BB
  0
DICTIONARY
  5
3BC
330
35
100
AcDbDictionary
280
     1
281
     1
  3
ACAD_XREC_ROUNDTRIP
360
3BD
  0
DICTIONARY
  5
3CC
330
3D
100
AcDbDictionary
280
     1
281
     1
  3
ACAD_XREC_ROUNDTRIP
360
3CD
  0
DICTIONARY
  5
3C4
330
39
100
AcDbDictionary
280
     1
281
     1
  3
ACAD_XREC_ROUNDTRIP
360
3C5
  0
DICTIONARY
  5
3A8
330
2B
100
AcDbDictionary
280
     1
281
     1
  3
ACAD_XREC_ROUNDTRIP
360
3A9
  0
DICTIONARY
  5
3AA
330
2C
100
AcDbDictionary
280
     1
281
     1
  3
ACAD_XREC_ROUNDTRIP
360
3AB
  0
DICTIONARY
  5
3AC
330
2D
100
AcDbDictionary
280
     1
281
     1
  3
ACAD_XREC_ROUNDTRIP
360
3AD
  0
DICTIONARY
  5
3AE
330
2E
100
AcDbDictionary
280
     1
281
     1
  3
ACAD_XREC_ROUNDTRIP
360
3AF
  0
DICTIONARY
  5
3B4
330
31
100
AcDbDictionary
280
     1
281
     1
  3
ACAD_XREC_ROUNDTRIP
360
3B5
  0
DICTIONARY
  5
3C8
330
3B
100
AcDbDictionary
280
     1
281
     1
  3
ACAD_XREC_ROUNDTRIP
360
3C9
  0
DICTIONARY
  5
3C2
330
38
100
AcDbDictionary
280
     1
281
     1
  3
ACAD_XREC_ROUNDTRIP
360
3C3
  0
DICTIONARY
  5
3CA
330
3C
100
AcDbDictionary
280
     1
281
     1
  3
ACAD_XREC_ROUNDTRIP
360
3CB
  0
DICTIONARY
  5
3B8
330
33
100
AcDbDictionary
280
     1
281
     1
  3
ACAD_XREC_ROUNDTRIP
360
3B9
  0
DICTIONARY
  5
3D6
330
42
100
AcDbDictionary
280
     1
281
     1
  3
ACAD_XREC_ROUNDTRIP
360
3D7
  0
DICTIONARY
  5
3D4
330
41
100
AcDbDictionary
280
     1
281
     1
  3
ACAD_XREC_ROUNDTRIP
360
3D5
  0
DICTIONARY
  5
3CE
330
3E
100
AcDbDictionary
280
     1
281
     1
  3
ACAD_XREC_ROUNDTRIP
360
3CF
  0
DICTIONARY
  5
3D0
330
3F
100
AcDbDictionary
280
     1
281
     1
  3
ACAD_XREC_ROUNDTRIP
360
3D1
  0
DICTIONARY
  5
3C0
330
37
100
AcDbDictionary
280
     1
281
     1
  3
ACAD_XREC_ROUNDTRIP
360
3C1
  0
DICTIONARY
  5
3B2
330
30
100
AcDbDictionary
280
     1
281
     1
  3
ACAD_XREC_ROUNDTRIP
360
3B3
  0
DICTIONARY
  5
3D2
330
40
100
AcDbDictionary
280
     1
281
     1
  3
ACAD_XREC_ROUNDTRIP
360
3D3
  0
XRECORD
  5
3DB
102
{ACAD_REACTORS
330
3DA
102
}
330
3DA
100
AcDbXrecord
280
     1
102
MATERIAL
148
0.0
149
0.0
149
0.0
 93
        0
 94
      127
282
     0
 72
     1
 77
     1
171
     1
175
     1
179
     1
273
     0
  0
XRECORD
  5
3D9
102
{ACAD_REACTORS
330
3D8
102
}
330
3D8
100
AcDbXrecord
280
     1
102
MATERIAL
148
0.0
149
0.0
149
0.0
 93
        0
 94
      127
282
     0
 72
     1
 77
     1
171
     1
175
     1
179
     1
273
     0
  0
XRECORD
  5
3DD
102
{ACAD_REACTORS
330
3DC
102
}
330
3DC
100
AcDbXrecord
280
     1
102
MATERIAL
148
0.0
149
0.0
149
0.0
 93
        0
 94
      127
282
     0
 72
     1
 77
     1
171
     1
175
     1
179
     1
273
     0
  0
XRECORD
  5
3B1
102
{ACAD_REACTORS
330
3B0
102
}
330
3B0
100
AcDbXrecord
280
     1
102
RTVSPropertyOp0
 70
     1
102
RTVSPropertyOp1
 70
     1
102
RTVSPropertyOp2
 70
     1
102
RTVSPropertyOp3
 70
     1
102
RTVSPropertyOp4
 70
     1
102
RTVSPropertyOp5
 70
     1
102
RTVSPropertyOp6
 70
     1
102
RTVSPropertyOp7
 70
     1
102
RTVSPropertyOp8
 70
     1
102
RTVSPropertyOp9
 70
     1
102
RTVSPropertyOp10
 70
     1
102
RTVSPropertyOp11
 70
     1
102
RTVSPropertyOp12
 70
     1
102
RTVSPropertyOp13
 70
     1
102
RTVSPropertyOp14
 70
     1
102
RTVSPropertyOp15
 70
     1
102
RTVSPropertyOp16
 70
     1
102
RTVSPropertyOp17
 70
     1
102
RTVSPropertyOp18
 70
     1
102
RTVSPropertyOp19
 70
     1
102
RTVSPropertyOp20
 70
     1
102
RTVSPropertyOp21
 70
     1
102
RTVSPropertyOp22
 70
     1
102
RTVSPropertyOp23
 70
     1
102
RTVSPropertyOp24
 70
     1
102
RTVSPropertyOp25
 70
     1
102
RTVSPropertyOp26
 70
     1
102
RTVSPropertyOp27
 70
     1
102
RTVSPropertyOp28
 70
     1
102
RTVSPropertyOp29
 70
     1
102
RTVSPropertyOp30
 70
     1
102
RTVSPropertyOp31
 70
     1
102
RTVSPropertyOp32
 70
     1
102
RTVSPropertyOp33
 70
     1
102
RTVSPropertyOp34
 70
     1
102
RTVSPropertyOp35
 70
     1
102
RTVSPropertyOp36
 70
     1
102
RTVSPropertyOp37
 70
     1
102
RTVSPropertyOp38
 70
     1
102
RTVSPropertyOp39
 70
     1
102
RTVSPropertyOp40
 70
     1
102
RTVSPropertyOp41
 70
     1
102
RTVSPropertyOp42
 70
     1
102
RTVSPropertyOp43
 70
     1
102
RTVSPropertyOp44
 70
     1
102
RTVSPropertyOp45
 70
     1
102
RTVSPropertyOp46
 70
     1
102
RTVSPropertyOp47
 70
     1
102
RTVSPropertyOp48
 70
     1
102
RTVSPropertyOp49
 70
     1
102
RTVSPropertyOp50
 70
     1
102
RTVSPropertyOp51
 70
     0
102
RTVSPropertyOp52
 70
     0
102
RTVSPropertyOp53
 70
     1
102
RTVSPropertyOp54
 70
     1
102
RTVSPropertyOp55
 70
     1
102
RTVSPropertyOp56
 70
     1
102
RTVSPropertyOp57
 70
     1
102
RTVSPost2010Prop28
280
     1
102
RTVSPost2010PropOp28
 70
     1
102
RTVSPost2010Prop29
280
     1
102
RTVSPost2010PropOp29
 70
     1
102
RTVSPost2010Prop30
280
     0
102
RTVSPost2010PropOp30
 70
     1
102
RTVSPost2010Prop31
280
     0
102
RTVSPost2010PropOp31
 70
     1
102
RTVSPost2010Prop32
280
     0
102
RTVSPost2010PropOp32
 70
     1
102
RTVSPost2010Prop33
280
     0
102
RTVSPost2010PropOp33
 70
     1
102
RTVSPost2010Prop34
280
     0
102
RTVSPost2010PropOp34
 70
     1
102
RTVSPost2010Prop35
280
     0
102
RTVSPost2010PropOp35
 70
     1
102
RTVSPost2010Prop36
280
     0
102
RTVSPost2010PropOp36
 70
     1
102
RTVSPost2010Prop37
 90
       50
102
RTVSPost2010PropOp37
 70
     1
102
RTVSPost2010Prop38
140
0.0
102
RTVSPost2010PropOp38
 70
     1
102
RTVSPost2010Prop39
140
1.0
102
RTVSPost2010PropOp39
 70
     1
102
RTVSPost2010Prop40
 90
        0
102
RTVSPost2010PropOp40
 70
     1
102
RTVSPost2010Prop41ColorIndex
 90
       18
102
RTVSPost2010Prop41ColorRGB
 90
        0
102
RTVSPost2010PropOp41
 70
     1
102
RTVSPost2010Prop42
 90
       50
102
RTVSPost2010PropOp42
 70
     1
102
RTVSPost2010Prop43
 90
        3
102
RTVSPost2010PropOp43
 70
     1
102
RTVSPost2010Prop44ColorIndex
 90
        5
102
RTVSPost2010Prop44ColorRGB
 90
      255
102
RTVSPost2010PropOp44
 70
     1
102
RTVSPost2010Prop45
280
     0
102
RTVSPost2010PropOp45
 70
     1
102
RTVSPost2010Prop46
 90
       50
102
RTVSPost2010PropOp46
 70
     1
102
RTVSPost2010Prop47
 90
       50
102
RTVSPost2010PropOp47
 70
     1
102
RTVSPost2010Prop48
 90
       50
102
RTVSPost2010PropOp48
 70
     1
102
RTVSPost2010Prop49
280
     0
102
RTVSPost2010PropOp49
 70
     1
102
RTVSPost2010Prop50
 90
       50
102
RTVSPost2010PropOp50
 70
     1
102
RTVSPost2010Prop51ColorIndex
 90
      256
102
RTVSPost2010Prop51ColorRGB
 90
-16777216
102
RTVSPost2010PropOp51
 70
     0
102
RTVSPost2010Prop52
140
1.0
102
RTVSPost2010PropOp52
 70
     0
102
RTVSPost2010Prop53
 90
        2
102
RTVSPost2010PropOp53
 70
     1
102
RTVSPost2010Prop54
  1
strokes_ogs.tif
102
RTVSPost2010PropOp54
 70
     1
102
RTVSPost2010Prop55
280
     0
102
RTVSPost2010PropOp55
 70
     1
102
RTVSPost2010Prop56
140
1.0
102
RTVSPost2010PropOp56
 70
     1
102
RTVSPost2010Prop57
140
1.0
102
RTVSPost2010PropOp57
 70
     1
  0
XRECORD
  5
3B7
102
{ACAD_REACTORS
330
3B6
102
}
330
3B6
100
AcDbXrecord
280
     1
102
RTVSPropertyOp0
 70
     1
102
RTVSPropertyOp1
 70
     1
102
RTVSPropertyOp2
 70
     1
102
RTVSPropertyOp3
 70
     1
102
RTVSPropertyOp4
 70
     1
102
RTVSPropertyOp5
 70
     1
102
RTVSPropertyOp6
 70
     1
102
RTVSPropertyOp7
 70
     1
102
RTVSPropertyOp8
 70
     1
102
RTVSPropertyOp9
 70
     1
102
RTVSPropertyOp10
 70
     1
102
RTVSPropertyOp11
 70
     1
102
RTVSPropertyOp12
 70
     1
102
RTVSPropertyOp13
 70
     1
102
RTVSPropertyOp14
 70
     1
102
RTVSPropertyOp15
 70
     1
102
RTVSPropertyOp16
 70
     1
102
RTVSPropertyOp17
 70
     1
102
RTVSPropertyOp18
 70
     1
102
RTVSPropertyOp19
 70
     1
102
RTVSPropertyOp20
 70
     1
102
RTVSPropertyOp21
 70
     1
102
RTVSPropertyOp22
 70
     1
102
RTVSPropertyOp23
 70
     1
102
RTVSPropertyOp24
 70
     1
102
RTVSPropertyOp25
 70
     1
102
RTVSPropertyOp26
 70
     1
102
RTVSPropertyOp27
 70
     1
102
RTVSPropertyOp28
 70
     1
102
RTVSPropertyOp29
 70
     1
102
RTVSPropertyOp30
 70
     1
102
RTVSPropertyOp31
 70
     1
102
RTVSPropertyOp32
 70
     1
102
RTVSPropertyOp33
 70
     1
102
RTVSPropertyOp34
 70
     1
102
RTVSPropertyOp35
 70
     1
102
RTVSPropertyOp36
 70
     1
102
RTVSPropertyOp37
 70
     1
102
RTVSPropertyOp38
 70
     1
102
RTVSPropertyOp39
 70
     1
102
RTVSPropertyOp40
 70
     1
102
RTVSPropertyOp41
 70
     1
102
RTVSPropertyOp42
 70
     1
102
RTVSPropertyOp43
 70
     1
102
RTVSPropertyOp44
 70
     1
102
RTVSPropertyOp45
 70
     1
102
RTVSPropertyOp46
 70
     1
102
RTVSPropertyOp47
 70
     1
102
RTVSPropertyOp48
 70
     1
102
RTVSPropertyOp49
 70
     1
102
RTVSPropertyOp50
 70
     1
102
RTVSPropertyOp51
 70
     0
102
RTVSPropertyOp52
 70
     0
102
RTVSPropertyOp53
 70
     1
102
RTVSPropertyOp54
 70
     1
102
RTVSPropertyOp55
 70
     1
102
RTVSPropertyOp56
 70
     1
102
RTVSPropertyOp57
 70
     1
102
RTVSPost2010Prop28
280
     0
102
RTVSPost2010PropOp28
 70
     1
102
RTVSPost2010Prop29
280
     1
102
RTVSPost2010PropOp29
 70
     1
102
RTVSPost2010Prop30
280
     1
102
RTVSPost2010PropOp30
 70
     1
102
RTVSPost2010Prop31
280
     0
102
RTVSPost2010PropOp31
 70
     1
102
RTVSPost2010Prop32
280
     0
102
RTVSPost2010PropOp32
 70
     1
102
RTVSPost2010Prop33
280
     0
102
RTVSPost2010PropOp33
 70
     1
102
RTVSPost2010Prop34
280
     0
102
RTVSPost2010PropOp34
 70
     1
102
RTVSPost2010Prop35
280
     0
102
RTVSPost2010PropOp35
 70
     1
102
RTVSPost2010Prop36
280
     0
102
RTVSPost2010PropOp36
 70
     1
102
RTVSPost2010Prop37
 90
       50
102
RTVSPost2010PropOp37
 70
     1
102
RTVSPost2010Prop38
140
0.0
102
RTVSPost2010PropOp38
 70
     1
102
RTVSPost2010Prop39
140
1.0
102
RTVSPost2010PropOp39
 70
     1
102
RTVSPost2010Prop40
 90
        0
102
RTVSPost2010PropOp40
 70
     1
102
RTVSPost2010Prop41ColorIndex
 90
       18
102
RTVSPost2010Prop41ColorRGB
 90
        0
102
RTVSPost2010PropOp41
 70
     1
102
RTVSPost2010Prop42
 90
       50
102
RTVSPost2010PropOp42
 70
     1
102
RTVSPost2010Prop43
 90
        3
102
RTVSPost2010PropOp43
 70
     1
102
RTVSPost2010Prop44ColorIndex
 90
        5
102
RTVSPost2010Prop44ColorRGB
 90
      255
102
RTVSPost2010PropOp44
 70
     1
102
RTVSPost2010Prop45
280
     0
102
RTVSPost2010PropOp45
 70
     1
102
RTVSPost2010Prop46
 90
       50
102
RTVSPost2010PropOp46
 70
     1
102
RTVSPost2010Prop47
 90
       50
102
RTVSPost2010PropOp47
 70
     1
102
RTVSPost2010Prop48
 90
       50
102
RTVSPost2010PropOp48
 70
     1
102
RTVSPost2010Prop49
280
     0
102
RTVSPost2010PropOp49
 70
     1
102
RTVSPost2010Prop50
 90
       50
102
RTVSPost2010PropOp50
 70
     1
102
RTVSPost2010Prop51ColorIndex
 90
      256
102
RTVSPost2010Prop51ColorRGB
 90
-16777216
102
RTVSPost2010PropOp51
 70
     0
102
RTVSPost2010Prop52
140
1.0
102
RTVSPost2010PropOp52
 70
     0
102
RTVSPost2010Prop53
 90
        2
102
RTVSPost2010PropOp53
 70
     1
102
RTVSPost2010Prop54
  1
strokes_ogs.tif
102
RTVSPost2010PropOp54
 70
     1
102
RTVSPost2010Prop55
280
     0
102
RTVSPost2010PropOp55
 70
     1
102
RTVSPost2010Prop56
140
1.0
102
RTVSPost2010PropOp56
 70
     1
102
RTVSPost2010Prop57
140
1.0
102
RTVSPost2010PropOp57
 70
     1
  0
XRECORD
  5
3BF
102
{ACAD_REACTORS
330
3BE
102
}
330
3BE
100
AcDbXrecord
280
     1
102
RTVSPropertyOp0
 70
     1
102
RTVSPropertyOp1
 70
     1
102
RTVSPropertyOp2
 70
     1
102
RTVSPropertyOp3
 70
     1
102
RTVSPropertyOp4
 70
     1
102
RTVSPropertyOp5
 70
     1
102
RTVSPropertyOp6
 70
     1
102
RTVSPropertyOp7
 70
     1
102
RTVSPropertyOp8
 70
     1
102
RTVSPropertyOp9
 70
     1
102
RTVSPropertyOp10
 70
     1
102
RTVSPropertyOp11
 70
     1
102
RTVSPropertyOp12
 70
     1
102
RTVSPropertyOp13
 70
     1
102
RTVSPropertyOp14
 70
     1
102
RTVSPropertyOp15
 70
     1
102
RTVSPropertyOp16
 70
     1
102
RTVSPropertyOp17
 70
     1
102
RTVSPropertyOp18
 70
     1
102
RTVSPropertyOp19
 70
     1
102
RTVSPropertyOp20
 70
     1
102
RTVSPropertyOp21
 70
     1
102
RTVSPropertyOp22
 70
     1
102
RTVSPropertyOp23
 70
     1
102
RTVSPropertyOp24
 70
     1
102
RTVSPropertyOp25
 70
     1
102
RTVSPropertyOp26
 70
     1
102
RTVSPropertyOp27
 70
     1
102
RTVSPropertyOp28
 70
     1
102
RTVSPropertyOp29
 70
     1
102
RTVSPropertyOp30
 70
     1
102
RTVSPropertyOp31
 70
     1
102
RTVSPropertyOp32
 70
     1
102
RTVSPropertyOp33
 70
     1
102
RTVSPropertyOp34
 70
     1
102
RTVSPropertyOp35
 70
     1
102
RTVSPropertyOp36
 70
     1
102
RTVSPropertyOp37
 70
     1
102
RTVSPropertyOp38
 70
     1
102
RTVSPropertyOp39
 70
     1
102
RTVSPropertyOp40
 70
     1
102
RTVSPropertyOp41
 70
     1
102
RTVSPropertyOp42
 70
     1
102
RTVSPropertyOp43
 70
     1
102
RTVSPropertyOp44
 70
     1
102
RTVSPropertyOp45
 70
     1
102
RTVSPropertyOp46
 70
     1
102
RTVSPropertyOp47
 70
     1
102
RTVSPropertyOp48
 70
     1
102
RTVSPropertyOp49
 70
     1
102
RTVSPropertyOp50
 70
     1
102
RTVSPropertyOp51
 70
     0
102
RTVSPropertyOp52
 70
     0
102
RTVSPropertyOp53
 70
     1
102
RTVSPropertyOp54
 70
     1
102
RTVSPropertyOp55
 70
     1
102
RTVSPropertyOp56
 70
     1
102
RTVSPropertyOp57
 70
     1
102
RTVSPost2010Prop28
280
     0
102
RTVSPost2010PropOp28
 70
     1
102
RTVSPost2010Prop29
280
     1
102
RTVSPost2010PropOp29
 70
     1
102
RTVSPost2010Prop30
280
     1
102
RTVSPost2010PropOp30
 70
     1
102
RTVSPost2010Prop31
280
     0
102
RTVSPost2010PropOp31
 70
     1
102
RTVSPost2010Prop32
280
     0
102
RTVSPost2010PropOp32
 70
     1
102
RTVSPost2010Prop33
280
     0
102
RTVSPost2010PropOp33
 70
     1
102
RTVSPost2010Prop34
280
     0
102
RTVSPost2010PropOp34
 70
     1
102
RTVSPost2010Prop35
280
     0
102
RTVSPost2010PropOp35
 70
     1
102
RTVSPost2010Prop36
280
     0
102
RTVSPost2010PropOp36
 70
     1
102
RTVSPost2010Prop37
 90
       50
102
RTVSPost2010PropOp37
 70
     1
102
RTVSPost2010Prop38
140
0.0
102
RTVSPost2010PropOp38
 70
     1
102
RTVSPost2010Prop39
140
1.0
102
RTVSPost2010PropOp39
 70
     1
102
RTVSPost2010Prop40
 90
        0
102
RTVSPost2010PropOp40
 70
     1
102
RTVSPost2010Prop41ColorIndex
 90
       18
102
RTVSPost2010Prop41ColorRGB
 90
        0
102
RTVSPost2010PropOp41
 70
     1
102
RTVSPost2010Prop42
 90
       50
102
RTVSPost2010PropOp42
 70
     1
102
RTVSPost2010Prop43
 90
        3
102
RTVSPost2010PropOp43
 70
     1
102
RTVSPost2010Prop44ColorIndex
 90
        5
102
RTVSPost2010Prop44ColorRGB
 90
      255
102
RTVSPost2010PropOp44
 70
     1
102
RTVSPost2010Prop45
280
     0
102
RTVSPost2010PropOp45
 70
     1
102
RTVSPost2010Prop46
 90
       50
102
RTVSPost2010PropOp46
 70
     1
102
RTVSPost2010Prop47
 90
       50
102
RTVSPost2010PropOp47
 70
     1
102
RTVSPost2010Prop48
 90
       50
102
RTVSPost2010PropOp48
 70
     1
102
RTVSPost2010Prop49
280
     0
102
RTVSPost2010PropOp49
 70
     1
102
RTVSPost2010Prop50
 90
       50
102
RTVSPost2010PropOp50
 70
     1
102
RTVSPost2010Prop51ColorIndex
 90
      256
102
RTVSPost2010Prop51ColorRGB
 90
-16777216
102
RTVSPost2010PropOp51
 70
     0
102
RTVSPost2010Prop52
140
1.0
102
RTVSPost2010PropOp52
 70
     0
102
RTVSPost2010Prop53
 90
        2
102
RTVSPost2010PropOp53
 70
     1
102
RTVSPost2010Prop54
  1
strokes_ogs.tif
102
RTVSPost2010PropOp54
 70
     1
102
RTVSPost2010Prop55
280
     0
102
RTVSPost2010PropOp55
 70
     1
102
RTVSPost2010Prop56
140
1.0
102
RTVSPost2010PropOp56
 70
     1
102
RTVSPost2010Prop57
140
1.0
102
RTVSPost2010PropOp57
 70
     1
  0
XRECORD
  5
3C7
102
{ACAD_REACTORS
330
3C6
102
}
330
3C6
100
AcDbXrecord
280
     1
102
RTVSPropertyOp0
 70
     1
102
RTVSPropertyOp1
 70
     1
102
RTVSPropertyOp2
 70
     1
102
RTVSPropertyOp3
 70
     1
102
RTVSPropertyOp4
 70
     1
102
RTVSPropertyOp5
 70
     1
102
RTVSPropertyOp6
 70
     1
102
RTVSPropertyOp7
 70
     1
102
RTVSPropertyOp8
 70
     1
102
RTVSPropertyOp9
 70
     1
102
RTVSPropertyOp10
 70
     1
102
RTVSPropertyOp11
 70
     1
102
RTVSPropertyOp12
 70
     1
102
RTVSPropertyOp13
 70
     1
102
RTVSPropertyOp14
 70
     1
102
RTVSPropertyOp15
 70
     1
102
RTVSPropertyOp16
 70
     1
102
RTVSPropertyOp17
 70
     1
102
RTVSPropertyOp18
 70
     1
102
RTVSPropertyOp19
 70
     1
102
RTVSPropertyOp20
 70
     1
102
RTVSPropertyOp21
 70
     1
102
RTVSPropertyOp22
 70
     1
102
RTVSPropertyOp23
 70
     1
102
RTVSPropertyOp24
 70
     1
102
RTVSPropertyOp25
 70
     1
102
RTVSPropertyOp26
 70
     1
102
RTVSPropertyOp27
 70
     1
102
RTVSPropertyOp28
 70
     1
102
RTVSPropertyOp29
 70
     1
102
RTVSPropertyOp30
 70
     1
102
RTVSPropertyOp31
 70
     1
102
RTVSPropertyOp32
 70
     1
102
RTVSPropertyOp33
 70
     1
102
RTVSPropertyOp34
 70
     1
102
RTVSPropertyOp35
 70
     1
102
RTVSPropertyOp36
 70
     1
102
RTVSPropertyOp37
 70
     1
102
RTVSPropertyOp38
 70
     1
102
RTVSPropertyOp39
 70
     1
102
RTVSPropertyOp40
 70
     1
102
RTVSPropertyOp41
 70
     1
102
RTVSPropertyOp42
 70
     1
102
RTVSPropertyOp43
 70
     1
102
RTVSPropertyOp44
 70
     1
102
RTVSPropertyOp45
 70
     1
102
RTVSPropertyOp46
 70
     1
102
RTVSPropertyOp47
 70
     1
102
RTVSPropertyOp48
 70
     1
102
RTVSPropertyOp49
 70
     1
102
RTVSPropertyOp50
 70
     1
102
RTVSPropertyOp51
 70
     0
102
RTVSPropertyOp52
 70
     0
102
RTVSPropertyOp53
 70
     1
102
RTVSPropertyOp54
 70
     1
102
RTVSPropertyOp55
 70
     1
102
RTVSPropertyOp56
 70
     1
102
RTVSPropertyOp57
 70
     1
102
RTVSPost2010Prop28
280
     0
102
RTVSPost2010PropOp28
 70
     1
102
RTVSPost2010Prop29
280
     1
102
RTVSPost2010PropOp29
 70
     1
102
RTVSPost2010Prop30
280
     1
102
RTVSPost2010PropOp30
 70
     1
102
RTVSPost2010Prop31
280
     0
102
RTVSPost2010PropOp31
 70
     1
102
RTVSPost2010Prop32
280
     0
102
RTVSPost2010PropOp32
 70
     1
102
RTVSPost2010Prop33
280
     0
102
RTVSPost2010PropOp33
 70
     1
102
RTVSPost2010Prop34
280
     0
102
RTVSPost2010PropOp34
 70
     1
102
RTVSPost2010Prop35
280
     0
102
RTVSPost2010PropOp35
 70
     1
102
RTVSPost2010Prop36
280
     0
102
RTVSPost2010PropOp36
 70
     1
102
RTVSPost2010Prop37
 90
       50
102
RTVSPost2010PropOp37
 70
     1
102
RTVSPost2010Prop38
140
0.0
102
RTVSPost2010PropOp38
 70
     1
102
RTVSPost2010Prop39
140
1.0
102
RTVSPost2010PropOp39
 70
     1
102
RTVSPost2010Prop40
 90
        0
102
RTVSPost2010PropOp40
 70
     1
102
RTVSPost2010Prop41ColorIndex
 90
       18
102
RTVSPost2010Prop41ColorRGB
 90
        0
102
RTVSPost2010PropOp41
 70
     1
102
RTVSPost2010Prop42
 90
       50
102
RTVSPost2010PropOp42
 70
     1
102
RTVSPost2010Prop43
 90
        3
102
RTVSPost2010PropOp43
 70
     1
102
RTVSPost2010Prop44ColorIndex
 90
        5
102
RTVSPost2010Prop44ColorRGB
 90
      255
102
RTVSPost2010PropOp44
 70
     1
102
RTVSPost2010Prop45
280
     0
102
RTVSPost2010PropOp45
 70
     1
102
RTVSPost2010Prop46
 90
       50
102
RTVSPost2010PropOp46
 70
     1
102
RTVSPost2010Prop47
 90
       50
102
RTVSPost2010PropOp47
 70
     1
102
RTVSPost2010Prop48
 90
       50
102
RTVSPost2010PropOp48
 70
     1
102
RTVSPost2010Prop49
280
     0
102
RTVSPost2010PropOp49
 70
     1
102
RTVSPost2010Prop50
 90
       50
102
RTVSPost2010PropOp50
 70
     1
102
RTVSPost2010Prop51ColorIndex
 90
      256
102
RTVSPost2010Prop51ColorRGB
 90
-16777216
102
RTVSPost2010PropOp51
 70
     0
102
RTVSPost2010Prop52
140
1.0
102
RTVSPost2010PropOp52
 70
     0
102
RTVSPost2010Prop53
 90
        2
102
RTVSPost2010PropOp53
 70
     1
102
RTVSPost2010Prop54
  1
strokes_ogs.tif
102
RTVSPost2010PropOp54
 70
     1
102
RTVSPost2010Prop55
280
     0
102
RTVSPost2010PropOp55
 70
     1
102
RTVSPost2010Prop56
140
1.0
102
RTVSPost2010PropOp56
 70
     1
102
RTVSPost2010Prop57
140
1.0
102
RTVSPost2010PropOp57
 70
     1
  0
XRECORD
  5
3BB
102
{ACAD_REACTORS
330
3BA
102
}
330
3BA
100
AcDbXrecord
280
     1
102
RTVSPropertyOp0
 70
     1
102
RTVSPropertyOp1
 70
     1
102
RTVSPropertyOp2
 70
     1
102
RTVSPropertyOp3
 70
     1
102
RTVSPropertyOp4
 70
     1
102
RTVSPropertyOp5
 70
     1
102
RTVSPropertyOp6
 70
     1
102
RTVSPropertyOp7
 70
     1
102
RTVSPropertyOp8
 70
     1
102
RTVSPropertyOp9
 70
     1
102
RTVSPropertyOp10
 70
     1
102
RTVSPropertyOp11
 70
     1
102
RTVSPropertyOp12
 70
     1
102
RTVSPropertyOp13
 70
     1
102
RTVSPropertyOp14
 70
     1
102
RTVSPropertyOp15
 70
     1
102
RTVSPropertyOp16
 70
     1
102
RTVSPropertyOp17
 70
     1
102
RTVSPropertyOp18
 70
     1
102
RTVSPropertyOp19
 70
     1
102
RTVSPropertyOp20
 70
     1
102
RTVSPropertyOp21
 70
     1
102
RTVSPropertyOp22
 70
     1
102
RTVSPropertyOp23
 70
     1
102
RTVSPropertyOp24
 70
     1
102
RTVSPropertyOp25
 70
     1
102
RTVSPropertyOp26
 70
     1
102
RTVSPropertyOp27
 70
     1
102
RTVSPropertyOp28
 70
     1
102
RTVSPropertyOp29
 70
     1
102
RTVSPropertyOp30
 70
     1
102
RTVSPropertyOp31
 70
     1
102
RTVSPropertyOp32
 70
     1
102
RTVSPropertyOp33
 70
     1
102
RTVSPropertyOp34
 70
     1
102
RTVSPropertyOp35
 70
     1
102
RTVSPropertyOp36
 70
     1
102
RTVSPropertyOp37
 70
     1
102
RTVSPropertyOp38
 70
     1
102
RTVSPropertyOp39
 70
     1
102
RTVSPropertyOp40
 70
     1
102
RTVSPropertyOp41
 70
     1
102
RTVSPropertyOp42
 70
     1
102
RTVSPropertyOp43
 70
     1
102
RTVSPropertyOp44
 70
     1
102
RTVSPropertyOp45
 70
     1
102
RTVSPropertyOp46
 70
     1
102
RTVSPropertyOp47
 70
     1
102
RTVSPropertyOp48
 70
     1
102
RTVSPropertyOp49
 70
     1
102
RTVSPropertyOp50
 70
     1
102
RTVSPropertyOp51
 70
     0
102
RTVSPropertyOp52
 70
     0
102
RTVSPropertyOp53
 70
     1
102
RTVSPropertyOp54
 70
     1
102
RTVSPropertyOp55
 70
     1
102
RTVSPropertyOp56
 70
     1
102
RTVSPropertyOp57
 70
     1
102
RTVSPost2010Prop28
280
     0
102
RTVSPost2010PropOp28
 70
     1
102
RTVSPost2010Prop29
280
     1
102
RTVSPost2010PropOp29
 70
     1
102
RTVSPost2010Prop30
280
     1
102
RTVSPost2010PropOp30
 70
     1
102
RTVSPost2010Prop31
280
     0
102
RTVSPost2010PropOp31
 70
     1
102
RTVSPost2010Prop32
280
     0
102
RTVSPost2010PropOp32
 70
     1
102
RTVSPost2010Prop33
280
     0
102
RTVSPost2010PropOp33
 70
     1
102
RTVSPost2010Prop34
280
     0
102
RTVSPost2010PropOp34
 70
     1
102
RTVSPost2010Prop35
280
     0
102
RTVSPost2010PropOp35
 70
     1
102
RTVSPost2010Prop36
280
     0
102
RTVSPost2010PropOp36
 70
     1
102
RTVSPost2010Prop37
 90
       50
102
RTVSPost2010PropOp37
 70
     1
102
RTVSPost2010Prop38
140
0.0
102
RTVSPost2010PropOp38
 70
     1
102
RTVSPost2010Prop39
140
1.0
102
RTVSPost2010PropOp39
 70
     1
102
RTVSPost2010Prop40
 90
        0
102
RTVSPost2010PropOp40
 70
     1
102
RTVSPost2010Prop41ColorIndex
 90
       18
102
RTVSPost2010Prop41ColorRGB
 90
        0
102
RTVSPost2010PropOp41
 70
     1
102
RTVSPost2010Prop42
 90
       50
102
RTVSPost2010PropOp42
 70
     1
102
RTVSPost2010Prop43
 90
        3
102
RTVSPost2010PropOp43
 70
     1
102
RTVSPost2010Prop44ColorIndex
 90
        5
102
RTVSPost2010Prop44ColorRGB
 90
      255
102
RTVSPost2010PropOp44
 70
     1
102
RTVSPost2010Prop45
280
     0
102
RTVSPost2010PropOp45
 70
     1
102
RTVSPost2010Prop46
 90
       50
102
RTVSPost2010PropOp46
 70
     1
102
RTVSPost2010Prop47
 90
       50
102
RTVSPost2010PropOp47
 70
     1
102
RTVSPost2010Prop48
 90
       50
102
RTVSPost2010PropOp48
 70
     1
102
RTVSPost2010Prop49
280
     0
102
RTVSPost2010PropOp49
 70
     1
102
RTVSPost2010Prop50
 90
       50
102
RTVSPost2010PropOp50
 70
     1
102
RTVSPost2010Prop51ColorIndex
 90
      256
102
RTVSPost2010Prop51ColorRGB
 90
-16777216
102
RTVSPost2010PropOp51
 70
     0
102
RTVSPost2010Prop52
140
1.0
102
RTVSPost2010PropOp52
 70
     0
102
RTVSPost2010Prop53
 90
        2
102
RTVSPost2010PropOp53
 70
     1
102
RTVSPost2010Prop54
  1
strokes_ogs.tif
102
RTVSPost2010PropOp54
 70
     1
102
RTVSPost2010Prop55
280
     0
102
RTVSPost2010PropOp55
 70
     1
102
RTVSPost2010Prop56
140
1.0
102
RTVSPost2010PropOp56
 70
     1
102
RTVSPost2010Prop57
140
1.0
102
RTVSPost2010PropOp57
 70
     1
  0
XRECORD
  5
3BD
102
{ACAD_REACTORS
330
3BC
102
}
330
3BC
100
AcDbXrecord
280
     1
102
RTVSPropertyOp0
 70
     1
102
RTVSPropertyOp1
 70
     1
102
RTVSPropertyOp2
 70
     1
102
RTVSPropertyOp3
 70
     1
102
RTVSPropertyOp4
 70
     1
102
RTVSPropertyOp5
 70
     1
102
RTVSPropertyOp6
 70
     1
102
RTVSPropertyOp7
 70
     1
102
RTVSPropertyOp8
 70
     1
102
RTVSPropertyOp9
 70
     1
102
RTVSPropertyOp10
 70
     1
102
RTVSPropertyOp11
 70
     1
102
RTVSPropertyOp12
 70
     1
102
RTVSPropertyOp13
 70
     1
102
RTVSPropertyOp14
 70
     1
102
RTVSPropertyOp15
 70
     1
102
RTVSPropertyOp16
 70
     1
102
RTVSPropertyOp17
 70
     1
102
RTVSPropertyOp18
 70
     1
102
RTVSPropertyOp19
 70
     1
102
RTVSPropertyOp20
 70
     1
102
RTVSPropertyOp21
 70
     1
102
RTVSPropertyOp22
 70
     1
102
RTVSPropertyOp23
 70
     1
102
RTVSPropertyOp24
 70
     1
102
RTVSPropertyOp25
 70
     1
102
RTVSPropertyOp26
 70
     1
102
RTVSPropertyOp27
 70
     1
102
RTVSPropertyOp28
 70
     1
102
RTVSPropertyOp29
 70
     1
102
RTVSPropertyOp30
 70
     1
102
RTVSPropertyOp31
 70
     1
102
RTVSPropertyOp32
 70
     1
102
RTVSPropertyOp33
 70
     1
102
RTVSPropertyOp34
 70
     1
102
RTVSPropertyOp35
 70
     1
102
RTVSPropertyOp36
 70
     1
102
RTVSPropertyOp37
 70
     1
102
RTVSPropertyOp38
 70
     1
102
RTVSPropertyOp39
 70
     1
102
RTVSPropertyOp40
 70
     1
102
RTVSPropertyOp41
 70
     1
102
RTVSPropertyOp42
 70
     1
102
RTVSPropertyOp43
 70
     1
102
RTVSPropertyOp44
 70
     1
102
RTVSPropertyOp45
 70
     1
102
RTVSPropertyOp46
 70
     1
102
RTVSPropertyOp47
 70
     1
102
RTVSPropertyOp48
 70
     1
102
RTVSPropertyOp49
 70
     1
102
RTVSPropertyOp50
 70
     1
102
RTVSPropertyOp51
 70
     0
102
RTVSPropertyOp52
 70
     0
102
RTVSPropertyOp53
 70
     1
102
RTVSPropertyOp54
 70
     1
102
RTVSPropertyOp55
 70
     1
102
RTVSPropertyOp56
 70
     1
102
RTVSPropertyOp57
 70
     1
102
RTVSPost2010Prop28
280
     0
102
RTVSPost2010PropOp28
 70
     1
102
RTVSPost2010Prop29
280
     1
102
RTVSPost2010PropOp29
 70
     1
102
RTVSPost2010Prop30
280
     1
102
RTVSPost2010PropOp30
 70
     1
102
RTVSPost2010Prop31
280
     0
102
RTVSPost2010PropOp31
 70
     1
102
RTVSPost2010Prop32
280
     0
102
RTVSPost2010PropOp32
 70
     1
102
RTVSPost2010Prop33
280
     0
102
RTVSPost2010PropOp33
 70
     1
102
RTVSPost2010Prop34
280
     0
102
RTVSPost2010PropOp34
 70
     1
102
RTVSPost2010Prop35
280
     0
102
RTVSPost2010PropOp35
 70
     1
102
RTVSPost2010Prop36
280
     0
102
RTVSPost2010PropOp36
 70
     1
102
RTVSPost2010Prop37
 90
       50
102
RTVSPost2010PropOp37
 70
     1
102
RTVSPost2010Prop38
140
0.0
102
RTVSPost2010PropOp38
 70
     1
102
RTVSPost2010Prop39
140
1.0
102
RTVSPost2010PropOp39
 70
     1
102
RTVSPost2010Prop40
 90
        0
102
RTVSPost2010PropOp40
 70
     1
102
RTVSPost2010Prop41ColorIndex
 90
       18
102
RTVSPost2010Prop41ColorRGB
 90
        0
102
RTVSPost2010PropOp41
 70
     1
102
RTVSPost2010Prop42
 90
       50
102
RTVSPost2010PropOp42
 70
     1
102
RTVSPost2010Prop43
 90
        3
102
RTVSPost2010PropOp43
 70
     1
102
RTVSPost2010Prop44ColorIndex
 90
        5
102
RTVSPost2010Prop44ColorRGB
 90
      255
102
RTVSPost2010PropOp44
 70
     1
102
RTVSPost2010Prop45
280
     0
102
RTVSPost2010PropOp45
 70
     1
102
RTVSPost2010Prop46
 90
       50
102
RTVSPost2010PropOp46
 70
     1
102
RTVSPost2010Prop47
 90
       50
102
RTVSPost2010PropOp47
 70
     1
102
RTVSPost2010Prop48
 90
       50
102
RTVSPost2010PropOp48
 70
     1
102
RTVSPost2010Prop49
280
     0
102
RTVSPost2010PropOp49
 70
     1
102
RTVSPost2010Prop50
 90
       50
102
RTVSPost2010PropOp50
 70
     1
102
RTVSPost2010Prop51ColorIndex
 90
      256
102
RTVSPost2010Prop51ColorRGB
 90
-16777216
102
RTVSPost2010PropOp51
 70
     0
102
RTVSPost2010Prop52
140
1.0
102
RTVSPost2010PropOp52
 70
     0
102
RTVSPost2010Prop53
 90
        2
102
RTVSPost2010PropOp53
 70
     1
102
RTVSPost2010Prop54
  1
strokes_ogs.tif
102
RTVSPost2010PropOp54
 70
     1
102
RTVSPost2010Prop55
280
     0
102
RTVSPost2010PropOp55
 70
     1
102
RTVSPost2010Prop56
140
1.0
102
RTVSPost2010PropOp56
 70
     1
102
RTVSPost2010Prop57
140
1.0
102
RTVSPost2010PropOp57
 70
     1
  0
XRECORD
  5
3CD
102
{ACAD_REACTORS
330
3CC
102
}
330
3CC
100
AcDbXrecord
280
     1
102
RTVSPropertyOp0
 70
     0
102
RTVSPropertyOp1
 70
     0
102
RTVSPropertyOp2
 70
     0
102
RTVSPropertyOp3
 70
     0
102
RTVSPropertyOp4
 70
     0
102
RTVSPropertyOp5
 70
     0
102
RTVSPropertyOp6
 70
     0
102
RTVSPropertyOp7
 70
     0
102
RTVSPropertyOp8
 70
     0
102
RTVSPropertyOp9
 70
     0
102
RTVSPropertyOp10
 70
     0
102
RTVSPropertyOp11
 70
     0
102
RTVSPropertyOp12
 70
     0
102
RTVSPropertyOp13
 70
     0
102
RTVSPropertyOp14
 70
     2
102
RTVSPropertyOp15
 70
     0
102
RTVSPropertyOp16
 70
     0
102
RTVSPropertyOp17
 70
     0
102
RTVSPropertyOp18
 70
     0
102
RTVSPropertyOp19
 70
     0
102
RTVSPropertyOp20
 70
     0
102
RTVSPropertyOp21
 70
     0
102
RTVSPropertyOp22
 70
     0
102
RTVSPropertyOp23
 70
     0
102
RTVSPropertyOp24
 70
     0
102
RTVSPropertyOp25
 70
     0
102
RTVSPropertyOp26
 70
     0
102
RTVSPropertyOp27
 70
     0
102
RTVSPropertyOp28
 70
     0
102
RTVSPropertyOp29
 70
     0
102
RTVSPropertyOp30
 70
     0
102
RTVSPropertyOp31
 70
     0
102
RTVSPropertyOp32
 70
     0
102
RTVSPropertyOp33
 70
     0
102
RTVSPropertyOp34
 70
     0
102
RTVSPropertyOp35
 70
     0
102
RTVSPropertyOp36
 70
     0
102
RTVSPropertyOp37
 70
     0
102
RTVSPropertyOp38
 70
     0
102
RTVSPropertyOp39
 70
     0
102
RTVSPropertyOp40
 70
     0
102
RTVSPropertyOp41
 70
     0
102
RTVSPropertyOp42
 70
     0
102
RTVSPropertyOp43
 70
     0
102
RTVSPropertyOp44
 70
     0
102
RTVSPropertyOp45
 70
     0
102
RTVSPropertyOp46
 70
     0
102
RTVSPropertyOp47
 70
     0
102
RTVSPropertyOp48
 70
     0
102
RTVSPropertyOp49
 70
     0
102
RTVSPropertyOp50
 70
     0
102
RTVSPropertyOp51
 70
     0
102
RTVSPropertyOp52
 70
     0
102
RTVSPropertyOp53
 70
     0
102
RTVSPropertyOp54
 70
     0
102
RTVSPropertyOp55
 70
     0
102
RTVSPropertyOp56
 70
     0
102
RTVSPropertyOp57
 70
     0
102
RTVSPost2010Prop28
280
     0
102
RTVSPost2010PropOp28
 70
     0
102
RTVSPost2010Prop29
280
     1
102
RTVSPost2010PropOp29
 70
     0
102
RTVSPost2010Prop30
280
     1
102
RTVSPost2010PropOp30
 70
     0
102
RTVSPost2010Prop31
280
     0
102
RTVSPost2010PropOp31
 70
     0
102
RTVSPost2010Prop32
280
     0
102
RTVSPost2010PropOp32
 70
     0
102
RTVSPost2010Prop33
280
     0
102
RTVSPost2010PropOp33
 70
     0
102
RTVSPost2010Prop34
280
     0
102
RTVSPost2010PropOp34
 70
     0
102
RTVSPost2010Prop35
280
     0
102
RTVSPost2010PropOp35
 70
     0
102
RTVSPost2010Prop36
280
     0
102
RTVSPost2010PropOp36
 70
     0
102
RTVSPost2010Prop37
 90
       50
102
RTVSPost2010PropOp37
 70
     0
102
RTVSPost2010Prop38
140
0.0
102
RTVSPost2010PropOp38
 70
     0
102
RTVSPost2010Prop39
140
1.0
102
RTVSPost2010PropOp39
 70
     0
102
RTVSPost2010Prop40
 90
        0
102
RTVSPost2010PropOp40
 70
     0
102
RTVSPost2010Prop41ColorIndex
 90
       18
102
RTVSPost2010Prop41ColorRGB
 90
        0
102
RTVSPost2010PropOp41
 70
     0
102
RTVSPost2010Prop42
 90
       50
102
RTVSPost2010PropOp42
 70
     0
102
RTVSPost2010Prop43
 90
        3
102
RTVSPost2010PropOp43
 70
     0
102
RTVSPost2010Prop44ColorIndex
 90
        5
102
RTVSPost2010Prop44ColorRGB
 90
      255
102
RTVSPost2010PropOp44
 70
     0
102
RTVSPost2010Prop45
280
     0
102
RTVSPost2010PropOp45
 70
     0
102
RTVSPost2010Prop46
 90
       50
102
RTVSPost2010PropOp46
 70
     0
102
RTVSPost2010Prop47
 90
       50
102
RTVSPost2010PropOp47
 70
     0
102
RTVSPost2010Prop48
 90
       50
102
RTVSPost2010PropOp48
 70
     0
102
RTVSPost2010Prop49
280
     0
102
RTVSPost2010PropOp49
 70
     0
102
RTVSPost2010Prop50
 90
       50
102
RTVSPost2010PropOp50
 70
     0
102
RTVSPost2010Prop51ColorIndex
 90
      256
102
RTVSPost2010Prop51ColorRGB
 90
-16777216
102
RTVSPost2010PropOp51
 70
     0
102
RTVSPost2010Prop52
140
1.0
102
RTVSPost2010PropOp52
 70
     0
102
RTVSPost2010Prop53
 90
        2
102
RTVSPost2010PropOp53
 70
     0
102
RTVSPost2010Prop54
  1
strokes_ogs.tif
102
RTVSPost2010PropOp54
 70
     0
102
RTVSPost2010Prop55
280
     0
102
RTVSPost2010PropOp55
 70
     0
102
RTVSPost2010Prop56
140
1.0
102
RTVSPost2010PropOp56
 70
     0
102
RTVSPost2010Prop57
140
1.0
102
RTVSPost2010PropOp57
 70
     0
  0
XRECORD
  5
3C5
102
{ACAD_REACTORS
330
3C4
102
}
330
3C4
100
AcDbXrecord
280
     1
102
RTVSPropertyOp0
 70
     1
102
RTVSPropertyOp1
 70
     1
102
RTVSPropertyOp2
 70
     1
102
RTVSPropertyOp3
 70
     1
102
RTVSPropertyOp4
 70
     1
102
RTVSPropertyOp5
 70
     1
102
RTVSPropertyOp6
 70
     1
102
RTVSPropertyOp7
 70
     1
102
RTVSPropertyOp8
 70
     1
102
RTVSPropertyOp9
 70
     1
102
RTVSPropertyOp10
 70
     1
102
RTVSPropertyOp11
 70
     1
102
RTVSPropertyOp12
 70
     1
102
RTVSPropertyOp13
 70
     1
102
RTVSPropertyOp14
 70
     1
102
RTVSPropertyOp15
 70
     1
102
RTVSPropertyOp16
 70
     1
102
RTVSPropertyOp17
 70
     1
102
RTVSPropertyOp18
 70
     1
102
RTVSPropertyOp19
 70
     1
102
RTVSPropertyOp20
 70
     1
102
RTVSPropertyOp21
 70
     1
102
RTVSPropertyOp22
 70
     1
102
RTVSPropertyOp23
 70
     1
102
RTVSPropertyOp24
 70
     1
102
RTVSPropertyOp25
 70
     1
102
RTVSPropertyOp26
 70
     1
102
RTVSPropertyOp27
 70
     1
102
RTVSPropertyOp28
 70
     1
102
RTVSPropertyOp29
 70
     1
102
RTVSPropertyOp30
 70
     1
102
RTVSPropertyOp31
 70
     1
102
RTVSPropertyOp32
 70
     1
102
RTVSPropertyOp33
 70
     1
102
RTVSPropertyOp34
 70
     1
102
RTVSPropertyOp35
 70
     1
102
RTVSPropertyOp36
 70
     1
102
RTVSPropertyOp37
 70
     1
102
RTVSPropertyOp38
 70
     1
102
RTVSPropertyOp39
 70
     1
102
RTVSPropertyOp40
 70
     1
102
RTVSPropertyOp41
 70
     1
102
RTVSPropertyOp42
 70
     1
102
RTVSPropertyOp43
 70
     1
102
RTVSPropertyOp44
 70
     1
102
RTVSPropertyOp45
 70
     1
102
RTVSPropertyOp46
 70
     1
102
RTVSPropertyOp47
 70
     1
102
RTVSPropertyOp48
 70
     1
102
RTVSPropertyOp49
 70
     1
102
RTVSPropertyOp50
 70
     1
102
RTVSPropertyOp51
 70
     0
102
RTVSPropertyOp52
 70
     0
102
RTVSPropertyOp53
 70
     1
102
RTVSPropertyOp54
 70
     1
102
RTVSPropertyOp55
 70
     1
102
RTVSPropertyOp56
 70
     1
102
RTVSPropertyOp57
 70
     1
102
RTVSPost2010Prop28
280
     0
102
RTVSPost2010PropOp28
 70
     1
102
RTVSPost2010Prop29
280
     1
102
RTVSPost2010PropOp29
 70
     1
102
RTVSPost2010Prop30
280
     1
102
RTVSPost2010PropOp30
 70
     1
102
RTVSPost2010Prop31
280
     0
102
RTVSPost2010PropOp31
 70
     1
102
RTVSPost2010Prop32
280
     0
102
RTVSPost2010PropOp32
 70
     1
102
RTVSPost2010Prop33
280
     0
102
RTVSPost2010PropOp33
 70
     1
102
RTVSPost2010Prop34
280
     0
102
RTVSPost2010PropOp34
 70
     1
102
RTVSPost2010Prop35
280
     0
102
RTVSPost2010PropOp35
 70
     1
102
RTVSPost2010Prop36
280
     0
102
RTVSPost2010PropOp36
 70
     1
102
RTVSPost2010Prop37
 90
       50
102
RTVSPost2010PropOp37
 70
     1
102
RTVSPost2010Prop38
140
0.0
102
RTVSPost2010PropOp38
 70
     1
102
RTVSPost2010Prop39
140
1.0
102
RTVSPost2010PropOp39
 70
     1
102
RTVSPost2010Prop40
 90
        0
102
RTVSPost2010PropOp40
 70
     1
102
RTVSPost2010Prop41ColorIndex
 90
       18
102
RTVSPost2010Prop41ColorRGB
 90
        0
102
RTVSPost2010PropOp41
 70
     1
102
RTVSPost2010Prop42
 90
       50
102
RTVSPost2010PropOp42
 70
     1
102
RTVSPost2010Prop43
 90
        3
102
RTVSPost2010PropOp43
 70
     1
102
RTVSPost2010Prop44ColorIndex
 90
        5
102
RTVSPost2010Prop44ColorRGB
 90
      255
102
RTVSPost2010PropOp44
 70
     1
102
RTVSPost2010Prop45
280
     0
102
RTVSPost2010PropOp45
 70
     1
102
RTVSPost2010Prop46
 90
       50
102
RTVSPost2010PropOp46
 70
     1
102
RTVSPost2010Prop47
 90
       50
102
RTVSPost2010PropOp47
 70
     1
102
RTVSPost2010Prop48
 90
       50
102
RTVSPost2010PropOp48
 70
     1
102
RTVSPost2010Prop49
280
     0
102
RTVSPost2010PropOp49
 70
     1
102
RTVSPost2010Prop50
 90
       50
102
RTVSPost2010PropOp50
 70
     1
102
RTVSPost2010Prop51ColorIndex
 90
      256
102
RTVSPost2010Prop51ColorRGB
 90
-16777216
102
RTVSPost2010PropOp51
 70
     0
102
RTVSPost2010Prop52
140
1.0
102
RTVSPost2010PropOp52
 70
     0
102
RTVSPost2010Prop53
 90
        2
102
RTVSPost2010PropOp53
 70
     1
102
RTVSPost2010Prop54
  1
strokes_ogs.tif
102
RTVSPost2010PropOp54
 70
     1
102
RTVSPost2010Prop55
280
     0
102
RTVSPost2010PropOp55
 70
     1
102
RTVSPost2010Prop56
140
1.0
102
RTVSPost2010PropOp56
 70
     1
102
RTVSPost2010Prop57
140
1.0
102
RTVSPost2010PropOp57
 70
     1
  0
XRECORD
  5
3A9
102
{ACAD_REACTORS
330
3A8
102
}
330
3A8
100
AcDbXrecord
280
     1
102
RTVSPropertyOp0
 70
     1
102
RTVSPropertyOp1
 70
     1
102
RTVSPropertyOp2
 70
     1
102
RTVSPropertyOp3
 70
     1
102
RTVSPropertyOp4
 70
     1
102
RTVSPropertyOp5
 70
     1
102
RTVSPropertyOp6
 70
     1
102
RTVSPropertyOp7
 70
     1
102
RTVSPropertyOp8
 70
     1
102
RTVSPropertyOp9
 70
     1
102
RTVSPropertyOp10
 70
     1
102
RTVSPropertyOp11
 70
     1
102
RTVSPropertyOp12
 70
     1
102
RTVSPropertyOp13
 70
     1
102
RTVSPropertyOp14
 70
     1
102
RTVSPropertyOp15
 70
     1
102
RTVSPropertyOp16
 70
     1
102
RTVSPropertyOp17
 70
     1
102
RTVSPropertyOp18
 70
     1
102
RTVSPropertyOp19
 70
     1
102
RTVSPropertyOp20
 70
     1
102
RTVSPropertyOp21
 70
     1
102
RTVSPropertyOp22
 70
     1
102
RTVSPropertyOp23
 70
     1
102
RTVSPropertyOp24
 70
     1
102
RTVSPropertyOp25
 70
     1
102
RTVSPropertyOp26
 70
     1
102
RTVSPropertyOp27
 70
     1
102
RTVSPropertyOp28
 70
     1
102
RTVSPropertyOp29
 70
     1
102
RTVSPropertyOp30
 70
     1
102
RTVSPropertyOp31
 70
     1
102
RTVSPropertyOp32
 70
     1
102
RTVSPropertyOp33
 70
     1
102
RTVSPropertyOp34
 70
     1
102
RTVSPropertyOp35
 70
     1
102
RTVSPropertyOp36
 70
     1
102
RTVSPropertyOp37
 70
     1
102
RTVSPropertyOp38
 70
     1
102
RTVSPropertyOp39
 70
     1
102
RTVSPropertyOp40
 70
     1
102
RTVSPropertyOp41
 70
     1
102
RTVSPropertyOp42
 70
     1
102
RTVSPropertyOp43
 70
     1
102
RTVSPropertyOp44
 70
     1
102
RTVSPropertyOp45
 70
     1
102
RTVSPropertyOp46
 70
     1
102
RTVSPropertyOp47
 70
     1
102
RTVSPropertyOp48
 70
     1
102
RTVSPropertyOp49
 70
     1
102
RTVSPropertyOp50
 70
     1
102
RTVSPropertyOp51
 70
     0
102
RTVSPropertyOp52
 70
     0
102
RTVSPropertyOp53
 70
     1
102
RTVSPropertyOp54
 70
     1
102
RTVSPropertyOp55
 70
     1
102
RTVSPropertyOp56
 70
     1
102
RTVSPropertyOp57
 70
     1
102
RTVSPost2010Prop28
280
     0
102
RTVSPost2010PropOp28
 70
     1
102
RTVSPost2010Prop29
280
     1
102
RTVSPost2010PropOp29
 70
     1
102
RTVSPost2010Prop30
280
     1
102
RTVSPost2010PropOp30
 70
     1
102
RTVSPost2010Prop31
280
     0
102
RTVSPost2010PropOp31
 70
     1
102
RTVSPost2010Prop32
280
     0
102
RTVSPost2010PropOp32
 70
     1
102
RTVSPost2010Prop33
280
     0
102
RTVSPost2010PropOp33
 70
     1
102
RTVSPost2010Prop34
280
     0
102
RTVSPost2010PropOp34
 70
     1
102
RTVSPost2010Prop35
280
     0
102
RTVSPost2010PropOp35
 70
     1
102
RTVSPost2010Prop36
280
     0
102
RTVSPost2010PropOp36
 70
     1
102
RTVSPost2010Prop37
 90
       50
102
RTVSPost2010PropOp37
 70
     1
102
RTVSPost2010Prop38
140
0.0
102
RTVSPost2010PropOp38
 70
     1
102
RTVSPost2010Prop39
140
1.0
102
RTVSPost2010PropOp39
 70
     1
102
RTVSPost2010Prop40
 90
        0
102
RTVSPost2010PropOp40
 70
     1
102
RTVSPost2010Prop41ColorIndex
 90
       18
102
RTVSPost2010Prop41ColorRGB
 90
        0
102
RTVSPost2010PropOp41
 70
     1
102
RTVSPost2010Prop42
 90
       50
102
RTVSPost2010PropOp42
 70
     1
102
RTVSPost2010Prop43
 90
        3
102
RTVSPost2010PropOp43
 70
     1
102
RTVSPost2010Prop44ColorIndex
 90
        5
102
RTVSPost2010Prop44ColorRGB
 90
      255
102
RTVSPost2010PropOp44
 70
     1
102
RTVSPost2010Prop45
280
     0
102
RTVSPost2010PropOp45
 70
     1
102
RTVSPost2010Prop46
 90
       50
102
RTVSPost2010PropOp46
 70
     1
102
RTVSPost2010Prop47
 90
       50
102
RTVSPost2010PropOp47
 70
     1
102
RTVSPost2010Prop48
 90
       50
102
RTVSPost2010PropOp48
 70
     1
102
RTVSPost2010Prop49
280
     0
102
RTVSPost2010PropOp49
 70
     1
102
RTVSPost2010Prop50
 90
       50
102
RTVSPost2010PropOp50
 70
     1
102
RTVSPost2010Prop51ColorIndex
 90
      256
102
RTVSPost2010Prop51ColorRGB
 90
-16777216
102
RTVSPost2010PropOp51
 70
     0
102
RTVSPost2010Prop52
140
1.0
102
RTVSPost2010PropOp52
 70
     0
102
RTVSPost2010Prop53
 90
        2
102
RTVSPost2010PropOp53
 70
     1
102
RTVSPost2010Prop54
  1
strokes_ogs.tif
102
RTVSPost2010PropOp54
 70
     1
102
RTVSPost2010Prop55
280
     0
102
RTVSPost2010PropOp55
 70
     1
102
RTVSPost2010Prop56
140
1.0
102
RTVSPost2010PropOp56
 70
     1
102
RTVSPost2010Prop57
140
1.0
102
RTVSPost2010PropOp57
 70
     1
  0
XRECORD
  5
3AB
102
{ACAD_REACTORS
330
3AA
102
}
330
3AA
100
AcDbXrecord
280
     1
102
RTVSPropertyOp0
 70
     1
102
RTVSPropertyOp1
 70
     1
102
RTVSPropertyOp2
 70
     1
102
RTVSPropertyOp3
 70
     1
102
RTVSPropertyOp4
 70
     1
102
RTVSPropertyOp5
 70
     1
102
RTVSPropertyOp6
 70
     1
102
RTVSPropertyOp7
 70
     1
102
RTVSPropertyOp8
 70
     1
102
RTVSPropertyOp9
 70
     1
102
RTVSPropertyOp10
 70
     1
102
RTVSPropertyOp11
 70
     1
102
RTVSPropertyOp12
 70
     1
102
RTVSPropertyOp13
 70
     1
102
RTVSPropertyOp14
 70
     1
102
RTVSPropertyOp15
 70
     1
102
RTVSPropertyOp16
 70
     1
102
RTVSPropertyOp17
 70
     1
102
RTVSPropertyOp18
 70
     1
102
RTVSPropertyOp19
 70
     1
102
RTVSPropertyOp20
 70
     1
102
RTVSPropertyOp21
 70
     1
102
RTVSPropertyOp22
 70
     1
102
RTVSPropertyOp23
 70
     1
102
RTVSPropertyOp24
 70
     1
102
RTVSPropertyOp25
 70
     1
102
RTVSPropertyOp26
 70
     1
102
RTVSPropertyOp27
 70
     1
102
RTVSPropertyOp28
 70
     1
102
RTVSPropertyOp29
 70
     1
102
RTVSPropertyOp30
 70
     1
102
RTVSPropertyOp31
 70
     1
102
RTVSPropertyOp32
 70
     1
102
RTVSPropertyOp33
 70
     1
102
RTVSPropertyOp34
 70
     1
102
RTVSPropertyOp35
 70
     1
102
RTVSPropertyOp36
 70
     1
102
RTVSPropertyOp37
 70
     1
102
RTVSPropertyOp38
 70
     1
102
RTVSPropertyOp39
 70
     1
102
RTVSPropertyOp40
 70
     1
102
RTVSPropertyOp41
 70
     1
102
RTVSPropertyOp42
 70
     1
102
RTVSPropertyOp43
 70
     1
102
RTVSPropertyOp44
 70
     1
102
RTVSPropertyOp45
 70
     1
102
RTVSPropertyOp46
 70
     1
102
RTVSPropertyOp47
 70
     1
102
RTVSPropertyOp48
 70
     1
102
RTVSPropertyOp49
 70
     1
102
RTVSPropertyOp50
 70
     1
102
RTVSPropertyOp51
 70
     0
102
RTVSPropertyOp52
 70
     0
102
RTVSPropertyOp53
 70
     1
102
RTVSPropertyOp54
 70
     1
102
RTVSPropertyOp55
 70
     1
102
RTVSPropertyOp56
 70
     1
102
RTVSPropertyOp57
 70
     1
102
RTVSPost2010Prop28
280
     0
102
RTVSPost2010PropOp28
 70
     1
102
RTVSPost2010Prop29
280
     1
102
RTVSPost2010PropOp29
 70
     1
102
RTVSPost2010Prop30
280
     1
102
RTVSPost2010PropOp30
 70
     1
102
RTVSPost2010Prop31
280
     0
102
RTVSPost2010PropOp31
 70
     1
102
RTVSPost2010Prop32
280
     0
102
RTVSPost2010PropOp32
 70
     1
102
RTVSPost2010Prop33
280
     0
102
RTVSPost2010PropOp33
 70
     1
102
RTVSPost2010Prop34
280
     0
102
RTVSPost2010PropOp34
 70
     1
102
RTVSPost2010Prop35
280
     0
102
RTVSPost2010PropOp35
 70
     1
102
RTVSPost2010Prop36
280
     0
102
RTVSPost2010PropOp36
 70
     1
102
RTVSPost2010Prop37
 90
       50
102
RTVSPost2010PropOp37
 70
     1
102
RTVSPost2010Prop38
140
0.0
102
RTVSPost2010PropOp38
 70
     1
102
RTVSPost2010Prop39
140
1.0
102
RTVSPost2010PropOp39
 70
     1
102
RTVSPost2010Prop40
 90
        0
102
RTVSPost2010PropOp40
 70
     1
102
RTVSPost2010Prop41ColorIndex
 90
       18
102
RTVSPost2010Prop41ColorRGB
 90
        0
102
RTVSPost2010PropOp41
 70
     1
102
RTVSPost2010Prop42
 90
       50
102
RTVSPost2010PropOp42
 70
     1
102
RTVSPost2010Prop43
 90
        3
102
RTVSPost2010PropOp43
 70
     1
102
RTVSPost2010Prop44ColorIndex
 90
        5
102
RTVSPost2010Prop44ColorRGB
 90
      255
102
RTVSPost2010PropOp44
 70
     1
102
RTVSPost2010Prop45
280
     0
102
RTVSPost2010PropOp45
 70
     1
102
RTVSPost2010Prop46
 90
       50
102
RTVSPost2010PropOp46
 70
     1
102
RTVSPost2010Prop47
 90
       50
102
RTVSPost2010PropOp47
 70
     1
102
RTVSPost2010Prop48
 90
       50
102
RTVSPost2010PropOp48
 70
     1
102
RTVSPost2010Prop49
280
     0
102
RTVSPost2010PropOp49
 70
     1
102
RTVSPost2010Prop50
 90
       50
102
RTVSPost2010PropOp50
 70
     1
102
RTVSPost2010Prop51ColorIndex
 90
      256
102
RTVSPost2010Prop51ColorRGB
 90
-16777216
102
RTVSPost2010PropOp51
 70
     0
102
RTVSPost2010Prop52
140
1.0
102
RTVSPost2010PropOp52
 70
     0
102
RTVSPost2010Prop53
 90
        2
102
RTVSPost2010PropOp53
 70
     1
102
RTVSPost2010Prop54
  1
strokes_ogs.tif
102
RTVSPost2010PropOp54
 70
     1
102
RTVSPost2010Prop55
280
     0
102
RTVSPost2010PropOp55
 70
     1
102
RTVSPost2010Prop56
140
1.0
102
RTVSPost2010PropOp56
 70
     1
102
RTVSPost2010Prop57
140
1.0
102
RTVSPost2010PropOp57
 70
     1
  0
XRECORD
  5
3AD
102
{ACAD_REACTORS
330
3AC
102
}
330
3AC
100
AcDbXrecord
280
     1
102
RTVSPropertyOp0
 70
     1
102
RTVSPropertyOp1
 70
     1
102
RTVSPropertyOp2
 70
     1
102
RTVSPropertyOp3
 70
     1
102
RTVSPropertyOp4
 70
     1
102
RTVSPropertyOp5
 70
     1
102
RTVSPropertyOp6
 70
     1
102
RTVSPropertyOp7
 70
     1
102
RTVSPropertyOp8
 70
     1
102
RTVSPropertyOp9
 70
     1
102
RTVSPropertyOp10
 70
     1
102
RTVSPropertyOp11
 70
     1
102
RTVSPropertyOp12
 70
     1
102
RTVSPropertyOp13
 70
     1
102
RTVSPropertyOp14
 70
     1
102
RTVSPropertyOp15
 70
     1
102
RTVSPropertyOp16
 70
     1
102
RTVSPropertyOp17
 70
     1
102
RTVSPropertyOp18
 70
     1
102
RTVSPropertyOp19
 70
     1
102
RTVSPropertyOp20
 70
     1
102
RTVSPropertyOp21
 70
     1
102
RTVSPropertyOp22
 70
     1
102
RTVSPropertyOp23
 70
     1
102
RTVSPropertyOp24
 70
     1
102
RTVSPropertyOp25
 70
     1
102
RTVSPropertyOp26
 70
     1
102
RTVSPropertyOp27
 70
     1
102
RTVSPropertyOp28
 70
     1
102
RTVSPropertyOp29
 70
     1
102
RTVSPropertyOp30
 70
     1
102
RTVSPropertyOp31
 70
     1
102
RTVSPropertyOp32
 70
     1
102
RTVSPropertyOp33
 70
     1
102
RTVSPropertyOp34
 70
     1
102
RTVSPropertyOp35
 70
     1
102
RTVSPropertyOp36
 70
     1
102
RTVSPropertyOp37
 70
     1
102
RTVSPropertyOp38
 70
     1
102
RTVSPropertyOp39
 70
     1
102
RTVSPropertyOp40
 70
     1
102
RTVSPropertyOp41
 70
     1
102
RTVSPropertyOp42
 70
     1
102
RTVSPropertyOp43
 70
     1
102
RTVSPropertyOp44
 70
     1
102
RTVSPropertyOp45
 70
     1
102
RTVSPropertyOp46
 70
     1
102
RTVSPropertyOp47
 70
     1
102
RTVSPropertyOp48
 70
     1
102
RTVSPropertyOp49
 70
     1
102
RTVSPropertyOp50
 70
     1
102
RTVSPropertyOp51
 70
     0
102
RTVSPropertyOp52
 70
     0
102
RTVSPropertyOp53
 70
     1
102
RTVSPropertyOp54
 70
     1
102
RTVSPropertyOp55
 70
     1
102
RTVSPropertyOp56
 70
     1
102
RTVSPropertyOp57
 70
     1
102
RTVSPost2010Prop28
280
     0
102
RTVSPost2010PropOp28
 70
     1
102
RTVSPost2010Prop29
280
     1
102
RTVSPost2010PropOp29
 70
     1
102
RTVSPost2010Prop30
280
     1
102
RTVSPost2010PropOp30
 70
     1
102
RTVSPost2010Prop31
280
     0
102
RTVSPost2010PropOp31
 70
     1
102
RTVSPost2010Prop32
280
     0
102
RTVSPost2010PropOp32
 70
     1
102
RTVSPost2010Prop33
280
     0
102
RTVSPost2010PropOp33
 70
     1
102
RTVSPost2010Prop34
280
     0
102
RTVSPost2010PropOp34
 70
     1
102
RTVSPost2010Prop35
280
     0
102
RTVSPost2010PropOp35
 70
     1
102
RTVSPost2010Prop36
280
     0
102
RTVSPost2010PropOp36
 70
     1
102
RTVSPost2010Prop37
 90
       50
102
RTVSPost2010PropOp37
 70
     1
102
RTVSPost2010Prop38
140
0.0
102
RTVSPost2010PropOp38
 70
     1
102
RTVSPost2010Prop39
140
1.0
102
RTVSPost2010PropOp39
 70
     1
102
RTVSPost2010Prop40
 90
        0
102
RTVSPost2010PropOp40
 70
     1
102
RTVSPost2010Prop41ColorIndex
 90
       18
102
RTVSPost2010Prop41ColorRGB
 90
        0
102
RTVSPost2010PropOp41
 70
     1
102
RTVSPost2010Prop42
 90
       50
102
RTVSPost2010PropOp42
 70
     1
102
RTVSPost2010Prop43
 90
        3
102
RTVSPost2010PropOp43
 70
     1
102
RTVSPost2010Prop44ColorIndex
 90
        5
102
RTVSPost2010Prop44ColorRGB
 90
      255
102
RTVSPost2010PropOp44
 70
     1
102
RTVSPost2010Prop45
280
     0
102
RTVSPost2010PropOp45
 70
     1
102
RTVSPost2010Prop46
 90
       50
102
RTVSPost2010PropOp46
 70
     1
102
RTVSPost2010Prop47
 90
       50
102
RTVSPost2010PropOp47
 70
     1
102
RTVSPost2010Prop48
 90
       50
102
RTVSPost2010PropOp48
 70
     1
102
RTVSPost2010Prop49
280
     0
102
RTVSPost2010PropOp49
 70
     1
102
RTVSPost2010Prop50
 90
       50
102
RTVSPost2010PropOp50
 70
     1
102
RTVSPost2010Prop51ColorIndex
 90
      256
102
RTVSPost2010Prop51ColorRGB
 90
-16777216
102
RTVSPost2010PropOp51
 70
     0
102
RTVSPost2010Prop52
140
1.0
102
RTVSPost2010PropOp52
 70
     0
102
RTVSPost2010Prop53
 90
        2
102
RTVSPost2010PropOp53
 70
     1
102
RTVSPost2010Prop54
  1
strokes_ogs.tif
102
RTVSPost2010PropOp54
 70
     1
102
RTVSPost2010Prop55
280
     0
102
RTVSPost2010PropOp55
 70
     1
102
RTVSPost2010Prop56
140
1.0
102
RTVSPost2010PropOp56
 70
     1
102
RTVSPost2010Prop57
140
1.0
102
RTVSPost2010PropOp57
 70
     1
  0
XRECORD
  5
3AF
102
{ACAD_REACTORS
330
3AE
102
}
330
3AE
100
AcDbXrecord
280
     1
102
RTVSPropertyOp0
 70
     1
102
RTVSPropertyOp1
 70
     1
102
RTVSPropertyOp2
 70
     1
102
RTVSPropertyOp3
 70
     1
102
RTVSPropertyOp4
 70
     1
102
RTVSPropertyOp5
 70
     1
102
RTVSPropertyOp6
 70
     1
102
RTVSPropertyOp7
 70
     1
102
RTVSPropertyOp8
 70
     1
102
RTVSPropertyOp9
 70
     1
102
RTVSPropertyOp10
 70
     1
102
RTVSPropertyOp11
 70
     1
102
RTVSPropertyOp12
 70
     1
102
RTVSPropertyOp13
 70
     1
102
RTVSPropertyOp14
 70
     1
102
RTVSPropertyOp15
 70
     1
102
RTVSPropertyOp16
 70
     1
102
RTVSPropertyOp17
 70
     1
102
RTVSPropertyOp18
 70
     1
102
RTVSPropertyOp19
 70
     1
102
RTVSPropertyOp20
 70
     1
102
RTVSPropertyOp21
 70
     1
102
RTVSPropertyOp22
 70
     1
102
RTVSPropertyOp23
 70
     1
102
RTVSPropertyOp24
 70
     1
102
RTVSPropertyOp25
 70
     1
102
RTVSPropertyOp26
 70
     1
102
RTVSPropertyOp27
 70
     1
102
RTVSPropertyOp28
 70
     1
102
RTVSPropertyOp29
 70
     1
102
RTVSPropertyOp30
 70
     1
102
RTVSPropertyOp31
 70
     1
102
RTVSPropertyOp32
 70
     1
102
RTVSPropertyOp33
 70
     1
102
RTVSPropertyOp34
 70
     1
102
RTVSPropertyOp35
 70
     1
102
RTVSPropertyOp36
 70
     1
102
RTVSPropertyOp37
 70
     1
102
RTVSPropertyOp38
 70
     1
102
RTVSPropertyOp39
 70
     1
102
RTVSPropertyOp40
 70
     1
102
RTVSPropertyOp41
 70
     1
102
RTVSPropertyOp42
 70
     1
102
RTVSPropertyOp43
 70
     1
102
RTVSPropertyOp44
 70
     1
102
RTVSPropertyOp45
 70
     1
102
RTVSPropertyOp46
 70
     1
102
RTVSPropertyOp47
 70
     1
102
RTVSPropertyOp48
 70
     1
102
RTVSPropertyOp49
 70
     1
102
RTVSPropertyOp50
 70
     1
102
RTVSPropertyOp51
 70
     0
102
RTVSPropertyOp52
 70
     0
102
RTVSPropertyOp53
 70
     1
102
RTVSPropertyOp54
 70
     1
102
RTVSPropertyOp55
 70
     1
102
RTVSPropertyOp56
 70
     1
102
RTVSPropertyOp57
 70
     1
102
RTVSPost2010Prop28
280
     0
102
RTVSPost2010PropOp28
 70
     1
102
RTVSPost2010Prop29
280
     1
102
RTVSPost2010PropOp29
 70
     1
102
RTVSPost2010Prop30
280
     1
102
RTVSPost2010PropOp30
 70
     1
102
RTVSPost2010Prop31
280
     0
102
RTVSPost2010PropOp31
 70
     1
102
RTVSPost2010Prop32
280
     0
102
RTVSPost2010PropOp32
 70
     1
102
RTVSPost2010Prop33
280
     0
102
RTVSPost2010PropOp33
 70
     1
102
RTVSPost2010Prop34
280
     0
102
RTVSPost2010PropOp34
 70
     1
102
RTVSPost2010Prop35
280
     0
102
RTVSPost2010PropOp35
 70
     1
102
RTVSPost2010Prop36
280
     0
102
RTVSPost2010PropOp36
 70
     1
102
RTVSPost2010Prop37
 90
       50
102
RTVSPost2010PropOp37
 70
     1
102
RTVSPost2010Prop38
140
0.0
102
RTVSPost2010PropOp38
 70
     1
102
RTVSPost2010Prop39
140
1.0
102
RTVSPost2010PropOp39
 70
     1
102
RTVSPost2010Prop40
 90
        0
102
RTVSPost2010PropOp40
 70
     1
102
RTVSPost2010Prop41ColorIndex
 90
       18
102
RTVSPost2010Prop41ColorRGB
 90
        0
102
RTVSPost2010PropOp41
 70
     1
102
RTVSPost2010Prop42
 90
       50
102
RTVSPost2010PropOp42
 70
     1
102
RTVSPost2010Prop43
 90
        3
102
RTVSPost2010PropOp43
 70
     1
102
RTVSPost2010Prop44ColorIndex
 90
        5
102
RTVSPost2010Prop44ColorRGB
 90
      255
102
RTVSPost2010PropOp44
 70
     1
102
RTVSPost2010Prop45
280
     0
102
RTVSPost2010PropOp45
 70
     1
102
RTVSPost2010Prop46
 90
       50
102
RTVSPost2010PropOp46
 70
     1
102
RTVSPost2010Prop47
 90
       50
102
RTVSPost2010PropOp47
 70
     1
102
RTVSPost2010Prop48
 90
       50
102
RTVSPost2010PropOp48
 70
     1
102
RTVSPost2010Prop49
280
     0
102
RTVSPost2010PropOp49
 70
     1
102
RTVSPost2010Prop50
 90
       50
102
RTVSPost2010PropOp50
 70
     1
102
RTVSPost2010Prop51ColorIndex
 90
      256
102
RTVSPost2010Prop51ColorRGB
 90
-16777216
102
RTVSPost2010PropOp51
 70
     0
102
RTVSPost2010Prop52
140
1.0
102
RTVSPost2010PropOp52
 70
     0
102
RTVSPost2010Prop53
 90
        2
102
RTVSPost2010PropOp53
 70
     1
102
RTVSPost2010Prop54
  1
strokes_ogs.tif
102
RTVSPost2010PropOp54
 70
     1
102
RTVSPost2010Prop55
280
     0
102
RTVSPost2010PropOp55
 70
     1
102
RTVSPost2010Prop56
140
1.0
102
RTVSPost2010PropOp56
 70
     1
102
RTVSPost2010Prop57
140
1.0
102
RTVSPost2010PropOp57
 70
     1
  0
XRECORD
  5
3B5
102
{ACAD_REACTORS
330
3B4
102
}
330
3B4
100
AcDbXrecord
280
     1
102
RTVSPropertyOp0
 70
     1
102
RTVSPropertyOp1
 70
     1
102
RTVSPropertyOp2
 70
     1
102
RTVSPropertyOp3
 70
     1
102
RTVSPropertyOp4
 70
     1
102
RTVSPropertyOp5
 70
     1
102
RTVSPropertyOp6
 70
     1
102
RTVSPropertyOp7
 70
     1
102
RTVSPropertyOp8
 70
     1
102
RTVSPropertyOp9
 70
     1
102
RTVSPropertyOp10
 70
     1
102
RTVSPropertyOp11
 70
     1
102
RTVSPropertyOp12
 70
     1
102
RTVSPropertyOp13
 70
     1
102
RTVSPropertyOp14
 70
     1
102
RTVSPropertyOp15
 70
     1
102
RTVSPropertyOp16
 70
     1
102
RTVSPropertyOp17
 70
     1
102
RTVSPropertyOp18
 70
     1
102
RTVSPropertyOp19
 70
     1
102
RTVSPropertyOp20
 70
     1
102
RTVSPropertyOp21
 70
     1
102
RTVSPropertyOp22
 70
     1
102
RTVSPropertyOp23
 70
     1
102
RTVSPropertyOp24
 70
     1
102
RTVSPropertyOp25
 70
     1
102
RTVSPropertyOp26
 70
     1
102
RTVSPropertyOp27
 70
     1
102
RTVSPropertyOp28
 70
     1
102
RTVSPropertyOp29
 70
     1
102
RTVSPropertyOp30
 70
     1
102
RTVSPropertyOp31
 70
     1
102
RTVSPropertyOp32
 70
     1
102
RTVSPropertyOp33
 70
     1
102
RTVSPropertyOp34
 70
     1
102
RTVSPropertyOp35
 70
     1
102
RTVSPropertyOp36
 70
     1
102
RTVSPropertyOp37
 70
     1
102
RTVSPropertyOp38
 70
     1
102
RTVSPropertyOp39
 70
     1
102
RTVSPropertyOp40
 70
     1
102
RTVSPropertyOp41
 70
     1
102
RTVSPropertyOp42
 70
     1
102
RTVSPropertyOp43
 70
     1
102
RTVSPropertyOp44
 70
     1
102
RTVSPropertyOp45
 70
     1
102
RTVSPropertyOp46
 70
     1
102
RTVSPropertyOp47
 70
     1
102
RTVSPropertyOp48
 70
     1
102
RTVSPropertyOp49
 70
     1
102
RTVSPropertyOp50
 70
     1
102
RTVSPropertyOp51
 70
     0
102
RTVSPropertyOp52
 70
     0
102
RTVSPropertyOp53
 70
     1
102
RTVSPropertyOp54
 70
     1
102
RTVSPropertyOp55
 70
     1
102
RTVSPropertyOp56
 70
     1
102
RTVSPropertyOp57
 70
     1
102
RTVSPost2010Prop28
280
     0
102
RTVSPost2010PropOp28
 70
     1
102
RTVSPost2010Prop29
280
     1
102
RTVSPost2010PropOp29
 70
     1
102
RTVSPost2010Prop30
280
     1
102
RTVSPost2010PropOp30
 70
     1
102
RTVSPost2010Prop31
280
     0
102
RTVSPost2010PropOp31
 70
     1
102
RTVSPost2010Prop32
280
     0
102
RTVSPost2010PropOp32
 70
     1
102
RTVSPost2010Prop33
280
     0
102
RTVSPost2010PropOp33
 70
     1
102
RTVSPost2010Prop34
280
     0
102
RTVSPost2010PropOp34
 70
     1
102
RTVSPost2010Prop35
280
     0
102
RTVSPost2010PropOp35
 70
     1
102
RTVSPost2010Prop36
280
     0
102
RTVSPost2010PropOp36
 70
     1
102
RTVSPost2010Prop37
 90
       50
102
RTVSPost2010PropOp37
 70
     1
102
RTVSPost2010Prop38
140
0.0
102
RTVSPost2010PropOp38
 70
     1
102
RTVSPost2010Prop39
140
1.0
102
RTVSPost2010PropOp39
 70
     1
102
RTVSPost2010Prop40
 90
        0
102
RTVSPost2010PropOp40
 70
     1
102
RTVSPost2010Prop41ColorIndex
 90
       18
102
RTVSPost2010Prop41ColorRGB
 90
        0
102
RTVSPost2010PropOp41
 70
     1
102
RTVSPost2010Prop42
 90
       50
102
RTVSPost2010PropOp42
 70
     1
102
RTVSPost2010Prop43
 90
        3
102
RTVSPost2010PropOp43
 70
     1
102
RTVSPost2010Prop44ColorIndex
 90
        5
102
RTVSPost2010Prop44ColorRGB
 90
      255
102
RTVSPost2010PropOp44
 70
     1
102
RTVSPost2010Prop45
280
     0
102
RTVSPost2010PropOp45
 70
     1
102
RTVSPost2010Prop46
 90
       50
102
RTVSPost2010PropOp46
 70
     1
102
RTVSPost2010Prop47
 90
       50
102
RTVSPost2010PropOp47
 70
     1
102
RTVSPost2010Prop48
 90
       50
102
RTVSPost2010PropOp48
 70
     1
102
RTVSPost2010Prop49
280
     0
102
RTVSPost2010PropOp49
 70
     1
102
RTVSPost2010Prop50
 90
       50
102
RTVSPost2010PropOp50
 70
     1
102
RTVSPost2010Prop51ColorIndex
 90
      256
102
RTVSPost2010Prop51ColorRGB
 90
-16777216
102
RTVSPost2010PropOp51
 70
     0
102
RTVSPost2010Prop52
140
1.0
102
RTVSPost2010PropOp52
 70
     0
102
RTVSPost2010Prop53
 90
        2
102
RTVSPost2010PropOp53
 70
     1
102
RTVSPost2010Prop54
  1
strokes_ogs.tif
102
RTVSPost2010PropOp54
 70
     1
102
RTVSPost2010Prop55
280
     0
102
RTVSPost2010PropOp55
 70
     1
102
RTVSPost2010Prop56
140
1.0
102
RTVSPost2010PropOp56
 70
     1
102
RTVSPost2010Prop57
140
1.0
102
RTVSPost2010PropOp57
 70
     1
  0
XRECORD
  5
3C9
102
{ACAD_REACTORS
330
3C8
102
}
330
3C8
100
AcDbXrecord
280
     1
102
RTVSPropertyOp0
 70
     0
102
RTVSPropertyOp1
 70
     0
102
RTVSPropertyOp2
 70
     0
102
RTVSPropertyOp3
 70
     0
102
RTVSPropertyOp4
 70
     0
102
RTVSPropertyOp5
 70
     0
102
RTVSPropertyOp6
 70
     0
102
RTVSPropertyOp7
 70
     0
102
RTVSPropertyOp8
 70
     0
102
RTVSPropertyOp9
 70
     0
102
RTVSPropertyOp10
 70
     0
102
RTVSPropertyOp11
 70
     0
102
RTVSPropertyOp12
 70
     0
102
RTVSPropertyOp13
 70
     0
102
RTVSPropertyOp14
 70
     2
102
RTVSPropertyOp15
 70
     0
102
RTVSPropertyOp16
 70
     0
102
RTVSPropertyOp17
 70
     0
102
RTVSPropertyOp18
 70
     0
102
RTVSPropertyOp19
 70
     0
102
RTVSPropertyOp20
 70
     0
102
RTVSPropertyOp21
 70
     0
102
RTVSPropertyOp22
 70
     0
102
RTVSPropertyOp23
 70
     0
102
RTVSPropertyOp24
 70
     0
102
RTVSPropertyOp25
 70
     0
102
RTVSPropertyOp26
 70
     0
102
RTVSPropertyOp27
 70
     0
102
RTVSPropertyOp28
 70
     0
102
RTVSPropertyOp29
 70
     0
102
RTVSPropertyOp30
 70
     0
102
RTVSPropertyOp31
 70
     0
102
RTVSPropertyOp32
 70
     0
102
RTVSPropertyOp33
 70
     0
102
RTVSPropertyOp34
 70
     0
102
RTVSPropertyOp35
 70
     0
102
RTVSPropertyOp36
 70
     0
102
RTVSPropertyOp37
 70
     0
102
RTVSPropertyOp38
 70
     0
102
RTVSPropertyOp39
 70
     0
102
RTVSPropertyOp40
 70
     0
102
RTVSPropertyOp41
 70
     0
102
RTVSPropertyOp42
 70
     0
102
RTVSPropertyOp43
 70
     0
102
RTVSPropertyOp44
 70
     0
102
RTVSPropertyOp45
 70
     0
102
RTVSPropertyOp46
 70
     0
102
RTVSPropertyOp47
 70
     0
102
RTVSPropertyOp48
 70
     0
102
RTVSPropertyOp49
 70
     0
102
RTVSPropertyOp50
 70
     0
102
RTVSPropertyOp51
 70
     0
102
RTVSPropertyOp52
 70
     0
102
RTVSPropertyOp53
 70
     0
102
RTVSPropertyOp54
 70
     0
102
RTVSPropertyOp55
 70
     0
102
RTVSPropertyOp56
 70
     0
102
RTVSPropertyOp57
 70
     0
102
RTVSPost2010Prop28
280
     0
102
RTVSPost2010PropOp28
 70
     0
102
RTVSPost2010Prop29
280
     1
102
RTVSPost2010PropOp29
 70
     0
102
RTVSPost2010Prop30
280
     1
102
RTVSPost2010PropOp30
 70
     0
102
RTVSPost2010Prop31
280
     0
102
RTVSPost2010PropOp31
 70
     0
102
RTVSPost2010Prop32
280
     0
102
RTVSPost2010PropOp32
 70
     0
102
RTVSPost2010Prop33
280
     0
102
RTVSPost2010PropOp33
 70
     0
102
RTVSPost2010Prop34
280
     0
102
RTVSPost2010PropOp34
 70
     0
102
RTVSPost2010Prop35
280
     0
102
RTVSPost2010PropOp35
 70
     0
102
RTVSPost2010Prop36
280
     0
102
RTVSPost2010PropOp36
 70
     0
102
RTVSPost2010Prop37
 90
       50
102
RTVSPost2010PropOp37
 70
     0
102
RTVSPost2010Prop38
140
0.0
102
RTVSPost2010PropOp38
 70
     0
102
RTVSPost2010Prop39
140
1.0
102
RTVSPost2010PropOp39
 70
     0
102
RTVSPost2010Prop40
 90
        0
102
RTVSPost2010PropOp40
 70
     0
102
RTVSPost2010Prop41ColorIndex
 90
       18
102
RTVSPost2010Prop41ColorRGB
 90
        0
102
RTVSPost2010PropOp41
 70
     0
102
RTVSPost2010Prop42
 90
       50
102
RTVSPost2010PropOp42
 70
     0
102
RTVSPost2010Prop43
 90
        3
102
RTVSPost2010PropOp43
 70
     0
102
RTVSPost2010Prop44ColorIndex
 90
        5
102
RTVSPost2010Prop44ColorRGB
 90
      255
102
RTVSPost2010PropOp44
 70
     0
102
RTVSPost2010Prop45
280
     0
102
RTVSPost2010PropOp45
 70
     0
102
RTVSPost2010Prop46
 90
       50
102
RTVSPost2010PropOp46
 70
     0
102
RTVSPost2010Prop47
 90
       50
102
RTVSPost2010PropOp47
 70
     0
102
RTVSPost2010Prop48
 90
       50
102
RTVSPost2010PropOp48
 70
     0
102
RTVSPost2010Prop49
280
     0
102
RTVSPost2010PropOp49
 70
     0
102
RTVSPost2010Prop50
 90
       50
102
RTVSPost2010PropOp50
 70
     0
102
RTVSPost2010Prop51ColorIndex
 90
      256
102
RTVSPost2010Prop51ColorRGB
 90
-16777216
102
RTVSPost2010PropOp51
 70
     0
102
RTVSPost2010Prop52
140
1.0
102
RTVSPost2010PropOp52
 70
     0
102
RTVSPost2010Prop53
 90
        2
102
RTVSPost2010PropOp53
 70
     0
102
RTVSPost2010Prop54
  1
strokes_ogs.tif
102
RTVSPost2010PropOp54
 70
     0
102
RTVSPost2010Prop55
280
     0
102
RTVSPost2010PropOp55
 70
     0
102
RTVSPost2010Prop56
140
1.0
102
RTVSPost2010PropOp56
 70
     0
102
RTVSPost2010Prop57
140
1.0
102
RTVSPost2010PropOp57
 70
     0
  0
XRECORD
  5
3C3
102
{ACAD_REACTORS
330
3C2
102
}
330
3C2
100
AcDbXrecord
280
     1
102
RTVSPropertyOp0
 70
     1
102
RTVSPropertyOp1
 70
     1
102
RTVSPropertyOp2
 70
     1
102
RTVSPropertyOp3
 70
     1
102
RTVSPropertyOp4
 70
     1
102
RTVSPropertyOp5
 70
     1
102
RTVSPropertyOp6
 70
     1
102
RTVSPropertyOp7
 70
     1
102
RTVSPropertyOp8
 70
     1
102
RTVSPropertyOp9
 70
     1
102
RTVSPropertyOp10
 70
     1
102
RTVSPropertyOp11
 70
     1
102
RTVSPropertyOp12
 70
     1
102
RTVSPropertyOp13
 70
     1
102
RTVSPropertyOp14
 70
     1
102
RTVSPropertyOp15
 70
     1
102
RTVSPropertyOp16
 70
     1
102
RTVSPropertyOp17
 70
     1
102
RTVSPropertyOp18
 70
     1
102
RTVSPropertyOp19
 70
     1
102
RTVSPropertyOp20
 70
     1
102
RTVSPropertyOp21
 70
     1
102
RTVSPropertyOp22
 70
     1
102
RTVSPropertyOp23
 70
     1
102
RTVSPropertyOp24
 70
     1
102
RTVSPropertyOp25
 70
     1
102
RTVSPropertyOp26
 70
     1
102
RTVSPropertyOp27
 70
     1
102
RTVSPropertyOp28
 70
     1
102
RTVSPropertyOp29
 70
     1
102
RTVSPropertyOp30
 70
     1
102
RTVSPropertyOp31
 70
     1
102
RTVSPropertyOp32
 70
     1
102
RTVSPropertyOp33
 70
     1
102
RTVSPropertyOp34
 70
     1
102
RTVSPropertyOp35
 70
     1
102
RTVSPropertyOp36
 70
     1
102
RTVSPropertyOp37
 70
     1
102
RTVSPropertyOp38
 70
     1
102
RTVSPropertyOp39
 70
     1
102
RTVSPropertyOp40
 70
     1
102
RTVSPropertyOp41
 70
     1
102
RTVSPropertyOp42
 70
     1
102
RTVSPropertyOp43
 70
     1
102
RTVSPropertyOp44
 70
     1
102
RTVSPropertyOp45
 70
     1
102
RTVSPropertyOp46
 70
     1
102
RTVSPropertyOp47
 70
     1
102
RTVSPropertyOp48
 70
     1
102
RTVSPropertyOp49
 70
     1
102
RTVSPropertyOp50
 70
     1
102
RTVSPropertyOp51
 70
     0
102
RTVSPropertyOp52
 70
     0
102
RTVSPropertyOp53
 70
     1
102
RTVSPropertyOp54
 70
     1
102
RTVSPropertyOp55
 70
     1
102
RTVSPropertyOp56
 70
     1
102
RTVSPropertyOp57
 70
     1
102
RTVSPost2010Prop28
280
     0
102
RTVSPost2010PropOp28
 70
     1
102
RTVSPost2010Prop29
280
     1
102
RTVSPost2010PropOp29
 70
     1
102
RTVSPost2010Prop30
280
     1
102
RTVSPost2010PropOp30
 70
     1
102
RTVSPost2010Prop31
280
     0
102
RTVSPost2010PropOp31
 70
     1
102
RTVSPost2010Prop32
280
     0
102
RTVSPost2010PropOp32
 70
     1
102
RTVSPost2010Prop33
280
     0
102
RTVSPost2010PropOp33
 70
     1
102
RTVSPost2010Prop34
280
     0
102
RTVSPost2010PropOp34
 70
     1
102
RTVSPost2010Prop35
280
     0
102
RTVSPost2010PropOp35
 70
     1
102
RTVSPost2010Prop36
280
     0
102
RTVSPost2010PropOp36
 70
     1
102
RTVSPost2010Prop37
 90
       50
102
RTVSPost2010PropOp37
 70
     1
102
RTVSPost2010Prop38
140
0.0
102
RTVSPost2010PropOp38
 70
     1
102
RTVSPost2010Prop39
140
1.0
102
RTVSPost2010PropOp39
 70
     1
102
RTVSPost2010Prop40
 90
        0
102
RTVSPost2010PropOp40
 70
     1
102
RTVSPost2010Prop41ColorIndex
 90
       18
102
RTVSPost2010Prop41ColorRGB
 90
        0
102
RTVSPost2010PropOp41
 70
     1
102
RTVSPost2010Prop42
 90
       50
102
RTVSPost2010PropOp42
 70
     1
102
RTVSPost2010Prop43
 90
        3
102
RTVSPost2010PropOp43
 70
     1
102
RTVSPost2010Prop44ColorIndex
 90
        5
102
RTVSPost2010Prop44ColorRGB
 90
      255
102
RTVSPost2010PropOp44
 70
     1
102
RTVSPost2010Prop45
280
     0
102
RTVSPost2010PropOp45
 70
     1
102
RTVSPost2010Prop46
 90
       50
102
RTVSPost2010PropOp46
 70
     1
102
RTVSPost2010Prop47
 90
       50
102
RTVSPost2010PropOp47
 70
     1
102
RTVSPost2010Prop48
 90
       50
102
RTVSPost2010PropOp48
 70
     1
102
RTVSPost2010Prop49
280
     0
102
RTVSPost2010PropOp49
 70
     1
102
RTVSPost2010Prop50
 90
       50
102
RTVSPost2010PropOp50
 70
     1
102
RTVSPost2010Prop51ColorIndex
 90
      256
102
RTVSPost2010Prop51ColorRGB
 90
-16777216
102
RTVSPost2010PropOp51
 70
     0
102
RTVSPost2010Prop52
140
1.0
102
RTVSPost2010PropOp52
 70
     0
102
RTVSPost2010Prop53
 90
        2
102
RTVSPost2010PropOp53
 70
     1
102
RTVSPost2010Prop54
  1
strokes_ogs.tif
102
RTVSPost2010PropOp54
 70
     1
102
RTVSPost2010Prop55
280
     0
102
RTVSPost2010PropOp55
 70
     1
102
RTVSPost2010Prop56
140
1.0
102
RTVSPost2010PropOp56
 70
     1
102
RTVSPost2010Prop57
140
1.0
102
RTVSPost2010PropOp57
 70
     1
  0
XRECORD
  5
3CB
102
{ACAD_REACTORS
330
3CA
102
}
330
3CA
100
AcDbXrecord
280
     1
102
RTVSPropertyOp0
 70
     0
102
RTVSPropertyOp1
 70
     0
102
RTVSPropertyOp2
 70
     0
102
RTVSPropertyOp3
 70
     0
102
RTVSPropertyOp4
 70
     0
102
RTVSPropertyOp5
 70
     0
102
RTVSPropertyOp6
 70
     0
102
RTVSPropertyOp7
 70
     0
102
RTVSPropertyOp8
 70
     0
102
RTVSPropertyOp9
 70
     0
102
RTVSPropertyOp10
 70
     0
102
RTVSPropertyOp11
 70
     0
102
RTVSPropertyOp12
 70
     0
102
RTVSPropertyOp13
 70
     0
102
RTVSPropertyOp14
 70
     2
102
RTVSPropertyOp15
 70
     0
102
RTVSPropertyOp16
 70
     0
102
RTVSPropertyOp17
 70
     0
102
RTVSPropertyOp18
 70
     0
102
RTVSPropertyOp19
 70
     0
102
RTVSPropertyOp20
 70
     0
102
RTVSPropertyOp21
 70
     0
102
RTVSPropertyOp22
 70
     0
102
RTVSPropertyOp23
 70
     0
102
RTVSPropertyOp24
 70
     0
102
RTVSPropertyOp25
 70
     0
102
RTVSPropertyOp26
 70
     0
102
RTVSPropertyOp27
 70
     0
102
RTVSPropertyOp28
 70
     0
102
RTVSPropertyOp29
 70
     0
102
RTVSPropertyOp30
 70
     0
102
RTVSPropertyOp31
 70
     0
102
RTVSPropertyOp32
 70
     0
102
RTVSPropertyOp33
 70
     0
102
RTVSPropertyOp34
 70
     0
102
RTVSPropertyOp35
 70
     0
102
RTVSPropertyOp36
 70
     0
102
RTVSPropertyOp37
 70
     0
102
RTVSPropertyOp38
 70
     0
102
RTVSPropertyOp39
 70
     0
102
RTVSPropertyOp40
 70
     0
102
RTVSPropertyOp41
 70
     0
102
RTVSPropertyOp42
 70
     0
102
RTVSPropertyOp43
 70
     0
102
RTVSPropertyOp44
 70
     0
102
RTVSPropertyOp45
 70
     0
102
RTVSPropertyOp46
 70
     0
102
RTVSPropertyOp47
 70
     0
102
RTVSPropertyOp48
 70
     0
102
RTVSPropertyOp49
 70
     0
102
RTVSPropertyOp50
 70
     0
102
RTVSPropertyOp51
 70
     0
102
RTVSPropertyOp52
 70
     0
102
RTVSPropertyOp53
 70
     0
102
RTVSPropertyOp54
 70
     0
102
RTVSPropertyOp55
 70
     0
102
RTVSPropertyOp56
 70
     0
102
RTVSPropertyOp57
 70
     0
102
RTVSPost2010Prop28
280
     0
102
RTVSPost2010PropOp28
 70
     0
102
RTVSPost2010Prop29
280
     1
102
RTVSPost2010PropOp29
 70
     0
102
RTVSPost2010Prop30
280
     1
102
RTVSPost2010PropOp30
 70
     0
102
RTVSPost2010Prop31
280
     0
102
RTVSPost2010PropOp31
 70
     0
102
RTVSPost2010Prop32
280
     0
102
RTVSPost2010PropOp32
 70
     0
102
RTVSPost2010Prop33
280
     0
102
RTVSPost2010PropOp33
 70
     0
102
RTVSPost2010Prop34
280
     0
102
RTVSPost2010PropOp34
 70
     0
102
RTVSPost2010Prop35
280
     0
102
RTVSPost2010PropOp35
 70
     0
102
RTVSPost2010Prop36
280
     0
102
RTVSPost2010PropOp36
 70
     0
102
RTVSPost2010Prop37
 90
       50
102
RTVSPost2010PropOp37
 70
     0
102
RTVSPost2010Prop38
140
0.0
102
RTVSPost2010PropOp38
 70
     0
102
RTVSPost2010Prop39
140
1.0
102
RTVSPost2010PropOp39
 70
     0
102
RTVSPost2010Prop40
 90
        0
102
RTVSPost2010PropOp40
 70
     0
102
RTVSPost2010Prop41ColorIndex
 90
       18
102
RTVSPost2010Prop41ColorRGB
 90
        0
102
RTVSPost2010PropOp41
 70
     0
102
RTVSPost2010Prop42
 90
       50
102
RTVSPost2010PropOp42
 70
     0
102
RTVSPost2010Prop43
 90
        3
102
RTVSPost2010PropOp43
 70
     0
102
RTVSPost2010Prop44ColorIndex
 90
        5
102
RTVSPost2010Prop44ColorRGB
 90
      255
102
RTVSPost2010PropOp44
 70
     0
102
RTVSPost2010Prop45
280
     0
102
RTVSPost2010PropOp45
 70
     0
102
RTVSPost2010Prop46
 90
       50
102
RTVSPost2010PropOp46
 70
     0
102
RTVSPost2010Prop47
 90
       50
102
RTVSPost2010PropOp47
 70
     0
102
RTVSPost2010Prop48
 90
       50
102
RTVSPost2010PropOp48
 70
     0
102
RTVSPost2010Prop49
280
     0
102
RTVSPost2010PropOp49
 70
     0
102
RTVSPost2010Prop50
 90
       50
102
RTVSPost2010PropOp50
 70
     0
102
RTVSPost2010Prop51ColorIndex
 90
      256
102
RTVSPost2010Prop51ColorRGB
 90
-16777216
102
RTVSPost2010PropOp51
 70
     0
102
RTVSPost2010Prop52
140
1.0
102
RTVSPost2010PropOp52
 70
     0
102
RTVSPost2010Prop53
 90
        2
102
RTVSPost2010PropOp53
 70
     0
102
RTVSPost2010Prop54
  1
strokes_ogs.tif
102
RTVSPost2010PropOp54
 70
     0
102
RTVSPost2010Prop55
280
     0
102
RTVSPost2010PropOp55
 70
     0
102
RTVSPost2010Prop56
140
1.0
102
RTVSPost2010PropOp56
 70
     0
102
RTVSPost2010Prop57
140
1.0
102
RTVSPost2010PropOp57
 70
     0
  0
XRECORD
  5
3B9
102
{ACAD_REACTORS
330
3B8
102
}
330
3B8
100
AcDbXrecord
280
     1
102
RTVSPropertyOp0
 70
     1
102
RTVSPropertyOp1
 70
     1
102
RTVSPropertyOp2
 70
     1
102
RTVSPropertyOp3
 70
     1
102
RTVSPropertyOp4
 70
     1
102
RTVSPropertyOp5
 70
     1
102
RTVSPropertyOp6
 70
     1
102
RTVSPropertyOp7
 70
     1
102
RTVSPropertyOp8
 70
     1
102
RTVSPropertyOp9
 70
     1
102
RTVSPropertyOp10
 70
     1
102
RTVSPropertyOp11
 70
     1
102
RTVSPropertyOp12
 70
     1
102
RTVSPropertyOp13
 70
     1
102
RTVSPropertyOp14
 70
     1
102
RTVSPropertyOp15
 70
     1
102
RTVSPropertyOp16
 70
     1
102
RTVSPropertyOp17
 70
     1
102
RTVSPropertyOp18
 70
     1
102
RTVSPropertyOp19
 70
     1
102
RTVSPropertyOp20
 70
     1
102
RTVSPropertyOp21
 70
     1
102
RTVSPropertyOp22
 70
     1
102
RTVSPropertyOp23
 70
     1
102
RTVSPropertyOp24
 70
     1
102
RTVSPropertyOp25
 70
     1
102
RTVSPropertyOp26
 70
     1
102
RTVSPropertyOp27
 70
     1
102
RTVSPropertyOp28
 70
     1
102
RTVSPropertyOp29
 70
     1
102
RTVSPropertyOp30
 70
     1
102
RTVSPropertyOp31
 70
     1
102
RTVSPropertyOp32
 70
     1
102
RTVSPropertyOp33
 70
     1
102
RTVSPropertyOp34
 70
     1
102
RTVSPropertyOp35
 70
     1
102
RTVSPropertyOp36
 70
     1
102
RTVSPropertyOp37
 70
     1
102
RTVSPropertyOp38
 70
     1
102
RTVSPropertyOp39
 70
     1
102
RTVSPropertyOp40
 70
     1
102
RTVSPropertyOp41
 70
     1
102
RTVSPropertyOp42
 70
     1
102
RTVSPropertyOp43
 70
     1
102
RTVSPropertyOp44
 70
     1
102
RTVSPropertyOp45
 70
     1
102
RTVSPropertyOp46
 70
     1
102
RTVSPropertyOp47
 70
     1
102
RTVSPropertyOp48
 70
     1
102
RTVSPropertyOp49
 70
     1
102
RTVSPropertyOp50
 70
     1
102
RTVSPropertyOp51
 70
     0
102
RTVSPropertyOp52
 70
     0
102
RTVSPropertyOp53
 70
     1
102
RTVSPropertyOp54
 70
     1
102
RTVSPropertyOp55
 70
     1
102
RTVSPropertyOp56
 70
     1
102
RTVSPropertyOp57
 70
     1
102
RTVSPost2010Prop28
280
     0
102
RTVSPost2010PropOp28
 70
     1
102
RTVSPost2010Prop29
280
     1
102
RTVSPost2010PropOp29
 70
     1
102
RTVSPost2010Prop30
280
     1
102
RTVSPost2010PropOp30
 70
     1
102
RTVSPost2010Prop31
280
     0
102
RTVSPost2010PropOp31
 70
     1
102
RTVSPost2010Prop32
280
     0
102
RTVSPost2010PropOp32
 70
     1
102
RTVSPost2010Prop33
280
     0
102
RTVSPost2010PropOp33
 70
     1
102
RTVSPost2010Prop34
280
     0
102
RTVSPost2010PropOp34
 70
     1
102
RTVSPost2010Prop35
280
     0
102
RTVSPost2010PropOp35
 70
     1
102
RTVSPost2010Prop36
280
     0
102
RTVSPost2010PropOp36
 70
     1
102
RTVSPost2010Prop37
 90
       50
102
RTVSPost2010PropOp37
 70
     1
102
RTVSPost2010Prop38
140
0.0
102
RTVSPost2010PropOp38
 70
     1
102
RTVSPost2010Prop39
140
1.0
102
RTVSPost2010PropOp39
 70
     1
102
RTVSPost2010Prop40
 90
        0
102
RTVSPost2010PropOp40
 70
     1
102
RTVSPost2010Prop41ColorIndex
 90
       18
102
RTVSPost2010Prop41ColorRGB
 90
        0
102
RTVSPost2010PropOp41
 70
     1
102
RTVSPost2010Prop42
 90
       50
102
RTVSPost2010PropOp42
 70
     1
102
RTVSPost2010Prop43
 90
        3
102
RTVSPost2010PropOp43
 70
     1
102
RTVSPost2010Prop44ColorIndex
 90
        5
102
RTVSPost2010Prop44ColorRGB
 90
      255
102
RTVSPost2010PropOp44
 70
     1
102
RTVSPost2010Prop45
280
     0
102
RTVSPost2010PropOp45
 70
     1
102
RTVSPost2010Prop46
 90
       50
102
RTVSPost2010PropOp46
 70
     1
102
RTVSPost2010Prop47
 90
       50
102
RTVSPost2010PropOp47
 70
     1
102
RTVSPost2010Prop48
 90
       50
102
RTVSPost2010PropOp48
 70
     1
102
RTVSPost2010Prop49
280
     0
102
RTVSPost2010PropOp49
 70
     1
102
RTVSPost2010Prop50
 90
       50
102
RTVSPost2010PropOp50
 70
     1
102
RTVSPost2010Prop51ColorIndex
 90
      256
102
RTVSPost2010Prop51ColorRGB
 90
-16777216
102
RTVSPost2010PropOp51
 70
     0
102
RTVSPost2010Prop52
140
1.0
102
RTVSPost2010PropOp52
 70
     0
102
RTVSPost2010Prop53
 90
        2
102
RTVSPost2010PropOp53
 70
     1
102
RTVSPost2010Prop54
  1
strokes_ogs.tif
102
RTVSPost2010PropOp54
 70
     1
102
RTVSPost2010Prop55
280
     0
102
RTVSPost2010PropOp55
 70
     1
102
RTVSPost2010Prop56
140
1.0
102
RTVSPost2010PropOp56
 70
     1
102
RTVSPost2010Prop57
140
1.0
102
RTVSPost2010PropOp57
 70
     1
  0
XRECORD
  5
3D7
102
{ACAD_REACTORS
330
3D6
102
}
330
3D6
100
AcDbXrecord
280
     1
102
RTVSPropertyOp0
 70
     1
102
RTVSPropertyOp1
 70
     1
102
RTVSPropertyOp2
 70
     1
102
RTVSPropertyOp3
 70
     1
102
RTVSPropertyOp4
 70
     1
102
RTVSPropertyOp5
 70
     1
102
RTVSPropertyOp6
 70
     1
102
RTVSPropertyOp7
 70
     1
102
RTVSPropertyOp8
 70
     1
102
RTVSPropertyOp9
 70
     1
102
RTVSPropertyOp10
 70
     1
102
RTVSPropertyOp11
 70
     1
102
RTVSPropertyOp12
 70
     1
102
RTVSPropertyOp13
 70
     1
102
RTVSPropertyOp14
 70
     1
102
RTVSPropertyOp15
 70
     1
102
RTVSPropertyOp16
 70
     1
102
RTVSPropertyOp17
 70
     1
102
RTVSPropertyOp18
 70
     1
102
RTVSPropertyOp19
 70
     1
102
RTVSPropertyOp20
 70
     1
102
RTVSPropertyOp21
 70
     1
102
RTVSPropertyOp22
 70
     1
102
RTVSPropertyOp23
 70
     1
102
RTVSPropertyOp24
 70
     1
102
RTVSPropertyOp25
 70
     1
102
RTVSPropertyOp26
 70
     1
102
RTVSPropertyOp27
 70
     1
102
RTVSPropertyOp28
 70
     1
102
RTVSPropertyOp29
 70
     1
102
RTVSPropertyOp30
 70
     1
102
RTVSPropertyOp31
 70
     1
102
RTVSPropertyOp32
 70
     1
102
RTVSPropertyOp33
 70
     1
102
RTVSPropertyOp34
 70
     1
102
RTVSPropertyOp35
 70
     1
102
RTVSPropertyOp36
 70
     1
102
RTVSPropertyOp37
 70
     1
102
RTVSPropertyOp38
 70
     1
102
RTVSPropertyOp39
 70
     1
102
RTVSPropertyOp40
 70
     1
102
RTVSPropertyOp41
 70
     1
102
RTVSPropertyOp42
 70
     1
102
RTVSPropertyOp43
 70
     1
102
RTVSPropertyOp44
 70
     1
102
RTVSPropertyOp45
 70
     1
102
RTVSPropertyOp46
 70
     1
102
RTVSPropertyOp47
 70
     1
102
RTVSPropertyOp48
 70
     1
102
RTVSPropertyOp49
 70
     1
102
RTVSPropertyOp50
 70
     1
102
RTVSPropertyOp51
 70
     0
102
RTVSPropertyOp52
 70
     0
102
RTVSPropertyOp53
 70
     1
102
RTVSPropertyOp54
 70
     1
102
RTVSPropertyOp55
 70
     1
102
RTVSPropertyOp56
 70
     1
102
RTVSPropertyOp57
 70
     1
102
RTVSPost2010Prop28
280
     0
102
RTVSPost2010PropOp28
 70
     1
102
RTVSPost2010Prop29
280
     1
102
RTVSPost2010PropOp29
 70
     1
102
RTVSPost2010Prop30
280
     1
102
RTVSPost2010PropOp30
 70
     1
102
RTVSPost2010Prop31
280
     0
102
RTVSPost2010PropOp31
 70
     1
102
RTVSPost2010Prop32
280
     0
102
RTVSPost2010PropOp32
 70
     1
102
RTVSPost2010Prop33
280
     0
102
RTVSPost2010PropOp33
 70
     1
102
RTVSPost2010Prop34
280
     0
102
RTVSPost2010PropOp34
 70
     1
102
RTVSPost2010Prop35
280
     0
102
RTVSPost2010PropOp35
 70
     1
102
RTVSPost2010Prop36
280
     0
102
RTVSPost2010PropOp36
 70
     1
102
RTVSPost2010Prop37
 90
       50
102
RTVSPost2010PropOp37
 70
     1
102
RTVSPost2010Prop38
140
0.0
102
RTVSPost2010PropOp38
 70
     1
102
RTVSPost2010Prop39
140
1.0
102
RTVSPost2010PropOp39
 70
     1
102
RTVSPost2010Prop40
 90
        0
102
RTVSPost2010PropOp40
 70
     1
102
RTVSPost2010Prop41ColorIndex
 90
       18
102
RTVSPost2010Prop41ColorRGB
 90
        0
102
RTVSPost2010PropOp41
 70
     1
102
RTVSPost2010Prop42
 90
       50
102
RTVSPost2010PropOp42
 70
     1
102
RTVSPost2010Prop43
 90
        3
102
RTVSPost2010PropOp43
 70
     1
102
RTVSPost2010Prop44ColorIndex
 90
        5
102
RTVSPost2010Prop44ColorRGB
 90
      255
102
RTVSPost2010PropOp44
 70
     1
102
RTVSPost2010Prop45
280
     0
102
RTVSPost2010PropOp45
 70
     1
102
RTVSPost2010Prop46
 90
       50
102
RTVSPost2010PropOp46
 70
     1
102
RTVSPost2010Prop47
 90
       50
102
RTVSPost2010PropOp47
 70
     1
102
RTVSPost2010Prop48
 90
       50
102
RTVSPost2010PropOp48
 70
     1
102
RTVSPost2010Prop49
280
     0
102
RTVSPost2010PropOp49
 70
     1
102
RTVSPost2010Prop50
 90
       50
102
RTVSPost2010PropOp50
 70
     1
102
RTVSPost2010Prop51ColorIndex
 90
      256
102
RTVSPost2010Prop51ColorRGB
 90
-16777216
102
RTVSPost2010PropOp51
 70
     0
102
RTVSPost2010Prop52
140
1.0
102
RTVSPost2010PropOp52
 70
     0
102
RTVSPost2010Prop53
 90
        2
102
RTVSPost2010PropOp53
 70
     1
102
RTVSPost2010Prop54
  1
strokes_ogs.tif
102
RTVSPost2010PropOp54
 70
     1
102
RTVSPost2010Prop55
280
     0
102
RTVSPost2010PropOp55
 70
     1
102
RTVSPost2010Prop56
140
1.0
102
RTVSPost2010PropOp56
 70
     1
102
RTVSPost2010Prop57
140
1.0
102
RTVSPost2010PropOp57
 70
     1
  0
XRECORD
  5
3D5
102
{ACAD_REACTORS
330
3D4
102
}
330
3D4
100
AcDbXrecord
280
     1
102
RTVSPropertyOp0
 70
     1
102
RTVSPropertyOp1
 70
     1
102
RTVSPropertyOp2
 70
     1
102
RTVSPropertyOp3
 70
     1
102
RTVSPropertyOp4
 70
     1
102
RTVSPropertyOp5
 70
     1
102
RTVSPropertyOp6
 70
     1
102
RTVSPropertyOp7
 70
     1
102
RTVSPropertyOp8
 70
     1
102
RTVSPropertyOp9
 70
     1
102
RTVSPropertyOp10
 70
     1
102
RTVSPropertyOp11
 70
     1
102
RTVSPropertyOp12
 70
     1
102
RTVSPropertyOp13
 70
     1
102
RTVSPropertyOp14
 70
     1
102
RTVSPropertyOp15
 70
     1
102
RTVSPropertyOp16
 70
     1
102
RTVSPropertyOp17
 70
     1
102
RTVSPropertyOp18
 70
     1
102
RTVSPropertyOp19
 70
     1
102
RTVSPropertyOp20
 70
     1
102
RTVSPropertyOp21
 70
     1
102
RTVSPropertyOp22
 70
     1
102
RTVSPropertyOp23
 70
     1
102
RTVSPropertyOp24
 70
     1
102
RTVSPropertyOp25
 70
     1
102
RTVSPropertyOp26
 70
     1
102
RTVSPropertyOp27
 70
     1
102
RTVSPropertyOp28
 70
     1
102
RTVSPropertyOp29
 70
     1
102
RTVSPropertyOp30
 70
     1
102
RTVSPropertyOp31
 70
     1
102
RTVSPropertyOp32
 70
     1
102
RTVSPropertyOp33
 70
     1
102
RTVSPropertyOp34
 70
     1
102
RTVSPropertyOp35
 70
     1
102
RTVSPropertyOp36
 70
     1
102
RTVSPropertyOp37
 70
     1
102
RTVSPropertyOp38
 70
     1
102
RTVSPropertyOp39
 70
     1
102
RTVSPropertyOp40
 70
     1
102
RTVSPropertyOp41
 70
     1
102
RTVSPropertyOp42
 70
     1
102
RTVSPropertyOp43
 70
     1
102
RTVSPropertyOp44
 70
     1
102
RTVSPropertyOp45
 70
     1
102
RTVSPropertyOp46
 70
     1
102
RTVSPropertyOp47
 70
     1
102
RTVSPropertyOp48
 70
     1
102
RTVSPropertyOp49
 70
     1
102
RTVSPropertyOp50
 70
     1
102
RTVSPropertyOp51
 70
     0
102
RTVSPropertyOp52
 70
     0
102
RTVSPropertyOp53
 70
     1
102
RTVSPropertyOp54
 70
     1
102
RTVSPropertyOp55
 70
     1
102
RTVSPropertyOp56
 70
     1
102
RTVSPropertyOp57
 70
     1
102
RTVSPost2010Prop28
280
     0
102
RTVSPost2010PropOp28
 70
     1
102
RTVSPost2010Prop29
280
     1
102
RTVSPost2010PropOp29
 70
     1
102
RTVSPost2010Prop30
280
     1
102
RTVSPost2010PropOp30
 70
     1
102
RTVSPost2010Prop31
280
     0
102
RTVSPost2010PropOp31
 70
     1
102
RTVSPost2010Prop32
280
     0
102
RTVSPost2010PropOp32
 70
     1
102
RTVSPost2010Prop33
280
     0
102
RTVSPost2010PropOp33
 70
     1
102
RTVSPost2010Prop34
280
     0
102
RTVSPost2010PropOp34
 70
     1
102
RTVSPost2010Prop35
280
     0
102
RTVSPost2010PropOp35
 70
     1
102
RTVSPost2010Prop36
280
     0
102
RTVSPost2010PropOp36
 70
     1
102
RTVSPost2010Prop37
 90
       50
102
RTVSPost2010PropOp37
 70
     1
102
RTVSPost2010Prop38
140
0.0
102
RTVSPost2010PropOp38
 70
     1
102
RTVSPost2010Prop39
140
1.0
102
RTVSPost2010PropOp39
 70
     1
102
RTVSPost2010Prop40
 90
        0
102
RTVSPost2010PropOp40
 70
     1
102
RTVSPost2010Prop41ColorIndex
 90
       18
102
RTVSPost2010Prop41ColorRGB
 90
        0
102
RTVSPost2010PropOp41
 70
     1
102
RTVSPost2010Prop42
 90
       50
102
RTVSPost2010PropOp42
 70
     1
102
RTVSPost2010Prop43
 90
        3
102
RTVSPost2010PropOp43
 70
     1
102
RTVSPost2010Prop44ColorIndex
 90
        5
102
RTVSPost2010Prop44ColorRGB
 90
      255
102
RTVSPost2010PropOp44
 70
     1
102
RTVSPost2010Prop45
280
     0
102
RTVSPost2010PropOp45
 70
     1
102
RTVSPost2010Prop46
 90
       50
102
RTVSPost2010PropOp46
 70
     1
102
RTVSPost2010Prop47
 90
       50
102
RTVSPost2010PropOp47
 70
     1
102
RTVSPost2010Prop48
 90
       50
102
RTVSPost2010PropOp48
 70
     1
102
RTVSPost2010Prop49
280
     0
102
RTVSPost2010PropOp49
 70
     1
102
RTVSPost2010Prop50
 90
       50
102
RTVSPost2010PropOp50
 70
     1
102
RTVSPost2010Prop51ColorIndex
 90
      256
102
RTVSPost2010Prop51ColorRGB
 90
-16777216
102
RTVSPost2010PropOp51
 70
     0
102
RTVSPost2010Prop52
140
1.0
102
RTVSPost2010PropOp52
 70
     0
102
RTVSPost2010Prop53
 90
        2
102
RTVSPost2010PropOp53
 70
     1
102
RTVSPost2010Prop54
  1
strokes_ogs.tif
102
RTVSPost2010PropOp54
 70
     1
102
RTVSPost2010Prop55
280
     0
102
RTVSPost2010PropOp55
 70
     1
102
RTVSPost2010Prop56
140
1.0
102
RTVSPost2010PropOp56
 70
     1
102
RTVSPost2010Prop57
140
1.0
102
RTVSPost2010PropOp57
 70
     1
  0
XRECORD
  5
3CF
102
{ACAD_REACTORS
330
3CE
102
}
330
3CE
100
AcDbXrecord
280
     1
102
RTVSPropertyOp0
 70
     1
102
RTVSPropertyOp1
 70
     1
102
RTVSPropertyOp2
 70
     1
102
RTVSPropertyOp3
 70
     1
102
RTVSPropertyOp4
 70
     1
102
RTVSPropertyOp5
 70
     1
102
RTVSPropertyOp6
 70
     1
102
RTVSPropertyOp7
 70
     1
102
RTVSPropertyOp8
 70
     1
102
RTVSPropertyOp9
 70
     1
102
RTVSPropertyOp10
 70
     1
102
RTVSPropertyOp11
 70
     1
102
RTVSPropertyOp12
 70
     1
102
RTVSPropertyOp13
 70
     1
102
RTVSPropertyOp14
 70
     1
102
RTVSPropertyOp15
 70
     1
102
RTVSPropertyOp16
 70
     1
102
RTVSPropertyOp17
 70
     1
102
RTVSPropertyOp18
 70
     1
102
RTVSPropertyOp19
 70
     1
102
RTVSPropertyOp20
 70
     1
102
RTVSPropertyOp21
 70
     1
102
RTVSPropertyOp22
 70
     1
102
RTVSPropertyOp23
 70
     1
102
RTVSPropertyOp24
 70
     1
102
RTVSPropertyOp25
 70
     1
102
RTVSPropertyOp26
 70
     1
102
RTVSPropertyOp27
 70
     1
102
RTVSPropertyOp28
 70
     1
102
RTVSPropertyOp29
 70
     1
102
RTVSPropertyOp30
 70
     1
102
RTVSPropertyOp31
 70
     1
102
RTVSPropertyOp32
 70
     1
102
RTVSPropertyOp33
 70
     1
102
RTVSPropertyOp34
 70
     1
102
RTVSPropertyOp35
 70
     1
102
RTVSPropertyOp36
 70
     1
102
RTVSPropertyOp37
 70
     1
102
RTVSPropertyOp38
 70
     1
102
RTVSPropertyOp39
 70
     1
102
RTVSPropertyOp40
 70
     1
102
RTVSPropertyOp41
 70
     1
102
RTVSPropertyOp42
 70
     1
102
RTVSPropertyOp43
 70
     1
102
RTVSPropertyOp44
 70
     1
102
RTVSPropertyOp45
 70
     1
102
RTVSPropertyOp46
 70
     1
102
RTVSPropertyOp47
 70
     1
102
RTVSPropertyOp48
 70
     1
102
RTVSPropertyOp49
 70
     1
102
RTVSPropertyOp50
 70
     1
102
RTVSPropertyOp51
 70
     0
102
RTVSPropertyOp52
 70
     0
102
RTVSPropertyOp53
 70
     1
102
RTVSPropertyOp54
 70
     1
102
RTVSPropertyOp55
 70
     1
102
RTVSPropertyOp56
 70
     1
102
RTVSPropertyOp57
 70
     1
102
RTVSPost2010Prop28
280
     0
102
RTVSPost2010PropOp28
 70
     1
102
RTVSPost2010Prop29
280
     1
102
RTVSPost2010PropOp29
 70
     1
102
RTVSPost2010Prop30
280
     1
102
RTVSPost2010PropOp30
 70
     1
102
RTVSPost2010Prop31
280
     0
102
RTVSPost2010PropOp31
 70
     1
102
RTVSPost2010Prop32
280
     0
102
RTVSPost2010PropOp32
 70
     1
102
RTVSPost2010Prop33
280
     0
102
RTVSPost2010PropOp33
 70
     1
102
RTVSPost2010Prop34
280
     0
102
RTVSPost2010PropOp34
 70
     1
102
RTVSPost2010Prop35
280
     0
102
RTVSPost2010PropOp35
 70
     1
102
RTVSPost2010Prop36
280
     0
102
RTVSPost2010PropOp36
 70
     1
102
RTVSPost2010Prop37
 90
       50
102
RTVSPost2010PropOp37
 70
     1
102
RTVSPost2010Prop38
140
0.0
102
RTVSPost2010PropOp38
 70
     1
102
RTVSPost2010Prop39
140
1.0
102
RTVSPost2010PropOp39
 70
     1
102
RTVSPost2010Prop40
 90
        0
102
RTVSPost2010PropOp40
 70
     1
102
RTVSPost2010Prop41ColorIndex
 90
       18
102
RTVSPost2010Prop41ColorRGB
 90
        0
102
RTVSPost2010PropOp41
 70
     1
102
RTVSPost2010Prop42
 90
       50
102
RTVSPost2010PropOp42
 70
     1
102
RTVSPost2010Prop43
 90
        3
102
RTVSPost2010PropOp43
 70
     1
102
RTVSPost2010Prop44ColorIndex
 90
        5
102
RTVSPost2010Prop44ColorRGB
 90
      255
102
RTVSPost2010PropOp44
 70
     1
102
RTVSPost2010Prop45
280
     0
102
RTVSPost2010PropOp45
 70
     1
102
RTVSPost2010Prop46
 90
       50
102
RTVSPost2010PropOp46
 70
     1
102
RTVSPost2010Prop47
 90
       50
102
RTVSPost2010PropOp47
 70
     1
102
RTVSPost2010Prop48
 90
       50
102
RTVSPost2010PropOp48
 70
     1
102
RTVSPost2010Prop49
280
     0
102
RTVSPost2010PropOp49
 70
     1
102
RTVSPost2010Prop50
 90
       50
102
RTVSPost2010PropOp50
 70
     1
102
RTVSPost2010Prop51ColorIndex
 90
      256
102
RTVSPost2010Prop51ColorRGB
 90
-16777216
102
RTVSPost2010PropOp51
 70
     0
102
RTVSPost2010Prop52
140
1.0
102
RTVSPost2010PropOp52
 70
     0
102
RTVSPost2010Prop53
 90
        2
102
RTVSPost2010PropOp53
 70
     1
102
RTVSPost2010Prop54
  1
strokes_ogs.tif
102
RTVSPost2010PropOp54
 70
     1
102
RTVSPost2010Prop55
280
     0
102
RTVSPost2010PropOp55
 70
     1
102
RTVSPost2010Prop56
140
1.0
102
RTVSPost2010PropOp56
 70
     1
102
RTVSPost2010Prop57
140
1.0
102
RTVSPost2010PropOp57
 70
     1
  0
XRECORD
  5
3D1
102
{ACAD_REACTORS
330
3D0
102
}
330
3D0
100
AcDbXrecord
280
     1
102
RTVSPropertyOp0
 70
     1
102
RTVSPropertyOp1
 70
     1
102
RTVSPropertyOp2
 70
     1
102
RTVSPropertyOp3
 70
     1
102
RTVSPropertyOp4
 70
     1
102
RTVSPropertyOp5
 70
     1
102
RTVSPropertyOp6
 70
     1
102
RTVSPropertyOp7
 70
     1
102
RTVSPropertyOp8
 70
     1
102
RTVSPropertyOp9
 70
     1
102
RTVSPropertyOp10
 70
     1
102
RTVSPropertyOp11
 70
     1
102
RTVSPropertyOp12
 70
     1
102
RTVSPropertyOp13
 70
     1
102
RTVSPropertyOp14
 70
     1
102
RTVSPropertyOp15
 70
     1
102
RTVSPropertyOp16
 70
     1
102
RTVSPropertyOp17
 70
     1
102
RTVSPropertyOp18
 70
     1
102
RTVSPropertyOp19
 70
     1
102
RTVSPropertyOp20
 70
     1
102
RTVSPropertyOp21
 70
     1
102
RTVSPropertyOp22
 70
     1
102
RTVSPropertyOp23
 70
     1
102
RTVSPropertyOp24
 70
     1
102
RTVSPropertyOp25
 70
     1
102
RTVSPropertyOp26
 70
     1
102
RTVSPropertyOp27
 70
     1
102
RTVSPropertyOp28
 70
     1
102
RTVSPropertyOp29
 70
     1
102
RTVSPropertyOp30
 70
     1
102
RTVSPropertyOp31
 70
     1
102
RTVSPropertyOp32
 70
     1
102
RTVSPropertyOp33
 70
     1
102
RTVSPropertyOp34
 70
     1
102
RTVSPropertyOp35
 70
     1
102
RTVSPropertyOp36
 70
     1
102
RTVSPropertyOp37
 70
     1
102
RTVSPropertyOp38
 70
     1
102
RTVSPropertyOp39
 70
     1
102
RTVSPropertyOp40
 70
     1
102
RTVSPropertyOp41
 70
     1
102
RTVSPropertyOp42
 70
     1
102
RTVSPropertyOp43
 70
     1
102
RTVSPropertyOp44
 70
     1
102
RTVSPropertyOp45
 70
     1
102
RTVSPropertyOp46
 70
     1
102
RTVSPropertyOp47
 70
     1
102
RTVSPropertyOp48
 70
     1
102
RTVSPropertyOp49
 70
     1
102
RTVSPropertyOp50
 70
     1
102
RTVSPropertyOp51
 70
     0
102
RTVSPropertyOp52
 70
     0
102
RTVSPropertyOp53
 70
     1
102
RTVSPropertyOp54
 70
     1
102
RTVSPropertyOp55
 70
     1
102
RTVSPropertyOp56
 70
     1
102
RTVSPropertyOp57
 70
     1
102
RTVSPost2010Prop28
280
     0
102
RTVSPost2010PropOp28
 70
     1
102
RTVSPost2010Prop29
280
     1
102
RTVSPost2010PropOp29
 70
     1
102
RTVSPost2010Prop30
280
     1
102
RTVSPost2010PropOp30
 70
     1
102
RTVSPost2010Prop31
280
     0
102
RTVSPost2010PropOp31
 70
     1
102
RTVSPost2010Prop32
280
     0
102
RTVSPost2010PropOp32
 70
     1
102
RTVSPost2010Prop33
280
     0
102
RTVSPost2010PropOp33
 70
     1
102
RTVSPost2010Prop34
280
     0
102
RTVSPost2010PropOp34
 70
     1
102
RTVSPost2010Prop35
280
     0
102
RTVSPost2010PropOp35
 70
     1
102
RTVSPost2010Prop36
280
     0
102
RTVSPost2010PropOp36
 70
     1
102
RTVSPost2010Prop37
 90
       50
102
RTVSPost2010PropOp37
 70
     1
102
RTVSPost2010Prop38
140
0.0
102
RTVSPost2010PropOp38
 70
     1
102
RTVSPost2010Prop39
140
1.0
102
RTVSPost2010PropOp39
 70
     1
102
RTVSPost2010Prop40
 90
        0
102
RTVSPost2010PropOp40
 70
     1
102
RTVSPost2010Prop41ColorIndex
 90
       18
102
RTVSPost2010Prop41ColorRGB
 90
        0
102
RTVSPost2010PropOp41
 70
     1
102
RTVSPost2010Prop42
 90
       50
102
RTVSPost2010PropOp42
 70
     1
102
RTVSPost2010Prop43
 90
        3
102
RTVSPost2010PropOp43
 70
     1
102
RTVSPost2010Prop44ColorIndex
 90
        5
102
RTVSPost2010Prop44ColorRGB
 90
      255
102
RTVSPost2010PropOp44
 70
     1
102
RTVSPost2010Prop45
280
     0
102
RTVSPost2010PropOp45
 70
     1
102
RTVSPost2010Prop46
 90
       50
102
RTVSPost2010PropOp46
 70
     1
102
RTVSPost2010Prop47
 90
       50
102
RTVSPost2010PropOp47
 70
     1
102
RTVSPost2010Prop48
 90
       50
102
RTVSPost2010PropOp48
 70
     1
102
RTVSPost2010Prop49
280
     0
102
RTVSPost2010PropOp49
 70
     1
102
RTVSPost2010Prop50
 90
       50
102
RTVSPost2010PropOp50
 70
     1
102
RTVSPost2010Prop51ColorIndex
 90
      256
102
RTVSPost2010Prop51ColorRGB
 90
-16777216
102
RTVSPost2010PropOp51
 70
     0
102
RTVSPost2010Prop52
140
1.0
102
RTVSPost2010PropOp52
 70
     0
102
RTVSPost2010Prop53
 90
        2
102
RTVSPost2010PropOp53
 70
     1
102
RTVSPost2010Prop54
  1
strokes_ogs.tif
102
RTVSPost2010PropOp54
 70
     1
102
RTVSPost2010Prop55
280
     0
102
RTVSPost2010PropOp55
 70
     1
102
RTVSPost2010Prop56
140
1.0
102
RTVSPost2010PropOp56
 70
     1
102
RTVSPost2010Prop57
140
1.0
102
RTVSPost2010PropOp57
 70
     1
  0
XRECORD
  5
3C1
102
{ACAD_REACTORS
330
3C0
102
}
330
3C0
100
AcDbXrecord
280
     1
102
RTVSPropertyOp0
 70
     1
102
RTVSPropertyOp1
 70
     1
102
RTVSPropertyOp2
 70
     1
102
RTVSPropertyOp3
 70
     1
102
RTVSPropertyOp4
 70
     1
102
RTVSPropertyOp5
 70
     1
102
RTVSPropertyOp6
 70
     1
102
RTVSPropertyOp7
 70
     1
102
RTVSPropertyOp8
 70
     1
102
RTVSPropertyOp9
 70
     1
102
RTVSPropertyOp10
 70
     1
102
RTVSPropertyOp11
 70
     1
102
RTVSPropertyOp12
 70
     1
102
RTVSPropertyOp13
 70
     1
102
RTVSPropertyOp14
 70
     1
102
RTVSPropertyOp15
 70
     1
102
RTVSPropertyOp16
 70
     1
102
RTVSPropertyOp17
 70
     1
102
RTVSPropertyOp18
 70
     1
102
RTVSPropertyOp19
 70
     1
102
RTVSPropertyOp20
 70
     1
102
RTVSPropertyOp21
 70
     1
102
RTVSPropertyOp22
 70
     1
102
RTVSPropertyOp23
 70
     1
102
RTVSPropertyOp24
 70
     1
102
RTVSPropertyOp25
 70
     1
102
RTVSPropertyOp26
 70
     1
102
RTVSPropertyOp27
 70
     1
102
RTVSPropertyOp28
 70
     1
102
RTVSPropertyOp29
 70
     1
102
RTVSPropertyOp30
 70
     1
102
RTVSPropertyOp31
 70
     1
102
RTVSPropertyOp32
 70
     1
102
RTVSPropertyOp33
 70
     1
102
RTVSPropertyOp34
 70
     1
102
RTVSPropertyOp35
 70
     1
102
RTVSPropertyOp36
 70
     1
102
RTVSPropertyOp37
 70
     1
102
RTVSPropertyOp38
 70
     1
102
RTVSPropertyOp39
 70
     1
102
RTVSPropertyOp40
 70
     1
102
RTVSPropertyOp41
 70
     1
102
RTVSPropertyOp42
 70
     1
102
RTVSPropertyOp43
 70
     1
102
RTVSPropertyOp44
 70
     1
102
RTVSPropertyOp45
 70
     1
102
RTVSPropertyOp46
 70
     1
102
RTVSPropertyOp47
 70
     1
102
RTVSPropertyOp48
 70
     1
102
RTVSPropertyOp49
 70
     1
102
RTVSPropertyOp50
 70
     1
102
RTVSPropertyOp51
 70
     0
102
RTVSPropertyOp52
 70
     0
102
RTVSPropertyOp53
 70
     1
102
RTVSPropertyOp54
 70
     1
102
RTVSPropertyOp55
 70
     1
102
RTVSPropertyOp56
 70
     1
102
RTVSPropertyOp57
 70
     1
102
RTVSPost2010Prop28
280
     0
102
RTVSPost2010PropOp28
 70
     1
102
RTVSPost2010Prop29
280
     1
102
RTVSPost2010PropOp29
 70
     1
102
RTVSPost2010Prop30
280
     1
102
RTVSPost2010PropOp30
 70
     1
102
RTVSPost2010Prop31
280
     0
102
RTVSPost2010PropOp31
 70
     1
102
RTVSPost2010Prop32
280
     0
102
RTVSPost2010PropOp32
 70
     1
102
RTVSPost2010Prop33
280
     0
102
RTVSPost2010PropOp33
 70
     1
102
RTVSPost2010Prop34
280
     0
102
RTVSPost2010PropOp34
 70
     1
102
RTVSPost2010Prop35
280
     0
102
RTVSPost2010PropOp35
 70
     1
102
RTVSPost2010Prop36
280
     0
102
RTVSPost2010PropOp36
 70
     1
102
RTVSPost2010Prop37
 90
       50
102
RTVSPost2010PropOp37
 70
     1
102
RTVSPost2010Prop38
140
0.0
102
RTVSPost2010PropOp38
 70
     1
102
RTVSPost2010Prop39
140
1.0
102
RTVSPost2010PropOp39
 70
     1
102
RTVSPost2010Prop40
 90
        0
102
RTVSPost2010PropOp40
 70
     1
102
RTVSPost2010Prop41ColorIndex
 90
       18
102
RTVSPost2010Prop41ColorRGB
 90
        0
102
RTVSPost2010PropOp41
 70
     1
102
RTVSPost2010Prop42
 90
       50
102
RTVSPost2010PropOp42
 70
     1
102
RTVSPost2010Prop43
 90
        3
102
RTVSPost2010PropOp43
 70
     1
102
RTVSPost2010Prop44ColorIndex
 90
        5
102
RTVSPost2010Prop44ColorRGB
 90
      255
102
RTVSPost2010PropOp44
 70
     1
102
RTVSPost2010Prop45
280
     0
102
RTVSPost2010PropOp45
 70
     1
102
RTVSPost2010Prop46
 90
       50
102
RTVSPost2010PropOp46
 70
     1
102
RTVSPost2010Prop47
 90
       50
102
RTVSPost2010PropOp47
 70
     1
102
RTVSPost2010Prop48
 90
       50
102
RTVSPost2010PropOp48
 70
     1
102
RTVSPost2010Prop49
280
     0
102
RTVSPost2010PropOp49
 70
     1
102
RTVSPost2010Prop50
 90
       50
102
RTVSPost2010PropOp50
 70
     1
102
RTVSPost2010Prop51ColorIndex
 90
      256
102
RTVSPost2010Prop51ColorRGB
 90
-16777216
102
RTVSPost2010PropOp51
 70
     0
102
RTVSPost2010Prop52
140
1.0
102
RTVSPost2010PropOp52
 70
     0
102
RTVSPost2010Prop53
 90
        2
102
RTVSPost2010PropOp53
 70
     1
102
RTVSPost2010Prop54
  1
strokes_ogs.tif
102
RTVSPost2010PropOp54
 70
     1
102
RTVSPost2010Prop55
280
     0
102
RTVSPost2010PropOp55
 70
     1
102
RTVSPost2010Prop56
140
1.0
102
RTVSPost2010PropOp56
 70
     1
102
RTVSPost2010Prop57
140
1.0
102
RTVSPost2010PropOp57
 70
     1
  0
XRECORD
  5
3B3
102
{ACAD_REACTORS
330
3B2
102
}
330
3B2
100
AcDbXrecord
280
     1
102
RTVSPropertyOp0
 70
     1
102
RTVSPropertyOp1
 70
     1
102
RTVSPropertyOp2
 70
     1
102
RTVSPropertyOp3
 70
     1
102
RTVSPropertyOp4
 70
     1
102
RTVSPropertyOp5
 70
     1
102
RTVSPropertyOp6
 70
     1
102
RTVSPropertyOp7
 70
     1
102
RTVSPropertyOp8
 70
     1
102
RTVSPropertyOp9
 70
     1
102
RTVSPropertyOp10
 70
     1
102
RTVSPropertyOp11
 70
     1
102
RTVSPropertyOp12
 70
     1
102
RTVSPropertyOp13
 70
     1
102
RTVSPropertyOp14
 70
     1
102
RTVSPropertyOp15
 70
     1
102
RTVSPropertyOp16
 70
     1
102
RTVSPropertyOp17
 70
     1
102
RTVSPropertyOp18
 70
     1
102
RTVSPropertyOp19
 70
     1
102
RTVSPropertyOp20
 70
     1
102
RTVSPropertyOp21
 70
     1
102
RTVSPropertyOp22
 70
     1
102
RTVSPropertyOp23
 70
     1
102
RTVSPropertyOp24
 70
     1
102
RTVSPropertyOp25
 70
     1
102
RTVSPropertyOp26
 70
     1
102
RTVSPropertyOp27
 70
     1
102
RTVSPropertyOp28
 70
     1
102
RTVSPropertyOp29
 70
     1
102
RTVSPropertyOp30
 70
     1
102
RTVSPropertyOp31
 70
     1
102
RTVSPropertyOp32
 70
     1
102
RTVSPropertyOp33
 70
     1
102
RTVSPropertyOp34
 70
     1
102
RTVSPropertyOp35
 70
     1
102
RTVSPropertyOp36
 70
     1
102
RTVSPropertyOp37
 70
     1
102
RTVSPropertyOp38
 70
     1
102
RTVSPropertyOp39
 70
     1
102
RTVSPropertyOp40
 70
     1
102
RTVSPropertyOp41
 70
     1
102
RTVSPropertyOp42
 70
     1
102
RTVSPropertyOp43
 70
     1
102
RTVSPropertyOp44
 70
     1
102
RTVSPropertyOp45
 70
     1
102
RTVSPropertyOp46
 70
     1
102
RTVSPropertyOp47
 70
     1
102
RTVSPropertyOp48
 70
     1
102
RTVSPropertyOp49
 70
     1
102
RTVSPropertyOp50
 70
     1
102
RTVSPropertyOp51
 70
     0
102
RTVSPropertyOp52
 70
     0
102
RTVSPropertyOp53
 70
     1
102
RTVSPropertyOp54
 70
     1
102
RTVSPropertyOp55
 70
     1
102
RTVSPropertyOp56
 70
     1
102
RTVSPropertyOp57
 70
     1
102
RTVSPost2010Prop28
280
     0
102
RTVSPost2010PropOp28
 70
     1
102
RTVSPost2010Prop29
280
     1
102
RTVSPost2010PropOp29
 70
     1
102
RTVSPost2010Prop30
280
     1
102
RTVSPost2010PropOp30
 70
     1
102
RTVSPost2010Prop31
280
     0
102
RTVSPost2010PropOp31
 70
     1
102
RTVSPost2010Prop32
280
     0
102
RTVSPost2010PropOp32
 70
     1
102
RTVSPost2010Prop33
280
     0
102
RTVSPost2010PropOp33
 70
     1
102
RTVSPost2010Prop34
280
     0
102
RTVSPost2010PropOp34
 70
     1
102
RTVSPost2010Prop35
280
     0
102
RTVSPost2010PropOp35
 70
     1
102
RTVSPost2010Prop36
280
     0
102
RTVSPost2010PropOp36
 70
     1
102
RTVSPost2010Prop37
 90
       50
102
RTVSPost2010PropOp37
 70
     1
102
RTVSPost2010Prop38
140
0.0
102
RTVSPost2010PropOp38
 70
     1
102
RTVSPost2010Prop39
140
1.0
102
RTVSPost2010PropOp39
 70
     1
102
RTVSPost2010Prop40
 90
        0
102
RTVSPost2010PropOp40
 70
     1
102
RTVSPost2010Prop41ColorIndex
 90
       18
102
RTVSPost2010Prop41ColorRGB
 90
        0
102
RTVSPost2010PropOp41
 70
     1
102
RTVSPost2010Prop42
 90
       50
102
RTVSPost2010PropOp42
 70
     1
102
RTVSPost2010Prop43
 90
        3
102
RTVSPost2010PropOp43
 70
     1
102
RTVSPost2010Prop44ColorIndex
 90
        5
102
RTVSPost2010Prop44ColorRGB
 90
      255
102
RTVSPost2010PropOp44
 70
     1
102
RTVSPost2010Prop45
280
     0
102
RTVSPost2010PropOp45
 70
     1
102
RTVSPost2010Prop46
 90
       50
102
RTVSPost2010PropOp46
 70
     1
102
RTVSPost2010Prop47
 90
       50
102
RTVSPost2010PropOp47
 70
     1
102
RTVSPost2010Prop48
 90
       50
102
RTVSPost2010PropOp48
 70
     1
102
RTVSPost2010Prop49
280
     0
102
RTVSPost2010PropOp49
 70
     1
102
RTVSPost2010Prop50
 90
       50
102
RTVSPost2010PropOp50
 70
     1
102
RTVSPost2010Prop51ColorIndex
 90
      256
102
RTVSPost2010Prop51ColorRGB
 90
-16777216
102
RTVSPost2010PropOp51
 70
     0
102
RTVSPost2010Prop52
140
1.0
102
RTVSPost2010PropOp52
 70
     0
102
RTVSPost2010Prop53
 90
        2
102
RTVSPost2010PropOp53
 70
     1
102
RTVSPost2010Prop54
  1
strokes_ogs.tif
102
RTVSPost2010PropOp54
 70
     1
102
RTVSPost2010Prop55
280
     0
102
RTVSPost2010PropOp55
 70
     1
102
RTVSPost2010Prop56
140
1.0
102
RTVSPost2010PropOp56
 70
     1
102
RTVSPost2010Prop57
140
1.0
102
RTVSPost2010PropOp57
 70
     1
  0
XRECORD
  5
3D3
102
{ACAD_REACTORS
330
3D2
102
}
330
3D2
100
AcDbXrecord
280
     1
102
RTVSPropertyOp0
 70
     1
102
RTVSPropertyOp1
 70
     1
102
RTVSPropertyOp2
 70
     1
102
RTVSPropertyOp3
 70
     1
102
RTVSPropertyOp4
 70
     1
102
RTVSPropertyOp5
 70
     1
102
RTVSPropertyOp6
 70
     1
102
RTVSPropertyOp7
 70
     1
102
RTVSPropertyOp8
 70
     1
102
RTVSPropertyOp9
 70
     1
102
RTVSPropertyOp10
 70
     1
102
RTVSPropertyOp11
 70
     1
102
RTVSPropertyOp12
 70
     1
102
RTVSPropertyOp13
 70
     1
102
RTVSPropertyOp14
 70
     1
102
RTVSPropertyOp15
 70
     1
102
RTVSPropertyOp16
 70
     1
102
RTVSPropertyOp17
 70
     1
102
RTVSPropertyOp18
 70
     1
102
RTVSPropertyOp19
 70
     1
102
RTVSPropertyOp20
 70
     1
102
RTVSPropertyOp21
 70
     1
102
RTVSPropertyOp22
 70
     1
102
RTVSPropertyOp23
 70
     1
102
RTVSPropertyOp24
 70
     1
102
RTVSPropertyOp25
 70
     1
102
RTVSPropertyOp26
 70
     1
102
RTVSPropertyOp27
 70
     1
102
RTVSPropertyOp28
 70
     1
102
RTVSPropertyOp29
 70
     1
102
RTVSPropertyOp30
 70
     1
102
RTVSPropertyOp31
 70
     1
102
RTVSPropertyOp32
 70
     1
102
RTVSPropertyOp33
 70
     1
102
RTVSPropertyOp34
 70
     1
102
RTVSPropertyOp35
 70
     1
102
RTVSPropertyOp36
 70
     1
102
RTVSPropertyOp37
 70
     1
102
RTVSPropertyOp38
 70
     1
102
RTVSPropertyOp39
 70
     1
102
RTVSPropertyOp40
 70
     1
102
RTVSPropertyOp41
 70
     1
102
RTVSPropertyOp42
 70
     1
102
RTVSPropertyOp43
 70
     1
102
RTVSPropertyOp44
 70
     1
102
RTVSPropertyOp45
 70
     1
102
RTVSPropertyOp46
 70
     1
102
RTVSPropertyOp47
 70
     1
102
RTVSPropertyOp48
 70
     1
102
RTVSPropertyOp49
 70
     1
102
RTVSPropertyOp50
 70
     1
102
RTVSPropertyOp51
 70
     0
102
RTVSPropertyOp52
 70
     0
102
RTVSPropertyOp53
 70
     1
102
RTVSPropertyOp54
 70
     1
102
RTVSPropertyOp55
 70
     1
102
RTVSPropertyOp56
 70
     1
102
RTVSPropertyOp57
 70
     1
102
RTVSPost2010Prop28
280
     0
102
RTVSPost2010PropOp28
 70
     1
102
RTVSPost2010Prop29
280
     1
102
RTVSPost2010PropOp29
 70
     1
102
RTVSPost2010Prop30
280
     1
102
RTVSPost2010PropOp30
 70
     1
102
RTVSPost2010Prop31
280
     0
102
RTVSPost2010PropOp31
 70
     1
102
RTVSPost2010Prop32
280
     0
102
RTVSPost2010PropOp32
 70
     1
102
RTVSPost2010Prop33
280
     0
102
RTVSPost2010PropOp33
 70
     1
102
RTVSPost2010Prop34
280
     0
102
RTVSPost2010PropOp34
 70
     1
102
RTVSPost2010Prop35
280
     0
102
RTVSPost2010PropOp35
 70
     1
102
RTVSPost2010Prop36
280
     0
102
RTVSPost2010PropOp36
 70
     1
102
RTVSPost2010Prop37
 90
       50
102
RTVSPost2010PropOp37
 70
     1
102
RTVSPost2010Prop38
140
0.0
102
RTVSPost2010PropOp38
 70
     1
102
RTVSPost2010Prop39
140
1.0
102
RTVSPost2010PropOp39
 70
     1
102
RTVSPost2010Prop40
 90
        0
102
RTVSPost2010PropOp40
 70
     1
102
RTVSPost2010Prop41ColorIndex
 90
       18
102
RTVSPost2010Prop41ColorRGB
 90
        0
102
RTVSPost2010PropOp41
 70
     1
102
RTVSPost2010Prop42
 90
       50
102
RTVSPost2010PropOp42
 70
     1
102
RTVSPost2010Prop43
 90
        3
102
RTVSPost2010PropOp43
 70
     1
102
RTVSPost2010Prop44ColorIndex
 90
        5
102
RTVSPost2010Prop44ColorRGB
 90
      255
102
RTVSPost2010PropOp44
 70
     1
102
RTVSPost2010Prop45
280
     0
102
RTVSPost2010PropOp45
 70
     1
102
RTVSPost2010Prop46
 90
       50
102
RTVSPost2010PropOp46
 70
     1
102
RTVSPost2010Prop47
 90
       50
102
RTVSPost2010PropOp47
 70
     1
102
RTVSPost2010Prop48
 90
       50
102
RTVSPost2010PropOp48
 70
     1
102
RTVSPost2010Prop49
280
     0
102
RTVSPost2010PropOp49
 70
     1
102
RTVSPost2010Prop50
 90
       50
102
RTVSPost2010PropOp50
 70
     1
102
RTVSPost2010Prop51ColorIndex
 90
      256
102
RTVSPost2010Prop51ColorRGB
 90
-16777216
102
RTVSPost2010PropOp51
 70
     0
102
RTVSPost2010Prop52
140
1.0
102
RTVSPost2010PropOp52
 70
     0
102
RTVSPost2010Prop53
 90
        2
102
RTVSPost2010PropOp53
 70
     1
102
RTVSPost2010Prop54
  1
strokes_ogs.tif
102
RTVSPost2010PropOp54
 70
     1
102
RTVSPost2010Prop55
280
     0
102
RTVSPost2010PropOp55
 70
     1
102
RTVSPost2010Prop56
140
1.0
102
RTVSPost2010PropOp56
 70
     1
102
RTVSPost2010Prop57
140
1.0
102
RTVSPost2010PropOp57
 70
     1
  0
ENDSEC
  0
EOF
