  0
SECTION
  2
HEADER
  9
$ACADVER
  1
AC1015
  9
$ACADMAINTVER
 70
     6
  9
$DWGCODEPAGE
  3
ANSI_932
  9
$INSBASE
 10
0.0
 20
0.0
 30
0.0
  9
$EXTMIN
 10
-127.000000000012
 20
-39.2654620608523
 30
0.0
  9
$EXTMAX
 10
81.1545475859283
 20
140.74302255828
 30
0.0
  9
$LIMMIN
 10
0.0
 20
0.0
  9
$LIMMAX
 10
12.0
 20
9.0
  9
$ORTHOMODE
 70
     0
  9
$REGENMODE
 70
     1
  9
$FILLMODE
 70
     1
  9
$QTEXTMODE
 70
     0
  9
$MIRRTEXT
 70
     1
  9
$LTSCALE
 40
1.0
  9
$ATTMODE
 70
     1
  9
$TEXTSIZE
 40
0.2
  9
$TRACEWID
 40
0.05
  9
$TEXTSTYLE
  7
Standard
  9
$CLAYER
  8
0
  9
$CELTYPE
  6
ByLayer
  9
$CECOLOR
 62
   256
  9
$CELTSCALE
 40
1.0
  9
$DISPSILH
 70
     0
  9
$DIMSCALE
 40
1.0
  9
$DIMASZ
 40
0.18
  9
$DIMEXO
 40
0.0625
  9
$DIMDLI
 40
0.38
  9
$DIMRND
 40
0.0
  9
$DIMDLE
 40
0.0
  9
$DIMEXE
 40
0.18
  9
$DIMTP
 40
0.0
  9
$DIMTM
 40
0.0
  9
$DIMTXT
 40
0.18
  9
$DIMCEN
 40
0.09
  9
$DIMTSZ
 40
0.0
  9
$DIMTOL
 70
     0
  9
$DIMLIM
 70
     0
  9
$DIMTIH
 70
     1
  9
$DIMTOH
 70
     1
  9
$DIMSE1
 70
     0
  9
$DIMSE2
 70
     0
  9
$DIMTAD
 70
     0
  9
$DIMZIN
 70
     0
  9
$DIMBLK
  1

  9
$DIMASO
 70
     1
  9
$DIMSHO
 70
     1
  9
$DIMPOST
  1

  9
$DIMAPOST
  1

  9
$DIMALT
 70
     0
  9
$DIMALTD
 70
     2
  9
$DIMALTF
 40
25.4
  9
$DIMLFAC
 40
1.0
  9
$DIMTOFL
 70
     0
  9
$DIMTVP
 40
0.0
  9
$DIMTIX
 70
     0
  9
$DIMSOXD
 70
     0
  9
$DIMSAH
 70
     0
  9
$DIMBLK1
  1

  9
$DIMBLK2
  1

  9
$DIMSTYLE
  2
Standard
  9
$DIMCLRD
 70
     0
  9
$DIMCLRE
 70
     0
  9
$DIMCLRT
 70
     0
  9
$DIMTFAC
 40
1.0
  9
$DIMGAP
 40
0.09
  9
$DIMJUST
 70
     0
  9
$DIMSD1
 70
     0
  9
$DIMSD2
 70
     0
  9
$DIMTOLJ
 70
     1
  9
$DIMTZIN
 70
     0
  9
$DIMALTZ
 70
     0
  9
$DIMALTTZ
 70
     0
  9
$DIMUPT
 70
     0
  9
$DIMDEC
 70
     4
  9
$DIMTDEC
 70
     4
  9
$DIMALTU
 70
     2
  9
$DIMALTTD
 70
     2
  9
$DIMTXSTY
  7
Standard
  9
$DIMAUNIT
 70
     0
  9
$DIMADEC
 70
     0
  9
$DIMALTRND
 40
0.0
  9
$DIMAZIN
 70
     0
  9
$DIMDSEP
 70
    46
  9
$DIMATFIT
 70
     3
  9
$DIMFRAC
 70
     0
  9
$DIMLDRBLK
  1

  9
$DIMLUNIT
 70
     2
  9
$DIMLWD
 70
    -2
  9
$DIMLWE
 70
    -2
  9
$DIMTMOVE
 70
     0
  9
$LUNITS
 70
     2
  9
$LUPREC
 70
     4
  9
$SKETCHINC
 40
0.1
  9
$FILLETRAD
 40
0.5
  9
$AUNITS
 70
     0
  9
$AUPREC
 70
     0
  9
$MENU
  1
.
  9
$ELEVATION
 40
0.0
  9
$PELEVATION
 40
0.0
  9
$THICKNESS
 40
0.0
  9
$LIMCHECK
 70
     0
  9
$CHAMFERA
 40
0.0
  9
$CHAMFERB
 40
0.0
  9
$CHAMFERC
 40
0.0
  9
$CHAMFERD
 40
0.0
  9
$SKPOLY
 70
     0
  9
$TDCREATE
 40
2458080.397203461
  9
$TDUCREATE
 40
2458080.022203461
  9
$TDUPDATE
 40
2458080.397204908
  9
$TDUUPDATE
 40
2458080.022204908
  9
$TDINDWG
 40
0.0000000116
  9
$TDUSRTIMER
 40
0.0000000116
  9
$USRTIMER
 70
     1
  9
$ANGBASE
 50
0.0
  9
$ANGDIR
 70
     0
  9
$PDMODE
 70
     0
  9
$PDSIZE
 40
0.0
  9
$PLINEWID
 40
0.0
  9
$SPLFRAME
 70
     0
  9
$SPLINETYPE
 70
     6
  9
$SPLINESEGS
 70
     8
  9
$HANDSEED
  5
3B3
  9
$SURFTAB1
 70
     6
  9
$SURFTAB2
 70
     6
  9
$SURFTYPE
 70
     6
  9
$SURFU
 70
     6
  9
$SURFV
 70
     6
  9
$UCSBASE
  2

  9
$UCSNAME
  2

  9
$UCSORG
 10
0.0
 20
0.0
 30
0.0
  9
$UCSXDIR
 10
1.0
 20
0.0
 30
0.0
  9
$UCSYDIR
 10
0.0
 20
1.0
 30
0.0
  9
$UCSORTHOREF
  2

  9
$UCSORTHOVIEW
 70
     0
  9
$UCSORGTOP
 10
0.0
 20
0.0
 30
0.0
  9
$UCSORGBOTTOM
 10
0.0
 20
0.0
 30
0.0
  9
$UCSORGLEFT
 10
0.0
 20
0.0
 30
0.0
  9
$UCSORGRIGHT
 10
0.0
 20
0.0
 30
0.0
  9
$UCSORGFRONT
 10
0.0
 20
0.0
 30
0.0
  9
$UCSORGBACK
 10
0.0
 20
0.0
 30
0.0
  9
$PUCSBASE
  2

  9
$PUCSNAME
  2

  9
$PUCSORG
 10
0.0
 20
0.0
 30
0.0
  9
$PUCSXDIR
 10
1.0
 20
0.0
 30
0.0
  9
$PUCSYDIR
 10
0.0
 20
1.0
 30
0.0
  9
$PUCSORTHOREF
  2

  9
$PUCSORTHOVIEW
 70
     0
  9
$PUCSORGTOP
 10
0.0
 20
0.0
 30
0.0
  9
$PUCSORGBOTTOM
 10
0.0
 20
0.0
 30
0.0
  9
$PUCSORGLEFT
 10
0.0
 20
0.0
 30
0.0
  9
$PUCSORGRIGHT
 10
0.0
 20
0.0
 30
0.0
  9
$PUCSORGFRONT
 10
0.0
 20
0.0
 30
0.0
  9
$PUCSORGBACK
 10
0.0
 20
0.0
 30
0.0
  9
$USERI1
 70
     0
  9
$USERI2
 70
     0
  9
$USERI3
 70
     0
  9
$USERI4
 70
     0
  9
$USERI5
 70
     0
  9
$USERR1
 40
19.0
  9
$USERR2
 40
0.0
  9
$USERR3
 40
0.0
  9
$USERR4
 40
0.0
  9
$USERR5
 40
0.0
  9
$WORLDVIEW
 70
     1
  9
$SHADEDGE
 70
     3
  9
$SHADEDIF
 70
    70
  9
$TILEMODE
 70
     1
  9
$MAXACTVP
 70
    64
  9
$PINSBASE
 10
0.0
 20
0.0
 30
0.0
  9
$PLIMCHECK
 70
     0
  9
$PEXTMIN
 10
1.00000000000000E+20
 20
1.00000000000000E+20
 30
1.00000000000000E+20
  9
$PEXTMAX
 10
-1.00000000000000E+20
 20
-1.00000000000000E+20
 30
-1.00000000000000E+20
  9
$PLIMMIN
 10
0.0
 20
0.0
  9
$PLIMMAX
 10
12.0
 20
9.0
  9
$UNITMODE
 70
     0
  9
$VISRETAIN
 70
     1
  9
$PLINEGEN
 70
     0
  9
$PSLTSCALE
 70
     1
  9
$TREEDEPTH
 70
  3020
  9
$CMLSTYLE
  2
Standard
  9
$CMLJUST
 70
     0
  9
$CMLSCALE
 40
1.0
  9
$PROXYGRAPHICS
 70
     1
  9
$MEASUREMENT
 70
     1
  9
$CELWEIGHT
370
    -1
  9
$ENDCAPS
280
     0
  9
$JOINSTYLE
280
     0
  9
$LWDISPLAY
290
     0
  9
$INSUNITS
 70
     4
  9
$HYPERLINKBASE
  1

  9
$STYLESHEET
  1

  9
$XEDIT
290
     1
  9
$CEPSNTYPE
380
     0
  9
$PSTYLEMODE
290
     1
  9
$FINGERPRINTGUID
  2
{649E34D2-85A5-49E5-85E7-CC472444EBC6}
  9
$VERSIONGUID
  2
{FAEB1C32-E019-11D5-929B-00C0DF256EC4}
  9
$EXTNAMES
290
     1
  9
$PSVPSCALE
 40
0.0
  9
$OLESTARTUP
290
     0
  0
ENDSEC
  0
SECTION
  2
CLASSES
  0
CLASS
  1
ACDBDICTIONARYWDFLT
  2
AcDbDictionaryWithDefault
  3
ObjectDBX Classes
 90
        0
280
     0
281
     0
  0
CLASS
  1
VISUALSTYLE
  2
AcDbVisualStyle
  3
ObjectDBX Classes
 90
     4095
280
     0
281
     0
  0
CLASS
  1
MATERIAL
  2
AcDbMaterial
  3
ObjectDBX Classes
 90
     1153
280
     0
281
     0
  0
CLASS
  1
SCALE
  2
AcDbScale
  3
ObjectDBX Classes
 90
     1153
280
     0
281
     0
  0
CLASS
  1
SUN
  2
AcDbSun
  3
SCENEOE
 90
     1153
280
     0
281
     0
  0
CLASS
  1
DICTIONARYVAR
  2
AcDbDictionaryVar
  3
ObjectDBX Classes
 90
        0
280
     0
281
     0
  0
CLASS
  1
ACDBPLACEHOLDER
  2
AcDbPlaceHolder
  3
ObjectDBX Classes
 90
        0
280
     0
281
     0
  0
CLASS
  1
LAYOUT
  2
AcDbLayout
  3
ObjectDBX Classes
 90
        0
280
     0
281
     0
  0
ENDSEC
  0
SECTION
  2
TABLES
  0
TABLE
  2
VPORT
  5
8
330
0
100
AcDbSymbolTable
 70
     1
  0
VPORT
  5
29
330
8
100
AcDbSymbolTableRecord
100
AcDbViewportTableRecord
  2
*Active
 70
     0
 10
0.0
 20
0.0
 11
1.0
 21
1.0
 12
-22.92272620704185
 22
50.73878024871384
 13
0.0
 23
0.0
 14
0.5
 24
0.5
 15
0.5
 25
0.5
 16
0.0
 26
0.0
 36
1.0
 17
0.0
 27
0.0
 37
0.0
 40
198.0093330810455
 41
1.60267857142857
 42
50.0
 43
0.0
 44
0.0
 50
0.0
 51
0.0
 71
     0
 72
   100
 73
     1
 74
     3
 75
     0
 76
     0
 77
     0
 78
     0
281
     0
 65
     1
110
0.0
120
0.0
130
0.0
111
1.0
121
0.0
131
0.0
112
0.0
122
1.0
132
0.0
 79
     0
146
0.0
  0
ENDTAB
  0
TABLE
  2
LTYPE
  5
5
330
0
100
AcDbSymbolTable
 70
     8
  0
LTYPE
  5
14
330
5
100
AcDbSymbolTableRecord
100
AcDbLinetypeTableRecord
  2
ByBlock
 70
     0
  3

 72
    65
 73
     0
 40
0.0
  0
LTYPE
  5
15
330
5
100
AcDbSymbolTableRecord
100
AcDbLinetypeTableRecord
  2
ByLayer
 70
     0
  3

 72
    65
 73
     0
 40
0.0
  0
LTYPE
  5
16
330
5
100
AcDbSymbolTableRecord
100
AcDbLinetypeTableRecord
  2
Continuous
 70
     0
  3
Solid line
 72
    65
 73
     0
 40
0.0
  0
LTYPE
  5
6A
330
5
100
AcDbSymbolTableRecord
100
AcDbLinetypeTableRecord
  2
DASHED
 70
     0
  3
Dashed
 72
    65
 73
     2
 40
15.0
 49
7.0
 74
     0
 49
-8.0
 74
     0
  0
LTYPE
  5
6B
330
5
100
AcDbSymbolTableRecord
100
AcDbLinetypeTableRecord
  2
DOTTED
 70
     0
  3
Dotted
 72
    65
 73
     2
 40
1.0
 49
0.0
 74
     0
 49
-1.0
 74
     0
  0
LTYPE
  5
6C
330
5
100
AcDbSymbolTableRecord
100
AcDbLinetypeTableRecord
  2
DOT_CENTER
 70
     0
  3
Dot_Center
 72
    65
 73
     4
 40
14.0
 49
12.0
 74
     0
 49
-1.0
 74
     0
 49
0.0
 74
     0
 49
-1.0
 74
     0
  0
LTYPE
  5
6D
330
5
100
AcDbSymbolTableRecord
100
AcDbLinetypeTableRecord
  2
LONG_DASHED
 70
     0
  3
Long_Dashed
 72
    65
 73
     2
 40
15.0
 49
10.0
 74
     0
 49
-5.0
 74
     0
  0
LTYPE
  5
6E
330
5
100
AcDbSymbolTableRecord
100
AcDbLinetypeTableRecord
  2
DASH_CENTER
 70
     0
  3
Dash_Center
 72
    65
 73
     4
 40
14.0
 49
11.0
 74
     0
 49
-1.0
 74
     0
 49
1.0
 74
     0
 49
-1.0
 74
     0
  0
LTYPE
  5
6F
330
5
100
AcDbSymbolTableRecord
100
AcDbLinetypeTableRecord
  2
PHANTOM
 70
     0
  3
Phantom
 72
    65
 73
     6
 40
13.0
 49
10.0
 74
     0
 49
-1.0
 74
     0
 49
0.0
 74
     0
 49
-1.0
 74
     0
 49
0.0
 74
     0
 49
-1.0
 74
     0
  0
LTYPE
  5
70
330
5
100
AcDbSymbolTableRecord
100
AcDbLinetypeTableRecord
  2
CENTER_DASH_DASH
 70
     0
  3
Center_Dash_Dash
 72
    65
 73
     6
 40
14.0
 49
9.0
 74
     0
 49
-1.0
 74
     0
 49
1.0
 74
     0
 49
-1.0
 74
     0
 49
1.0
 74
     0
 49
-1.0
 74
     0
  0
ENDTAB
  0
TABLE
  2
LAYER
  5
2
330
0
100
AcDbSymbolTable
 70
     2
  0
LAYER
  5
10
330
2
100
AcDbSymbolTableRecord
100
AcDbLayerTableRecord
  2
0
 70
     0
 62
     7
  6
Continuous
370
    -3
390
F
  0
LAYER
  5
71
330
2
100
AcDbSymbolTableRecord
100
AcDbLayerTableRecord
  2
1
 70
     0
 62
     7
  6
Continuous
370
    -3
390
F
  0
ENDTAB
  0
TABLE
  2
STYLE
  5
3
330
0
100
AcDbSymbolTable
 70
     1
  0
STYLE
  5
11
330
3
100
AcDbSymbolTableRecord
100
AcDbTextStyleTableRecord
  2
Standard
 70
     0
 40
0.0
 41
1.0
 50
0.0
 71
     0
 42
0.2
  3
txt
  4

  0
ENDTAB
  0
TABLE
  2
VIEW
  5
6
330
0
100
AcDbSymbolTable
 70
     0
  0
ENDTAB
  0
TABLE
  2
UCS
  5
7
330
0
100
AcDbSymbolTable
 70
     0
  0
ENDTAB
  0
TABLE
  2
APPID
  5
9
330
0
100
AcDbSymbolTable
 70
     1
  0
APPID
  5
12
330
9
100
AcDbSymbolTableRecord
100
AcDbRegAppTableRecord
  2
ACAD
 70
     0
  0
ENDTAB
  0
TABLE
  2
DIMSTYLE
  5
A
330
0
100
AcDbSymbolTable
 70
     1
100
AcDbDimStyleTable
  0
DIMSTYLE
105
27
330
A
100
AcDbSymbolTableRecord
100
AcDbDimStyleTableRecord
  2
Standard
 70
     0
178
     0
340
11
  0
ENDTAB
  0
TABLE
  2
BLOCK_RECORD
  5
1
330
0
100
AcDbSymbolTable
 70
     1
  0
BLOCK_RECORD
  5
1F
330
1
100
AcDbSymbolTableRecord
100
AcDbBlockTableRecord
  2
*Model_Space
340
22
  0
BLOCK_RECORD
  5
1B
330
1
100
AcDbSymbolTableRecord
100
AcDbBlockTableRecord
  2
*Paper_Space
340
1E
  0
BLOCK_RECORD
  5
23
330
1
100
AcDbSymbolTableRecord
100
AcDbBlockTableRecord
  2
*Paper_Space0
340
26
  0
ENDTAB
  0
ENDSEC
  0
SECTION
  2
BLOCKS
  0
BLOCK
  5
20
330
1F
100
AcDbEntity
  8
0
100
AcDbBlockBegin
  2
*Model_Space
 70
     0
 10
0.0
 20
0.0
 30
0.0
  3
*Model_Space
  1
*Model_Space
  0
ENDBLK
  5
21
330
1F
100
AcDbEntity
  8
0
100
AcDbBlockEnd
  0
BLOCK
  5
1C
330
1B
100
AcDbEntity
 67
     1
  8
0
100
AcDbBlockBegin
  2
*Paper_Space
 70
     0
 10
0.0
 20
0.0
 30
0.0
  3
*Paper_Space
  1
*Paper_Space
  0
ENDBLK
  5
1D
330
1B
100
AcDbEntity
 67
     1
  8
0
100
AcDbBlockEnd
  0
BLOCK
  5
24
330
23
100
AcDbEntity
  8
0
100
AcDbBlockBegin
  2
*Paper_Space0
 70
     0
 10
0.0
 20
0.0
 30
0.0
  3
*Paper_Space0
  1
*Paper_Space0
  0
ENDBLK
  5
25
330
23
100
AcDbEntity
  8
0
100
AcDbBlockEnd
  0
ENDSEC
  0
SECTION
  2
ENTITIES
  0
LINE
  5
72
330
1F
100
AcDbEntity
  8
1
  6
Continuous
 62
     3
100
AcDbLine
 10
28.9999999999878
 20
85.8444618139841
 30
0.0
 11
28.9999999999878
 21
70.0000000000124
 31
0.0
  0
LINE
  5
73
330
1F
100
AcDbEntity
  8
1
  6
Continuous
 62
     3
100
AcDbLine
 10
28.9999999999878
 20
118.000000000012
 30
0.0
 11
28.9999999999878
 21
102.155538186041
 31
0.0
  0
LINE
  5
74
330
1F
100
AcDbEntity
  8
1
  6
Continuous
 62
     3
100
AcDbLine
 10
45.9999999999877
 20
101.55692728424
 30
0.0
 11
45.9999999999877
 21
114.500000000012
 31
0.0
  0
LINE
  5
75
330
1F
100
AcDbEntity
  8
1
  6
Continuous
 62
     3
100
AcDbLine
 10
25.9999999999878
 20
85.7388245960192
 30
0.0
 11
25.9999999999878
 21
69.0000000000124
 31
0.0
  0
LINE
  5
76
330
1F
100
AcDbEntity
  8
1
  6
Continuous
 62
     3
100
AcDbLine
 10
25.9999999999878
 20
119.000000000012
 30
0.0
 11
25.9999999999878
 21
102.261175404006
 31
0.0
  0
LINE
  5
77
330
1F
100
AcDbEntity
  8
1
  6
Continuous
 62
     3
100
AcDbLine
 10
24.9999999999878
 20
70.0000000000124
 30
0.0
 11
25.9999999999878
 21
69.0000000000124
 31
0.0
  0
LINE
  5
78
330
1F
100
AcDbEntity
  8
1
  6
Continuous
 62
     3
100
AcDbLine
 10
25.9999999999878
 20
119.000000000012
 30
0.0
 11
24.9999999999878
 21
118.000000000012
 31
0.0
  0
LINE
  5
79
330
1F
100
AcDbEntity
  8
1
  6
Continuous
 62
     3
100
AcDbLine
 10
25.9999999999878
 20
69.0000000000124
 30
0.0
 11
27.9999999999878
 21
69.0000000000124
 31
0.0
  0
LINE
  5
7A
330
1F
100
AcDbEntity
  8
1
  6
Continuous
 62
     3
100
AcDbLine
 10
25.9999999999878
 20
119.000000000012
 30
0.0
 11
27.9999999999878
 21
119.000000000012
 31
0.0
  0
LINE
  5
7B
330
1F
100
AcDbEntity
  8
1
  6
Continuous
 62
     3
100
AcDbLine
 10
28.9999999999878
 20
71.5000000000124
 30
0.0
 11
28.9999999999878
 21
70.0000000000124
 31
0.0
  0
LINE
  5
7C
330
1F
100
AcDbEntity
  8
1
  6
Continuous
 62
     3
100
AcDbLine
 10
45.422649730798
 20
115.500000000012
 30
0.0
 11
45.9999999999877
 21
114.500000000012
 31
0.0
  0
LINE
  5
7D
330
1F
100
AcDbEntity
  8
1
  6
Continuous
 62
     3
100
AcDbLine
 10
45.422649730798
 20
115.500000000012
 30
0.0
 11
29.9999999999878
 21
115.500000000012
 31
0.0
  0
LINE
  5
7E
330
1F
100
AcDbEntity
  8
1
  6
Continuous
 62
     3
100
AcDbLine
 10
45.422649730798
 20
110.459458321759
 30
0.0
 11
28.9999999999878
 21
110.459458321759
 31
0.0
  0
LINE
  5
7F
330
1F
100
AcDbEntity
  8
1
  6
Continuous
 62
     3
100
AcDbLine
 10
45.422649730798
 20
107.832434050269
 30
0.0
 11
28.9999999999878
 21
107.832434050269
 31
0.0
  0
LINE
  5
80
330
1F
100
AcDbEntity
  8
1
  6
Continuous
 62
     3
100
AcDbLine
 10
45.422649730798
 20
110.459458321759
 30
0.0
 11
45.422649730798
 21
107.832434050269
 31
0.0
  0
LINE
  5
81
330
1F
100
AcDbEntity
  8
1
  6
Continuous
 62
     3
100
AcDbLine
 10
45.9999999999877
 20
77.2500000000124
 30
0.0
 11
45.9999999999877
 21
86.443072715785
 31
0.0
  0
LINE
  5
82
330
1F
100
AcDbEntity
  8
1
  6
Continuous
 62
     3
100
AcDbLine
 10
45.422649730798
 20
72.5000000000124
 30
0.0
 11
45.9999999999877
 21
73.5000000000124
 31
0.0
  0
LINE
  5
83
330
1F
100
AcDbEntity
  8
1
  6
Continuous
 62
     3
100
AcDbLine
 10
29.9999999999878
 20
72.5000000000124
 30
0.0
 11
45.422649730798
 21
72.5000000000124
 31
0.0
  0
LINE
  5
84
330
1F
100
AcDbEntity
  8
1
  6
Continuous
 62
     3
100
AcDbLine
 10
45.9999999999877
 20
73.5000000000124
 30
0.0
 11
45.9999999999877
 21
77.2500000000124
 31
0.0
  0
LINE
  5
85
330
1F
100
AcDbEntity
  8
1
  6
Continuous
 62
     3
100
AcDbLine
 10
28.9999999999878
 20
80.1675659497561
 30
0.0
 11
45.422649730798
 21
80.1675659497561
 31
0.0
  0
LINE
  5
86
330
1F
100
AcDbEntity
  8
1
  6
Continuous
 62
     3
100
AcDbLine
 10
28.9999999999878
 20
77.5405416782659
 30
0.0
 11
45.422649730798
 21
77.5405416782659
 31
0.0
  0
LINE
  5
87
330
1F
100
AcDbEntity
  8
1
  6
Continuous
 62
     3
100
AcDbLine
 10
45.422649730798
 20
80.1675659497561
 30
0.0
 11
45.422649730798
 21
77.5405416782659
 31
0.0
  0
LINE
  5
88
330
1F
100
AcDbEntity
  8
1
  6
Continuous
 62
     3
100
AcDbLine
 10
25.9999999999878
 20
25.0000000000124
 30
0.0
 11
25.9999999999878
 21
-24.9999999999876
 31
0.0
  0
LINE
  5
89
330
1F
100
AcDbEntity
  8
1
  6
Continuous
 62
     3
100
AcDbLine
 10
45.422649730798
 20
-13.8324340502438
 30
0.0
 11
45.422649730798
 21
-16.4594583217341
 31
0.0
  0
LINE
  5
8A
330
1F
100
AcDbEntity
  8
1
  6
Continuous
 62
     3
100
AcDbLine
 10
45.422649730798
 20
1.85758667672482
 30
0.0
 11
45.422649730798
 21
-1.85758667670004
 31
0.0
  0
LINE
  5
8B
330
1F
100
AcDbEntity
  8
1
  6
Continuous
 62
     3
100
AcDbLine
 10
28.9999999999878
 20
-1.85758667670004
 30
0.0
 11
45.422649730798
 21
-1.85758667670004
 31
0.0
  0
LINE
  5
8C
330
1F
100
AcDbEntity
  8
1
  6
Continuous
 62
     3
100
AcDbLine
 10
28.9999999999878
 20
-16.4594583217341
 30
0.0
 11
45.422649730798
 21
-16.4594583217341
 31
0.0
  0
LINE
  5
8D
330
1F
100
AcDbEntity
  8
1
  6
Continuous
 62
     3
100
AcDbLine
 10
28.9999999999878
 20
-13.8324340502438
 30
0.0
 11
45.422649730798
 21
-13.8324340502438
 31
0.0
  0
LINE
  5
8E
330
1F
100
AcDbEntity
  8
1
  6
Continuous
 62
     3
100
AcDbLine
 10
28.9999999999878
 20
-22.4999999999876
 30
0.0
 11
28.9999999999878
 21
-23.9999999999876
 31
0.0
  0
LINE
  5
8F
330
1F
100
AcDbEntity
  8
1
  6
Continuous
 62
     3
100
AcDbLine
 10
45.9999999999877
 20
-20.4999999999876
 30
0.0
 11
45.9999999999877
 21
-16.7499999999876
 31
0.0
  0
LINE
  5
90
330
1F
100
AcDbEntity
  8
1
  6
Continuous
 62
     3
100
AcDbLine
 10
29.9999999999878
 20
-21.4999999999876
 30
0.0
 11
45.422649730798
 21
-21.4999999999876
 31
0.0
  0
LINE
  5
91
330
1F
100
AcDbEntity
  8
1
  6
Continuous
 62
     3
100
AcDbLine
 10
45.422649730798
 20
-21.4999999999876
 30
0.0
 11
45.9999999999877
 21
-20.4999999999876
 31
0.0
  0
LINE
  5
92
330
1F
100
AcDbEntity
  8
1
  6
Continuous
 62
     3
100
AcDbLine
 10
25.9999999999878
 20
-24.9999999999876
 30
0.0
 11
27.9999999999878
 21
-24.9999999999876
 31
0.0
  0
LINE
  5
93
330
1F
100
AcDbEntity
  8
1
  6
Continuous
 62
     3
100
AcDbLine
 10
24.9999999999878
 20
-23.9999999999876
 30
0.0
 11
25.9999999999878
 21
-24.9999999999876
 31
0.0
  0
LINE
  5
94
330
1F
100
AcDbEntity
  8
1
  6
Continuous
 62
     3
100
AcDbLine
 10
45.9999999999877
 20
-16.7499999999876
 30
0.0
 11
45.9999999999877
 21
20.5000000000124
 31
0.0
  0
LINE
  5
95
330
1F
100
AcDbEntity
  8
1
  6
Continuous
 62
     3
100
AcDbLine
 10
45.422649730798
 20
16.4594583217589
 30
0.0
 11
45.422649730798
 21
13.8324340502686
 31
0.0
  0
LINE
  5
96
330
1F
100
AcDbEntity
  8
1
  6
Continuous
 62
     3
100
AcDbLine
 10
45.422649730798
 20
1.85758667672482
 30
0.0
 11
28.9999999999878
 21
1.85758667672482
 31
0.0
  0
LINE
  5
97
330
1F
100
AcDbEntity
  8
1
  6
Continuous
 62
     3
100
AcDbLine
 10
28.9999999999878
 20
24.0000000000124
 30
0.0
 11
28.9999999999878
 21
-23.9999999999876
 31
0.0
  0
LINE
  5
98
330
1F
100
AcDbEntity
  8
1
  6
Continuous
 62
     3
100
AcDbLine
 10
45.422649730798
 20
13.8324340502686
 30
0.0
 11
28.9999999999878
 21
13.8324340502686
 31
0.0
  0
LINE
  5
99
330
1F
100
AcDbEntity
  8
1
  6
Continuous
 62
     3
100
AcDbLine
 10
45.422649730798
 20
16.4594583217589
 30
0.0
 11
28.9999999999878
 21
16.4594583217589
 31
0.0
  0
LINE
  5
9A
330
1F
100
AcDbEntity
  8
1
  6
Continuous
 62
     3
100
AcDbLine
 10
45.422649730798
 20
21.5000000000124
 30
0.0
 11
29.9999999999878
 21
21.5000000000124
 31
0.0
  0
LINE
  5
9B
330
1F
100
AcDbEntity
  8
1
  6
Continuous
 62
     3
100
AcDbLine
 10
45.422649730798
 20
21.5000000000124
 30
0.0
 11
45.9999999999877
 21
20.5000000000124
 31
0.0
  0
LINE
  5
9C
330
1F
100
AcDbEntity
  8
1
  6
Continuous
 62
     3
100
AcDbLine
 10
25.9999999999878
 20
25.0000000000124
 30
0.0
 11
27.9999999999878
 21
25.0000000000124
 31
0.0
  0
LINE
  5
9D
330
1F
100
AcDbEntity
  8
1
  6
Continuous
 62
     3
100
AcDbLine
 10
25.9999999999878
 20
25.0000000000124
 30
0.0
 11
24.9999999999878
 21
24.0000000000124
 31
0.0
  0
LINE
  5
9E
330
1F
100
AcDbEntity
  8
1
  6
DOT_CENTER
 62
     4
100
AcDbLine
 10
-79.5000000000122
 20
44.6148888762597
 30
0.0
 11
-79.5000000000122
 21
58.7723525354895
 31
0.0
  0
LINE
  5
9F
330
1F
100
AcDbEntity
  8
1
  6
Continuous
 62
     3
100
AcDbLine
 10
-3.20000000001221
 20
46.5000000000124
 30
0.0
 11
3.19999999998788
 21
46.5000000000124
 31
0.0
  0
LINE
  5
A0
330
1F
100
AcDbEntity
  8
1
  6
Continuous
 62
     3
100
AcDbLine
 10
24.9999999999878
 20
24.0000000000124
 30
0.0
 11
23.9999999999878
 21
25.0000000000124
 31
0.0
  0
LINE
  5
A1
330
1F
100
AcDbEntity
  8
1
  6
Continuous
 62
     3
100
AcDbLine
 10
23.9999999999878
 20
-24.9999999999876
 30
0.0
 11
24.9999999999878
 21
-23.9999999999876
 31
0.0
  0
LINE
  5
A2
330
1F
100
AcDbEntity
  8
1
  6
Continuous
 62
     3
100
AcDbLine
 10
23.9999999999878
 20
25.0000000000124
 30
0.0
 11
23.9999999999878
 21
-24.9999999999876
 31
0.0
  0
LINE
  5
A3
330
1F
100
AcDbEntity
  8
1
  6
Continuous
 62
     3
100
AcDbLine
 10
24.9999999999878
 20
24.0000000000124
 30
0.0
 11
24.9999999999878
 21
-23.9999999999876
 31
0.0
  0
LINE
  5
A4
330
1F
100
AcDbEntity
  8
1
  6
Continuous
 62
     3
100
AcDbLine
 10
-122.345299461633
 20
-16.4594583217341
 30
0.0
 11
-105.500000000012
 21
-16.4594583217341
 31
0.0
  0
LINE
  5
A5
330
1F
100
AcDbEntity
  8
1
  6
Continuous
 62
     3
100
AcDbLine
 10
-122.345299461633
 20
-13.8324340502439
 30
0.0
 11
-105.500000000012
 21
-13.8324340502438
 31
0.0
  0
LINE
  5
A6
330
1F
100
AcDbEntity
  8
1
  6
Continuous
 62
     3
100
AcDbLine
 10
-122.345299461633
 20
-1.85758667670004
 30
0.0
 11
-105.500000000012
 21
-1.85758667670004
 31
0.0
  0
LINE
  5
A7
330
1F
100
AcDbEntity
  8
1
  6
Continuous
 62
     3
100
AcDbLine
 10
-122.345299461633
 20
1.85758667672482
 30
0.0
 11
-105.500000000012
 21
1.85758667672479
 31
0.0
  0
LINE
  5
A8
330
1F
100
AcDbEntity
  8
1
  6
Continuous
 62
     3
100
AcDbLine
 10
-122.345299461633
 20
13.8324340502687
 30
0.0
 11
-105.500000000012
 21
13.8324340502687
 31
0.0
  0
LINE
  5
A9
330
1F
100
AcDbEntity
  8
1
  6
Continuous
 62
     3
100
AcDbLine
 10
-105.500000000012
 20
16.4594583217589
 30
0.0
 11
-122.345299461633
 21
16.4594583217589
 31
0.0
  0
LINE
  5
AA
330
1F
100
AcDbEntity
  8
1
  6
Continuous
 62
     3
100
AcDbLine
 10
-105.500000000012
 20
21.5000000000124
 30
0.0
 11
-105.500000000012
 21
16.4594583217589
 31
0.0
  0
LINE
  5
AB
330
1F
100
AcDbEntity
  8
1
  6
Continuous
 62
     3
100
AcDbLine
 10
-105.500000000012
 20
13.8324340502687
 30
0.0
 11
-105.500000000012
 21
1.85758667672479
 31
0.0
  0
LINE
  5
AC
330
1F
100
AcDbEntity
  8
1
  6
Continuous
 62
     3
100
AcDbLine
 10
-105.500000000012
 20
-1.85758667670004
 30
0.0
 11
-105.500000000012
 21
-13.8324340502438
 31
0.0
  0
LINE
  5
AD
330
1F
100
AcDbEntity
  8
1
  6
Continuous
 62
     3
100
AcDbLine
 10
-105.500000000012
 20
-16.4594583217341
 30
0.0
 11
-105.500000000012
 21
-21.4999999999876
 31
0.0
  0
LINE
  5
AE
330
1F
100
AcDbEntity
  8
1
  6
Continuous
 62
     3
100
AcDbLine
 10
-105.500000000012
 20
-16.4594583217341
 30
0.0
 11
-105.500000000012
 21
-21.4999999999876
 31
0.0
  0
LINE
  5
AF
330
1F
100
AcDbEntity
  8
1
  6
Continuous
 62
     3
100
AcDbLine
 10
-105.500000000012
 20
-1.85758667670004
 30
0.0
 11
-105.500000000012
 21
-13.8324340502438
 31
0.0
  0
LINE
  5
B0
330
1F
100
AcDbEntity
  8
1
  6
Continuous
 62
     3
100
AcDbLine
 10
-105.500000000012
 20
13.8324340502687
 30
0.0
 11
-105.500000000012
 21
1.85758667672479
 31
0.0
  0
LINE
  5
B1
330
1F
100
AcDbEntity
  8
1
  6
Continuous
 62
     3
100
AcDbLine
 10
-122.345299461633
 20
16.4594583217589
 30
0.0
 11
-122.345299461633
 21
13.8324340502687
 31
0.0
  0
LINE
  5
B2
330
1F
100
AcDbEntity
  8
1
  6
Continuous
 62
     3
100
AcDbLine
 10
-122.345299461633
 20
1.85758667672482
 30
0.0
 11
-122.345299461633
 21
-1.85758667670004
 31
0.0
  0
LINE
  5
B3
330
1F
100
AcDbEntity
  8
1
  6
Continuous
 62
     3
100
AcDbLine
 10
-122.345299461633
 20
-13.8324340502439
 30
0.0
 11
-122.345299461633
 21
-16.4594583217341
 31
0.0
  0
LINE
  5
B4
330
1F
100
AcDbEntity
  8
1
  6
Continuous
 62
     3
100
AcDbLine
 10
-90.5000000000122
 20
38.6000000000124
 30
0.0
 11
-90.5000000000122
 21
33.6000000000124
 31
0.0
  0
LINE
  5
B5
330
1F
100
AcDbEntity
  8
1
  6
Continuous
 62
     3
100
AcDbLine
 10
-90.5000000000122
 20
33.6000000000124
 30
0.0
 11
-69.5000000000122
 21
33.6000000000124
 31
0.0
  0
LINE
  5
B6
330
1F
100
AcDbEntity
  8
1
  6
Continuous
 62
     3
100
AcDbLine
 10
-69.5000000000122
 20
33.6000000000124
 30
0.0
 11
-69.5000000000122
 21
32.5240777928428
 31
0.0
  0
LINE
  5
B7
330
1F
100
AcDbEntity
  8
1
  6
Continuous
 62
     3
100
AcDbLine
 10
-94.5000000000122
 20
37.6000000000124
 30
0.0
 11
-94.5000000000122
 21
33.2110034631425
 31
0.0
  0
LINE
  5
B8
330
1F
100
AcDbEntity
  8
1
  6
Continuous
 62
     3
100
AcDbLine
 10
9.99999999998784
 20
33.6000000000124
 30
0.0
 11
9.99999999998784
 21
33.0481555856732
 31
0.0
  0
LINE
  5
B9
330
1F
100
AcDbEntity
  8
1
  6
Continuous
 62
     3
100
AcDbLine
 10
-10.0000000000122
 20
33.6000000000124
 30
0.0
 11
-10.0000000000122
 21
33.0481555856732
 31
0.0
  0
LINE
  5
BA
330
1F
100
AcDbEntity
  8
1
  6
Continuous
 62
     3
100
AcDbLine
 10
-10.0000000000122
 20
33.6000000000124
 30
0.0
 11
9.99999999998784
 21
33.6000000000124
 31
0.0
  0
LINE
  5
BB
330
1F
100
AcDbEntity
  8
1
  6
Continuous
 62
     3
100
AcDbLine
 10
-42.8452994616329
 20
21.5000000000124
 30
0.0
 11
-44.0000000000122
 21
19.5000000000124
 31
0.0
  0
LINE
  5
BC
330
1F
100
AcDbEntity
  8
1
  6
Continuous
 62
     3
100
AcDbLine
 10
-26.0000000000122
 20
13.8324340502687
 30
0.0
 11
-26.0000000000122
 21
1.85758667672479
 31
0.0
  0
LINE
  5
BD
330
1F
100
AcDbEntity
  8
1
  6
Continuous
 62
     3
100
AcDbLine
 10
-26.0000000000122
 20
-1.85758667670004
 30
0.0
 11
-26.0000000000122
 21
-13.8324340502438
 31
0.0
  0
LINE
  5
BE
330
1F
100
AcDbEntity
  8
1
  6
Continuous
 62
     3
100
AcDbLine
 10
-26.0000000000122
 20
-16.4594583217341
 30
0.0
 11
-26.0000000000122
 21
-21.4999999999876
 31
0.0
  0
LINE
  5
BF
330
1F
100
AcDbEntity
  8
1
  6
Continuous
 62
     3
100
AcDbLine
 10
-42.8452994616329
 20
-13.8324340502439
 30
0.0
 11
-42.8452994616329
 21
-16.4594583217341
 31
0.0
  0
LINE
  5
C0
330
1F
100
AcDbEntity
  8
1
  6
Continuous
 62
     3
100
AcDbLine
 10
-42.8452994616329
 20
1.85758667672482
 30
0.0
 11
-42.8452994616329
 21
-1.85758667670004
 31
0.0
  0
LINE
  5
C1
330
1F
100
AcDbEntity
  8
1
  6
Continuous
 62
     3
100
AcDbLine
 10
-42.8452994616329
 20
16.4594583217589
 30
0.0
 11
-42.8452994616329
 21
13.8324340502687
 31
0.0
  0
LINE
  5
C2
330
1F
100
AcDbEntity
  8
1
  6
Continuous
 62
     3
100
AcDbLine
 10
-44.0000000000122
 20
19.5000000000124
 30
0.0
 11
-44.0000000000122
 21
-19.4999999999876
 31
0.0
  0
LINE
  5
C3
330
1F
100
AcDbEntity
  8
1
  6
Continuous
 62
     3
100
AcDbLine
 10
-44.0000000000122
 20
-19.4999999999876
 30
0.0
 11
-42.8452994616329
 21
-21.4999999999876
 31
0.0
  0
LINE
  5
C4
330
1F
100
AcDbEntity
  8
1
  6
Continuous
 62
     3
100
AcDbLine
 10
-26.0000000000122
 20
16.4594583217589
 30
0.0
 11
-42.8452994616329
 21
16.4594583217589
 31
0.0
  0
LINE
  5
C5
330
1F
100
AcDbEntity
  8
1
  6
Continuous
 62
     3
100
AcDbLine
 10
-42.8452994616329
 20
13.8324340502687
 30
0.0
 11
-26.0000000000122
 21
13.8324340502687
 31
0.0
  0
LINE
  5
C6
330
1F
100
AcDbEntity
  8
1
  6
Continuous
 62
     3
100
AcDbLine
 10
-42.8452994616329
 20
1.85758667672482
 30
0.0
 11
-26.0000000000122
 21
1.85758667672479
 31
0.0
  0
LINE
  5
C7
330
1F
100
AcDbEntity
  8
1
  6
Continuous
 62
     3
100
AcDbLine
 10
-42.8452994616329
 20
-1.85758667670004
 30
0.0
 11
-26.0000000000122
 21
-1.85758667670004
 31
0.0
  0
LINE
  5
C8
330
1F
100
AcDbEntity
  8
1
  6
Continuous
 62
     3
100
AcDbLine
 10
-42.8452994616329
 20
-13.8324340502439
 30
0.0
 11
-26.0000000000122
 21
-13.8324340502438
 31
0.0
  0
LINE
  5
C9
330
1F
100
AcDbEntity
  8
1
  6
Continuous
 62
     3
100
AcDbLine
 10
-42.8452994616329
 20
-16.4594583217341
 30
0.0
 11
-26.0000000000122
 21
-16.4594583217341
 31
0.0
  0
LINE
  5
CA
330
1F
100
AcDbEntity
  8
1
  6
Continuous
 62
     3
100
AcDbLine
 10
-26.0000000000122
 20
-21.4999999999876
 30
0.0
 11
-42.8452994616329
 21
-21.4999999999876
 31
0.0
  0
LINE
  5
CB
330
1F
100
AcDbEntity
  8
1
  6
Continuous
 62
     3
100
AcDbLine
 10
-123.500000000012
 20
-19.4999999999876
 30
0.0
 11
-122.345299461633
 21
-21.4999999999876
 31
0.0
  0
LINE
  5
CC
330
1F
100
AcDbEntity
  8
1
  6
Continuous
 62
     3
100
AcDbLine
 10
-123.500000000012
 20
19.5000000000124
 30
0.0
 11
-123.500000000012
 21
-19.4999999999876
 31
0.0
  0
LINE
  5
CD
330
1F
100
AcDbEntity
  8
1
  6
Continuous
 62
     3
100
AcDbLine
 10
-122.345299461633
 20
21.5000000000124
 30
0.0
 11
-123.500000000012
 21
19.5000000000124
 31
0.0
  0
LINE
  5
CE
330
1F
100
AcDbEntity
  8
1
  6
Continuous
 62
     3
100
AcDbLine
 10
-90.397247358864
 20
-21.4999999999876
 30
0.0
 11
-122.345299461633
 21
-21.4999999999876
 31
0.0
  0
LINE
  5
CF
330
1F
100
AcDbEntity
  8
1
  6
Continuous
 62
     3
100
AcDbLine
 10
-100.500000000012
 20
21.5000000000124
 30
0.0
 11
-122.345299461633
 21
21.5000000000124
 31
0.0
  0
LINE
  5
D0
330
1F
100
AcDbEntity
  8
1
  6
Continuous
 62
     3
100
AcDbLine
 10
24.9999999999878
 20
85.7036121900309
 30
0.0
 11
24.9999999999878
 21
70.0000000000124
 31
0.0
  0
LINE
  5
D1
330
1F
100
AcDbEntity
  8
1
  6
Continuous
 62
     3
100
AcDbLine
 10
23.9999999999878
 20
85.6683997840426
 30
0.0
 11
23.9999999999878
 21
69.0000000000124
 31
0.0
  0
LINE
  5
D2
330
1F
100
AcDbEntity
  8
1
  6
Continuous
 62
     3
100
AcDbLine
 10
23.9999999999878
 20
119.000000000012
 30
0.0
 11
23.9999999999878
 21
102.331600215982
 31
0.0
  0
LINE
  5
D3
330
1F
100
AcDbEntity
  8
1
  6
Continuous
 62
     3
100
AcDbLine
 10
-26.0000000000122
 20
72.5000000000124
 30
0.0
 11
-42.8452994616329
 21
72.5000000000124
 31
0.0
  0
LINE
  5
D4
330
1F
100
AcDbEntity
  8
1
  6
Continuous
 62
     3
100
AcDbLine
 10
-42.8452994616329
 20
77.5405416782659
 30
0.0
 11
-26.0000000000122
 21
77.5405416782659
 31
0.0
  0
LINE
  5
D5
330
1F
100
AcDbEntity
  8
1
  6
Continuous
 62
     3
100
AcDbLine
 10
-42.8452994616329
 20
80.1675659497561
 30
0.0
 11
-26.0000000000122
 21
80.1675659497561
 31
0.0
  0
LINE
  5
D6
330
1F
100
AcDbEntity
  8
1
  6
Continuous
 62
     3
100
AcDbLine
 10
-42.8452994616329
 20
92.1424133232999
 30
0.0
 11
-26.0000000000122
 21
92.1424133232999
 31
0.0
  0
LINE
  5
D7
330
1F
100
AcDbEntity
  8
1
  6
Continuous
 62
     3
100
AcDbLine
 10
-42.8452994616329
 20
95.8575866767248
 30
0.0
 11
-26.0000000000122
 21
95.8575866767248
 31
0.0
  0
LINE
  5
D8
330
1F
100
AcDbEntity
  8
1
  6
Continuous
 62
     3
100
AcDbLine
 10
-42.8452994616329
 20
107.832434050269
 30
0.0
 11
-26.0000000000122
 21
107.832434050269
 31
0.0
  0
LINE
  5
D9
330
1F
100
AcDbEntity
  8
1
  6
Continuous
 62
     3
100
AcDbLine
 10
-26.0000000000122
 20
110.459458321759
 30
0.0
 11
-42.8452994616329
 21
110.459458321759
 31
0.0
  0
LINE
  5
DA
330
1F
100
AcDbEntity
  8
1
  6
Continuous
 62
     3
100
AcDbLine
 10
-26.0000000000122
 20
115.500000000012
 30
0.0
 11
-42.8452994616329
 21
115.500000000012
 31
0.0
  0
LINE
  5
DB
330
1F
100
AcDbEntity
  8
1
  6
Continuous
 62
     3
100
AcDbLine
 10
-44.0000000000122
 20
74.5000000000124
 30
0.0
 11
-42.8452994616329
 21
72.5000000000124
 31
0.0
  0
LINE
  5
DC
330
1F
100
AcDbEntity
  8
1
  6
Continuous
 62
     3
100
AcDbLine
 10
-44.0000000000122
 20
113.500000000012
 30
0.0
 11
-44.0000000000122
 21
74.5000000000124
 31
0.0
  0
LINE
  5
DD
330
1F
100
AcDbEntity
  8
1
  6
Continuous
 62
     3
100
AcDbLine
 10
-42.8452994616329
 20
115.500000000012
 30
0.0
 11
-44.0000000000122
 21
113.500000000012
 31
0.0
  0
LINE
  5
DE
330
1F
100
AcDbEntity
  8
1
  6
Continuous
 62
     3
100
AcDbLine
 10
-42.8452994616329
 20
110.459458321759
 30
0.0
 11
-42.8452994616329
 21
107.832434050269
 31
0.0
  0
LINE
  5
DF
330
1F
100
AcDbEntity
  8
1
  6
Continuous
 62
     3
100
AcDbLine
 10
-42.8452994616329
 20
95.8575866767248
 30
0.0
 11
-42.8452994616329
 21
92.1424133232999
 31
0.0
  0
LINE
  5
E0
330
1F
100
AcDbEntity
  8
1
  6
Continuous
 62
     3
100
AcDbLine
 10
-42.8452994616329
 20
80.1675659497561
 30
0.0
 11
-42.8452994616329
 21
77.5405416782659
 31
0.0
  0
LINE
  5
E1
330
1F
100
AcDbEntity
  8
1
  6
Continuous
 62
     3
100
AcDbLine
 10
23.9999999999878
 20
69.0000000000124
 30
0.0
 11
24.9999999999878
 21
70.0000000000124
 31
0.0
  0
LINE
  5
E2
330
1F
100
AcDbEntity
  8
1
  6
Continuous
 62
     3
100
AcDbLine
 10
23.9999999999878
 20
69.0000000000124
 30
0.0
 11
13.4142135623609
 21
69.0000000000124
 31
0.0
  0
LINE
  5
E3
330
1F
100
AcDbEntity
  8
1
  6
Continuous
 62
     3
100
AcDbLine
 10
12.7071067811744
 20
69.2928932188258
 30
0.0
 11
12.2928932188013
 21
69.7071067811989
 31
0.0
  0
LINE
  5
E4
330
1F
100
AcDbEntity
  8
1
  6
Continuous
 62
     3
100
AcDbLine
 10
24.9999999999878
 20
118.000000000012
 30
0.0
 11
24.9999999999878
 21
102.296387809994
 31
0.0
  0
LINE
  5
E5
330
1F
100
AcDbEntity
  8
1
  6
Continuous
 62
     3
100
AcDbLine
 10
23.9999999999878
 20
119.000000000012
 30
0.0
 11
24.9999999999878
 21
118.000000000012
 31
0.0
  0
LINE
  5
E6
330
1F
100
AcDbEntity
  8
1
  6
Continuous
 62
     3
100
AcDbLine
 10
22.4999999999878
 20
119.000000000012
 30
0.0
 11
23.9999999999878
 21
119.000000000012
 31
0.0
  0
LINE
  5
E7
330
1F
100
AcDbEntity
  8
1
  6
Continuous
 62
     3
100
AcDbLine
 10
21.4999999999878
 20
120.000000000012
 30
0.0
 11
21.4999999999878
 21
136.845299461633
 31
0.0
  0
LINE
  5
E8
330
1F
100
AcDbEntity
  8
1
  6
Continuous
 62
     3
100
AcDbLine
 10
16.4594583217344
 20
120.000000000012
 30
0.0
 11
16.4594583217344
 21
136.845299461633
 31
0.0
  0
LINE
  5
E9
330
1F
100
AcDbEntity
  8
1
  6
Continuous
 62
     3
100
AcDbLine
 10
13.8324340502441
 20
136.845299461633
 30
0.0
 11
13.8324340502441
 21
120.000000000012
 31
0.0
  0
LINE
  5
EA
330
1F
100
AcDbEntity
  8
1
  6
Continuous
 62
     3
100
AcDbLine
 10
1.85758667670024
 20
136.845299461633
 30
0.0
 11
1.85758667670024
 21
120.000000000012
 31
0.0
  0
LINE
  5
EB
330
1F
100
AcDbEntity
  8
1
  6
Continuous
 62
     3
100
AcDbLine
 10
-1.85758667672459
 20
136.845299461633
 30
0.0
 11
-1.85758667672459
 21
120.000000000012
 31
0.0
  0
LINE
  5
EC
330
1F
100
AcDbEntity
  8
1
  6
Continuous
 62
     3
100
AcDbLine
 10
-13.8324340502684
 20
136.845299461633
 30
0.0
 11
-13.8324340502684
 21
120.000000000012
 31
0.0
  0
LINE
  5
ED
330
1F
100
AcDbEntity
  8
1
  6
Continuous
 62
     3
100
AcDbLine
 10
-16.4594583217587
 20
136.845299461633
 30
0.0
 11
-16.4594583217587
 21
120.000000000012
 31
0.0
  0
LINE
  5
EE
330
1F
100
AcDbEntity
  8
1
  6
Continuous
 62
     3
100
AcDbLine
 10
-21.5000000000122
 20
120.000000000012
 30
0.0
 11
-21.5000000000122
 21
136.845299461633
 31
0.0
  0
LINE
  5
EF
330
1F
100
AcDbEntity
  8
1
  6
Continuous
 62
     3
100
AcDbLine
 10
-19.5000000000122
 20
138.000000000012
 30
0.0
 11
-21.5000000000122
 21
136.845299461633
 31
0.0
  0
LINE
  5
F0
330
1F
100
AcDbEntity
  8
1
  6
Continuous
 62
     3
100
AcDbLine
 10
19.4999999999878
 20
138.000000000012
 30
0.0
 11
-19.5000000000122
 21
138.000000000012
 31
0.0
  0
LINE
  5
F1
330
1F
100
AcDbEntity
  8
1
  6
Continuous
 62
     3
100
AcDbLine
 10
21.4999999999878
 20
136.845299461633
 30
0.0
 11
19.4999999999878
 21
138.000000000012
 31
0.0
  0
LINE
  5
F2
330
1F
100
AcDbEntity
  8
1
  6
Continuous
 62
     3
100
AcDbLine
 10
16.4594583217344
 20
136.845299461633
 30
0.0
 11
13.8324340502441
 21
136.845299461633
 31
0.0
  0
LINE
  5
F3
330
1F
100
AcDbEntity
  8
1
  6
Continuous
 62
     3
100
AcDbLine
 10
-13.8324340502684
 20
136.845299461633
 30
0.0
 11
-16.4594583217587
 21
136.845299461633
 31
0.0
  0
LINE
  5
F4
330
1F
100
AcDbEntity
  8
1
  6
Continuous
 62
     3
100
AcDbLine
 10
1.85758667670024
 20
136.845299461633
 30
0.0
 11
-1.85758667672459
 21
136.845299461633
 31
0.0
  0
LINE
  5
F5
330
1F
100
AcDbEntity
  8
1
  6
DOT_CENTER
 62
     4
100
AcDbLine
 10
-0.00000000001216
 20
140.74302255828
 30
0.0
 11
-0.00000000001216
 21
65.5261708173177
 31
0.0
  0
LINE
  5
F6
330
1F
100
AcDbEntity
  8
1
  6
Continuous
 62
     3
100
AcDbLine
 10
11.9999999999878
 20
84.0000000000124
 30
0.0
 11
11.9999999999878
 21
71.5000000000124
 31
0.0
  0
LINE
  5
F7
330
1F
100
AcDbEntity
  8
1
  6
Continuous
 62
     3
100
AcDbLine
 10
12.9999999999878
 20
104.000000000012
 30
0.0
 11
12.9999999999878
 21
106.815804126459
 31
0.0
  0
LINE
  5
F8
330
1F
100
AcDbEntity
  8
1
  6
Continuous
 62
     3
100
AcDbLine
 10
-11.0000000000122
 20
84.127016653805
 30
0.0
 11
-11.0000000000122
 21
71.7071067811989
 31
0.0
  0
LINE
  5
F9
330
1F
100
AcDbEntity
  8
1
  6
Continuous
 62
     3
100
AcDbLine
 10
-13.5000000000122
 20
91.0000000000124
 30
0.0
 11
-13.5000000000122
 21
105.378679656453
 31
0.0
  0
LINE
  5
FA
330
1F
100
AcDbEntity
  8
1
  6
Continuous
 62
     3
100
AcDbLine
 10
10.1720430107406
 20
105.82795698926
 30
0.0
 11
21.4999999999878
 21
119.000000000012
 31
0.0
  0
LINE
  5
FB
330
1F
100
AcDbEntity
  8
1
  6
Continuous
 62
     3
100
AcDbLine
 10
-11.0000000000122
 20
102.878679656453
 30
0.0
 11
-11.0000000000122
 21
91.0000000000124
 31
0.0
  0
LINE
  5
FC
330
1F
100
AcDbEntity
  8
1
  6
Continuous
 62
     3
100
AcDbLine
 10
11.9999999999878
 20
105.653013428785
 30
0.0
 11
11.9999999999878
 21
104.000000000012
 31
0.0
  0
LINE
  5
FD
330
1F
100
AcDbEntity
  8
1
  6
Continuous
 62
     3
100
AcDbLine
 10
12.9999999999878
 20
70.7071067811989
 30
0.0
 11
12.9999999999878
 21
84.0000000000124
 31
0.0
  0
LINE
  5
FE
330
1F
100
AcDbEntity
  8
1
  6
Continuous
 62
     3
100
AcDbLine
 10
-13.5000000000122
 20
74.0000000000124
 30
0.0
 11
-13.5000000000122
 21
86.0635083269087
 31
0.0
  0
LINE
  5
FF
330
1F
100
AcDbEntity
  8
1
  6
Continuous
 62
     3
100
AcDbLine
 10
-13.9142135623852
 20
72.5000000000124
 30
0.0
 11
-26.0000000000122
 21
72.5000000000124
 31
0.0
  0
LINE
  5
100
330
1F
100
AcDbEntity
  8
1
  6
Continuous
 62
     3
100
AcDbLine
 10
-11.2928932188256
 20
70.2928932188258
 30
0.0
 11
-13.2071067811987
 21
72.2071067811989
 31
0.0
  0
LINE
  5
101
330
1F
100
AcDbEntity
  8
1
  6
Continuous
 62
     3
100
AcDbLine
 10
11.5857864376148
 20
70.0000000000124
 30
0.0
 11
-10.5857864376391
 21
70.0000000000124
 31
0.0
  0
LINE
  5
102
330
1F
100
AcDbEntity
  8
1
  6
Continuous
 62
     3
100
AcDbLine
 10
12.7071067811744
 20
69.2928932188258
 30
0.0
 11
12.2928932188013
 21
69.7071067811989
 31
0.0
  0
LINE
  5
103
330
1F
100
AcDbEntity
  8
1
  6
Continuous
 62
     3
100
AcDbLine
 10
-22.5000000000122
 20
115.500000000012
 30
0.0
 11
-26.0000000000122
 21
115.500000000012
 31
0.0
  0
LINE
  5
104
330
1F
100
AcDbEntity
  8
1
  6
Continuous
 62
     3
100
AcDbLine
 10
-8.73585630212878
 20
102.735856302129
 30
0.0
 11
-21.5000000000122
 21
115.500000000012
 31
0.0
  0
LINE
  5
105
330
1F
100
AcDbEntity
  8
1
  6
Continuous
 62
     3
100
AcDbLine
 10
-26.0000000000122
 20
77.5405416782659
 30
0.0
 11
-26.0000000000122
 21
72.5000000000124
 31
0.0
  0
LINE
  5
106
330
1F
100
AcDbEntity
  8
1
  6
Continuous
 62
     3
100
AcDbLine
 10
-26.0000000000122
 20
92.1424133232999
 30
0.0
 11
-26.0000000000122
 21
80.1675659497561
 31
0.0
  0
LINE
  5
107
330
1F
100
AcDbEntity
  8
1
  6
Continuous
 62
     3
100
AcDbLine
 10
-26.0000000000122
 20
107.832434050269
 30
0.0
 11
-26.0000000000122
 21
95.8575866767248
 31
0.0
  0
LINE
  5
108
330
1F
100
AcDbEntity
  8
1
  6
Continuous
 62
     3
100
AcDbLine
 10
-26.0000000000122
 20
115.500000000012
 30
0.0
 11
-26.0000000000122
 21
110.459458321759
 31
0.0
  0
LINE
  5
109
330
1F
100
AcDbEntity
  8
1
  6
Continuous
 62
     3
100
AcDbLine
 10
-16.4594583217587
 20
120.000000000012
 30
0.0
 11
-21.5000000000122
 21
120.000000000012
 31
0.0
  0
LINE
  5
10A
330
1F
100
AcDbEntity
  8
1
  6
Continuous
 62
     3
100
AcDbLine
 10
-1.85758667672459
 20
120.000000000012
 30
0.0
 11
-13.8324340502684
 21
120.000000000012
 31
0.0
  0
LINE
  5
10B
330
1F
100
AcDbEntity
  8
1
  6
Continuous
 62
     3
100
AcDbLine
 10
13.8324340502441
 20
120.000000000012
 30
0.0
 11
1.85758667670024
 21
120.000000000012
 31
0.0
  0
LINE
  5
10C
330
1F
100
AcDbEntity
  8
1
  6
Continuous
 62
     3
100
AcDbLine
 10
21.4999999999878
 20
120.000000000012
 30
0.0
 11
16.4594583217344
 21
120.000000000012
 31
0.0
  0
LINE
  5
10D
330
1F
100
AcDbEntity
  8
1
  6
Continuous
 62
     3
100
AcDbLine
 10
-21.5000000000122
 20
120.000000000012
 30
0.0
 11
-21.5000000000122
 21
116.500000000012
 31
0.0
  0
LINE
  5
10E
330
1F
100
AcDbEntity
  8
1
  6
Continuous
 62
     3
100
AcDbLine
 10
-1.69723185801388
 20
109.000000000012
 30
0.0
 11
1.69723185798952
 21
109.000000000012
 31
0.0
  0
LINE
  5
10F
330
1F
100
AcDbEntity
  8
1
  6
Continuous
 62
     3
100
AcDbLine
 10
2.69342655608133
 20
108.08715574276
 30
0.0
 11
2.99999999998784
 21
104.583005244271
 31
0.0
  0
LINE
  5
110
330
1F
100
AcDbEntity
  8
1
  6
Continuous
 62
     3
100
AcDbLine
 10
-2.69342655610566
 20
108.08715574276
 30
0.0
 11
-3.00000000001216
 21
104.583005244271
 31
0.0
  0
LINE
  5
111
330
1F
100
AcDbEntity
  8
1
  6
Continuous
 62
     3
100
AcDbLine
 10
-3.00000000001216
 20
104.583005244271
 30
0.0
 11
-3.03820680931898
 21
104.146299415573
 31
0.0
  0
LINE
  5
112
330
1F
100
AcDbEntity
  8
1
  6
Continuous
 62
     3
100
AcDbLine
 10
6.66040139521633
 20
78.8461538461663
 30
0.0
 11
8.29999999998782
 21
83.9163325194823
 31
0.0
  0
LINE
  5
113
330
1F
100
AcDbEntity
  8
1
  6
DOT_CENTER
 62
     4
100
AcDbLine
 10
-79.5000000000122
 20
-27.0020855977562
 30
0.0
 11
-79.5000000000122
 21
44.6148888762597
 31
0.0
  0
LINE
  5
114
330
1F
100
AcDbEntity
  8
1
  6
Continuous
 62
     3
100
AcDbLine
 10
-65.6675659497559
 20
-16.4594583217341
 30
0.0
 11
-77.6424133232998
 21
-21.4196025112038
 31
0.0
  0
LINE
  5
115
330
1F
100
AcDbEntity
  8
1
  6
Continuous
 62
     3
100
AcDbLine
 10
-58.080397488796
 20
-1.85758667670001
 30
0.0
 11
-63.0405416782657
 21
-13.8324340502439
 31
0.0
  0
LINE
  5
116
330
1F
100
AcDbEntity
  8
1
  6
Continuous
 62
     3
100
AcDbLine
 10
-63.0405416782657
 20
13.8324340502687
 30
0.0
 11
-58.080397488796
 21
1.85758667672479
 31
0.0
  0
LINE
  5
117
330
1F
100
AcDbEntity
  8
1
  6
Continuous
 62
     3
100
AcDbLine
 10
-77.6424133232998
 20
21.4196025112286
 30
0.0
 11
-65.6675659497559
 21
16.4594583217589
 31
0.0
  0
LINE
  5
118
330
1F
100
AcDbEntity
  8
1
  6
Continuous
 62
     3
100
AcDbLine
 10
-93.3324340502685
 20
16.459458321759
 30
0.0
 11
-81.3575866767246
 21
21.4196025112286
 31
0.0
  0
LINE
  5
119
330
1F
100
AcDbEntity
  8
1
  6
Continuous
 62
     3
100
AcDbLine
 10
-100.919602511228
 20
1.85758667672479
 30
0.0
 11
-95.9594583217587
 21
13.8324340502687
 31
0.0
  0
LINE
  5
11A
330
1F
100
AcDbEntity
  8
1
  6
Continuous
 62
     3
100
AcDbLine
 10
-95.9594583217587
 20
-13.8324340502439
 30
0.0
 11
-100.919602511228
 21
-1.85758667670001
 31
0.0
  0
LINE
  5
11B
330
1F
100
AcDbEntity
  8
1
  6
Continuous
 62
     3
100
AcDbLine
 10
-81.3575866767246
 20
-21.4196025112038
 30
0.0
 11
-93.3324340502685
 21
-16.4594583217341
 31
0.0
  0
LINE
  5
11C
330
1F
100
AcDbEntity
  8
1
  6
Continuous
 62
     3
100
AcDbLine
 10
-79.5000000000122
 20
33.0481555856732
 30
0.0
 11
-60.4476640437693
 21
32.0496649680521
 31
0.0
  0
LINE
  5
11D
330
1F
100
AcDbEntity
  8
1
  6
Continuous
 62
     3
100
AcDbLine
 10
-59.5000000000122
 20
31.0510354332975
 30
0.0
 11
-59.5000000000122
 21
22.6370702608199
 31
0.0
  0
LINE
  5
11E
330
1F
100
AcDbEntity
  8
1
  6
Continuous
 62
     3
100
AcDbLine
 10
-60.0773817382715
 20
21.7307624737832
 30
0.0
 11
-63.7862635894565
 21
20.0012824633836
 31
0.0
  0
LINE
  5
11F
330
1F
100
AcDbEntity
  8
1
  6
Continuous
 62
     3
100
AcDbLine
 10
-98.5523359562551
 20
32.0496649680521
 30
0.0
 11
-79.5000000000122
 21
33.0481555856732
 31
0.0
  0
LINE
  5
120
330
1F
100
AcDbEntity
  8
1
  6
Continuous
 62
     3
100
AcDbLine
 10
-99.5000000000122
 20
22.6370702608199
 30
0.0
 11
-99.5000000000122
 21
31.0510354332975
 31
0.0
  0
LINE
  5
121
330
1F
100
AcDbEntity
  8
1
  6
DOT_CENTER
 62
     4
100
AcDbLine
 10
-127.000000000012
 20
0.00000000001239
 30
0.0
 11
-60.0000000000122
 21
0.00000000001239
 31
0.0
  0
LINE
  5
122
330
1F
100
AcDbEntity
  8
1
  6
Continuous
 62
     3
100
AcDbLine
 10
-64.3461538461661
 20
24.0000000000124
 30
0.0
 11
-64.3461538461661
 21
31.0000000000124
 31
0.0
  0
LINE
  5
123
330
1F
100
AcDbEntity
  8
1
  6
Continuous
 62
     3
100
AcDbLine
 10
-76.1153846153968
 20
32.0000000000124
 30
0.0
 11
-76.1153846153968
 21
25.0000000000124
 31
0.0
  0
LINE
  5
124
330
1F
100
AcDbEntity
  8
1
  6
Continuous
 62
     3
100
AcDbLine
 10
-82.8846153846276
 20
25.0000000000124
 30
0.0
 11
-82.8846153846276
 21
32.0000000000124
 31
0.0
  0
LINE
  5
125
330
1F
100
AcDbEntity
  8
1
  6
Continuous
 62
     3
100
AcDbLine
 10
-94.6538461538583
 20
31.0000000000124
 30
0.0
 11
-94.6538461538583
 21
24.0000000000124
 31
0.0
  0
LINE
  5
126
330
1F
100
AcDbEntity
  8
1
  6
DOT_CENTER
 62
     4
100
AcDbLine
 10
-60.0000000000122
 20
0.00000000001239
 30
0.0
 11
-53.0000000000122
 21
0.00000000001239
 31
0.0
  0
LINE
  5
127
330
1F
100
AcDbEntity
  8
1
  6
Continuous
 62
     3
100
AcDbLine
 10
-90.5000000000122
 20
38.6000000000124
 30
0.0
 11
-93.5000000000122
 21
38.6000000000124
 31
0.0
  0
LINE
  5
128
330
1F
100
AcDbEntity
  8
1
  6
Continuous
 62
     3
100
AcDbLine
 10
-95.2137364105679
 20
20.0012824633836
 30
0.0
 11
-98.9226182617529
 21
21.7307624737832
 31
0.0
  0
LINE
  5
129
330
1F
100
AcDbEntity
  8
1
  6
Continuous
 62
     3
100
AcDbLine
 10
23.9999999999878
 20
-24.9999999999876
 30
0.0
 11
13.4142135623609
 21
-24.9999999999876
 31
0.0
  0
LINE
  5
12A
330
1F
100
AcDbEntity
  8
1
  6
Continuous
 62
     3
100
AcDbLine
 10
-11.0000000000122
 20
-23.9999999999876
 30
0.0
 11
-10.5857864376391
 21
-23.9999999999876
 31
0.0
  0
LINE
  5
12B
330
1F
100
AcDbEntity
  8
1
  6
Continuous
 62
     3
100
AcDbLine
 10
-11.0000000000122
 20
-23.9999999999876
 30
0.0
 11
-11.2928932188256
 21
-23.7071067811742
 31
0.0
  0
LINE
  5
12C
330
1F
100
AcDbEntity
  8
1
  6
Continuous
 62
     3
100
AcDbLine
 10
12.9999999999878
 20
-23.2928932188011
 30
0.0
 11
12.9999999999878
 21
23.2928932188258
 31
0.0
  0
LINE
  5
12D
330
1F
100
AcDbEntity
  8
1
  6
Continuous
 62
     3
100
AcDbLine
 10
11.9999999999878
 20
22.5000000000124
 30
0.0
 11
11.9999999999878
 21
-22.4999999999876
 31
0.0
  0
LINE
  5
12E
330
1F
100
AcDbEntity
  8
1
  6
Continuous
 62
     3
100
AcDbLine
 10
-13.5000000000122
 20
-19.9999999999876
 30
0.0
 11
-13.5000000000122
 21
20.0000000000124
 31
0.0
  0
LINE
  5
12F
330
1F
100
AcDbEntity
  8
1
  6
Continuous
 62
     3
100
AcDbLine
 10
-26.0000000000122
 20
-16.4594583217341
 30
0.0
 11
-26.0000000000122
 21
-21.4999999999876
 31
0.0
  0
LINE
  5
130
330
1F
100
AcDbEntity
  8
1
  6
Continuous
 62
     3
100
AcDbLine
 10
-26.0000000000122
 20
-1.85758667670004
 30
0.0
 11
-26.0000000000122
 21
-13.8324340502438
 31
0.0
  0
LINE
  5
131
330
1F
100
AcDbEntity
  8
1
  6
Continuous
 62
     3
100
AcDbLine
 10
-26.0000000000122
 20
13.8324340502687
 30
0.0
 11
-26.0000000000122
 21
1.85758667672479
 31
0.0
  0
LINE
  5
132
330
1F
100
AcDbEntity
  8
1
  6
Continuous
 62
     3
100
AcDbLine
 10
-26.0000000000122
 20
21.5000000000124
 30
0.0
 11
-26.0000000000122
 21
16.4594583217589
 31
0.0
  0
LINE
  5
133
330
1F
100
AcDbEntity
  8
1
  6
Continuous
 62
     3
100
AcDbLine
 10
-26.0000000000122
 20
21.5000000000124
 30
0.0
 11
-42.8452994616329
 21
21.5000000000124
 31
0.0
  0
LINE
  5
134
330
1F
100
AcDbEntity
  8
1
  6
Continuous
 62
     3
100
AcDbLine
 10
-13.9142135623852
 20
-21.4999999999876
 30
0.0
 11
-26.0000000000122
 21
-21.4999999999876
 31
0.0
  0
LINE
  5
135
330
1F
100
AcDbEntity
  8
1
  6
Continuous
 62
     3
100
AcDbLine
 10
-13.9142135623852
 20
21.5000000000124
 30
0.0
 11
-26.0000000000122
 21
21.5000000000124
 31
0.0
  0
LINE
  5
136
330
1F
100
AcDbEntity
  8
1
  6
Continuous
 62
     3
100
AcDbLine
 10
-11.2928932188256
 20
-23.7071067811742
 30
0.0
 11
-13.2071067811987
 21
-21.7928932188011
 31
0.0
  0
LINE
  5
137
330
1F
100
AcDbEntity
  8
1
  6
Continuous
 62
     3
100
AcDbLine
 10
-11.2928932188256
 20
23.7071067811989
 30
0.0
 11
-13.2071067811987
 21
21.7928932188258
 31
0.0
  0
LINE
  5
138
330
1F
100
AcDbEntity
  8
1
  6
Continuous
 62
     3
100
AcDbLine
 10
11.5857864376148
 20
-23.9999999999876
 30
0.0
 11
-10.5857864376391
 21
-23.9999999999876
 31
0.0
  0
LINE
  5
139
330
1F
100
AcDbEntity
  8
1
  6
Continuous
 62
     3
100
AcDbLine
 10
11.5857864376148
 20
24.0000000000124
 30
0.0
 11
10.9999999999878
 21
24.0000000000124
 31
0.0
  0
LINE
  5
13A
330
1F
100
AcDbEntity
  8
1
  6
Continuous
 62
     3
100
AcDbLine
 10
12.7071067811744
 20
-24.7071067811742
 30
0.0
 11
12.2928932188013
 21
-24.2928932188011
 31
0.0
  0
LINE
  5
13B
330
1F
100
AcDbEntity
  8
1
  6
Continuous
 62
     3
100
AcDbLine
 10
12.7071067811744
 20
24.7071067811989
 30
0.0
 11
12.2928932188013
 21
24.2928932188258
 31
0.0
  0
LINE
  5
13C
330
1F
100
AcDbEntity
  8
1
  6
Continuous
 62
     3
100
AcDbLine
 10
13.4142135623609
 20
25.0000000000124
 30
0.0
 11
23.9999999999878
 21
25.0000000000124
 31
0.0
  0
LINE
  5
13D
330
1F
100
AcDbEntity
  8
1
  6
Continuous
 62
     3
100
AcDbLine
 10
10.9999999999878
 20
32.0481555856732
 30
0.0
 11
10.9999999999878
 21
24.8284271247586
 31
0.0
  0
LINE
  5
13E
330
1F
100
AcDbEntity
  8
1
  6
Continuous
 62
     3
100
AcDbLine
 10
-11.0000000000122
 20
22.2928932188258
 30
0.0
 11
-11.0000000000122
 21
-22.2928932188011
 31
0.0
  0
LINE
  5
13F
330
1F
100
AcDbEntity
  8
1
  6
Continuous
 62
     3
100
AcDbLine
 10
-11.0000000000122
 20
32.0481555856732
 30
0.0
 11
-11.0000000000122
 21
24.4142135623855
 31
0.0
  0
LINE
  5
140
330
1F
100
AcDbEntity
  8
1
  6
Continuous
 62
     3
100
AcDbLine
 10
-8.03115552359662
 20
21.0168239264865
 30
0.0
 11
8.01357250789079
 21
21.0168239264865
 31
0.0
  0
LINE
  5
141
330
1F
100
AcDbEntity
  8
1
  6
Continuous
 62
     3
100
AcDbLine
 10
10.4663450496327
 20
31.0000000000124
 30
0.0
 11
10.4663450496327
 21
26.0000000000124
 31
0.0
  0
LINE
  5
142
330
1F
100
AcDbEntity
  8
1
  6
Continuous
 62
     3
100
AcDbLine
 10
6.66040139521635
 20
25.0000000000124
 30
0.0
 11
6.66040139521635
 21
30.0000000000124
 31
0.0
  0
LINE
  5
143
330
1F
100
AcDbEntity
  8
1
  6
Continuous
 62
     3
100
AcDbLine
 10
-6.66040139524068
 20
30.0000000000124
 30
0.0
 11
-6.66040139524068
 21
25.0000000000124
 31
0.0
  0
LINE
  5
144
330
1F
100
AcDbEntity
  8
1
  6
Continuous
 62
     3
100
AcDbLine
 10
-10.466345049657
 20
26.0000000000124
 30
0.0
 11
-10.466345049657
 21
31.0000000000124
 31
0.0
  0
LINE
  5
145
330
1F
100
AcDbEntity
  8
1
  6
DOT_CENTER
 62
     4
100
AcDbLine
 10
-46.2000000000122
 20
0.00000000001239
 30
0.0
 11
49.5747364784013
 21
0.00000000001239
 31
0.0
  0
LINE
  5
146
330
1F
100
AcDbEntity
  8
1
  6
Continuous
 62
     3
100
AcDbLine
 10
3.7527767497204
 20
100.500000000012
 30
0.0
 11
-3.75277674974487
 21
100.500000000012
 31
0.0
  0
LINE
  5
147
330
1F
100
AcDbEntity
  8
1
  6
Continuous
 62
     3
100
AcDbLine
 10
7.50555349945301
 20
94.0000000000124
 30
0.0
 11
3.7527767497204
 21
100.500000000012
 31
0.0
  0
LINE
  5
148
330
1F
100
AcDbEntity
  8
1
  6
Continuous
 62
     3
100
AcDbLine
 10
-3.75277674974487
 20
100.500000000012
 30
0.0
 11
-7.50555349947729
 21
94.0000000000124
 31
0.0
  0
LINE
  5
149
330
1F
100
AcDbEntity
  8
1
  6
Continuous
 62
     3
100
AcDbLine
 10
-7.50555349947729
 20
94.0000000000124
 30
0.0
 11
-3.75277674974487
 21
87.5000000000124
 31
0.0
  0
LINE
  5
14A
330
1F
100
AcDbEntity
  8
1
  6
Continuous
 62
     3
100
AcDbLine
 10
-3.75277674974487
 20
87.5000000000124
 30
0.0
 11
3.7527767497204
 21
87.5000000000124
 31
0.0
  0
LINE
  5
14B
330
1F
100
AcDbEntity
  8
1
  6
Continuous
 62
     3
100
AcDbLine
 10
3.7527767497204
 20
87.5000000000124
 30
0.0
 11
7.50555349945301
 21
94.0000000000124
 31
0.0
  0
LINE
  5
14C
330
1F
100
AcDbEntity
  8
1
  6
Continuous
 62
     3
100
AcDbLine
 10
-69.5000000000122
 20
34.6000000000124
 30
0.0
 11
-89.5000000000122
 21
34.6000000000124
 31
0.0
  0
LINE
  5
14D
330
1F
100
AcDbEntity
  8
1
  6
Continuous
 62
     3
100
AcDbLine
 10
-76.5000000000122
 20
37.6000000000124
 30
0.0
 11
-72.3000000000122
 21
37.6000000000124
 31
0.0
  0
LINE
  5
14E
330
1F
100
AcDbEntity
  8
1
  6
Continuous
 62
     3
100
AcDbLine
 10
-76.5000000000122
 20
37.6000000000124
 30
0.0
 11
-76.5000000000122
 21
34.6000000000124
 31
0.0
  0
LINE
  5
14F
330
1F
100
AcDbEntity
  8
1
  6
Continuous
 62
     3
100
AcDbLine
 10
-82.7500000000123
 20
44.6000000000124
 30
0.0
 11
-73.0000000000123
 21
44.6000000000124
 31
0.0
  0
LINE
  5
150
330
1F
100
AcDbEntity
  8
1
  6
Continuous
 62
     3
100
AcDbLine
 10
-73.0000000000123
 20
44.0226497308228
 30
0.0
 11
-73.0000000000123
 21
40.177350269202
 31
0.0
  0
LINE
  5
151
330
1F
100
AcDbEntity
  8
1
  6
Continuous
 62
     3
100
AcDbLine
 10
-73.0000000000123
 20
44.6000000000124
 30
0.0
 11
-73.0000000000123
 21
44.0226497308228
 31
0.0
  0
LINE
  5
152
330
1F
100
AcDbEntity
  8
1
  6
Continuous
 62
     3
100
AcDbLine
 10
-73.0000000000123
 20
40.177350269202
 30
0.0
 11
-73.0000000000123
 21
39.6000000000124
 31
0.0
  0
LINE
  5
153
330
1F
100
AcDbEntity
  8
1
  6
Continuous
 62
     3
100
AcDbLine
 10
-79.5000000000122
 20
40.177350269202
 30
0.0
 11
-79.5000000000122
 21
44.0226497308228
 31
0.0
  0
LINE
  5
154
330
1F
100
AcDbEntity
  8
1
  6
Continuous
 62
     3
100
AcDbLine
 10
-86.0000000000122
 20
40.177350269202
 30
0.0
 11
-86.0000000000122
 21
44.0226497308228
 31
0.0
  0
LINE
  5
155
330
1F
100
AcDbEntity
  8
1
  6
Continuous
 62
     3
100
AcDbLine
 10
-86.0000000000122
 20
39.6000000000124
 30
0.0
 11
-86.0000000000122
 21
40.177350269202
 31
0.0
  0
LINE
  5
156
330
1F
100
AcDbEntity
  8
1
  6
Continuous
 62
     3
100
AcDbLine
 10
-86.0000000000122
 20
44.0226497308228
 30
0.0
 11
-86.0000000000122
 21
44.6000000000124
 31
0.0
  0
LINE
  5
157
330
1F
100
AcDbEntity
  8
1
  6
Continuous
 62
     3
100
AcDbLine
 10
-86.0000000000122
 20
44.6000000000124
 30
0.0
 11
-83.5000000000122
 21
44.6000000000124
 31
0.0
  0
LINE
  5
158
330
1F
100
AcDbEntity
  8
1
  6
Continuous
 62
     3
100
AcDbLine
 10
-69.5000000000122
 20
34.6000000000124
 30
0.0
 11
-69.5000000000122
 21
37.6000000000124
 31
0.0
  0
LINE
  5
159
330
1F
100
AcDbEntity
  8
1
  6
Continuous
 62
     3
100
AcDbLine
 10
-89.5000000000122
 20
34.6000000000124
 30
0.0
 11
-89.5000000000122
 21
37.6000000000124
 31
0.0
  0
LINE
  5
15A
330
1F
100
AcDbEntity
  8
1
  6
Continuous
 62
     3
100
AcDbLine
 10
-89.5000000000122
 20
37.6000000000124
 30
0.0
 11
-86.7000000000122
 21
37.6000000000124
 31
0.0
  0
LINE
  5
15B
330
1F
100
AcDbEntity
  8
1
  6
Continuous
 62
     3
100
AcDbLine
 10
-87.2000000000122
 20
38.1000000000124
 30
0.0
 11
-87.2000000000122
 21
39.1000000000124
 31
0.0
  0
LINE
  5
15C
330
1F
100
AcDbEntity
  8
1
  6
Continuous
 62
     3
100
AcDbLine
 10
-86.7000000000122
 20
39.6000000000124
 30
0.0
 11
-72.3000000000122
 21
39.6000000000124
 31
0.0
  0
LINE
  5
15D
330
1F
100
AcDbEntity
  8
1
  6
Continuous
 62
     3
100
AcDbLine
 10
-71.8000000000122
 20
39.1000000000124
 30
0.0
 11
-71.8000000000122
 21
38.1000000000124
 31
0.0
  0
LINE
  5
15E
330
1F
100
AcDbEntity
  8
1
  6
Continuous
 62
     3
100
AcDbLine
 10
-7.70000000001218
 20
38.1000000000124
 30
0.0
 11
-7.70000000001218
 21
39.1000000000124
 31
0.0
  0
LINE
  5
15F
330
1F
100
AcDbEntity
  8
1
  6
Continuous
 62
     3
100
AcDbLine
 10
7.69999999998782
 20
39.1000000000124
 30
0.0
 11
7.69999999998782
 21
38.1000000000124
 31
0.0
  0
LINE
  5
160
330
1F
100
AcDbEntity
  8
1
  6
Continuous
 62
     3
100
AcDbLine
 10
6.49999999998784
 20
44.6000000000125
 30
0.0
 11
7.49999999998784
 21
44.0226497308229
 31
0.0
  0
LINE
  5
161
330
1F
100
AcDbEntity
  8
1
  6
Continuous
 62
     3
100
AcDbLine
 10
3.99999999998784
 20
44.6000000000125
 30
0.0
 11
6.49999999998784
 21
44.6000000000125
 31
0.0
  0
LINE
  5
162
330
1F
100
AcDbEntity
  8
1
  6
Continuous
 62
     3
100
AcDbLine
 10
7.49999999998784
 20
40.1773502692021
 30
0.0
 11
6.49999999998784
 21
39.6000000000124
 31
0.0
  0
LINE
  5
163
330
1F
100
AcDbEntity
  8
1
  6
Continuous
 62
     3
100
AcDbLine
 10
7.49999999998784
 20
44.0226497308229
 30
0.0
 11
7.49999999998784
 21
40.1773502692021
 31
0.0
  0
LINE
  5
164
330
1F
100
AcDbEntity
  8
1
  6
Continuous
 62
     3
100
AcDbLine
 10
-7.50000000001219
 20
44.0226497308229
 30
0.0
 11
-6.50000000001219
 21
44.6000000000125
 31
0.0
  0
LINE
  5
165
330
1F
100
AcDbEntity
  8
1
  6
Continuous
 62
     3
100
AcDbLine
 10
-6.50000000001219
 20
44.6000000000125
 30
0.0
 11
-4.00000000001219
 21
44.6000000000125
 31
0.0
  0
LINE
  5
166
330
1F
100
AcDbEntity
  8
1
  6
Continuous
 62
     3
100
AcDbLine
 10
-6.50000000001219
 20
39.6000000000124
 30
0.0
 11
-7.50000000001219
 21
40.1773502692021
 31
0.0
  0
LINE
  5
167
330
1F
100
AcDbEntity
  8
1
  6
Continuous
 62
     3
100
AcDbLine
 10
-7.50000000001219
 20
40.1773502692021
 30
0.0
 11
-7.50000000001219
 21
44.0226497308229
 31
0.0
  0
LINE
  5
168
330
1F
100
AcDbEntity
  8
1
  6
Continuous
 62
     3
100
AcDbLine
 10
3.99999999998784
 20
44.6000000000125
 30
0.0
 11
2.74999999998784
 21
44.6000000000125
 31
0.0
  0
LINE
  5
169
330
1F
100
AcDbEntity
  8
1
  6
Continuous
 62
     3
100
AcDbLine
 10
-4.00000000001219
 20
44.6000000000125
 30
0.0
 11
-2.75000000001216
 21
44.6000000000125
 31
0.0
  0
LINE
  5
16A
330
1F
100
AcDbEntity
  8
1
  6
Continuous
 62
     3
100
AcDbLine
 10
-2.75000000001216
 20
44.6000000000125
 30
0.0
 11
2.74999999998784
 21
44.6000000000125
 31
0.0
  0
LINE
  5
16B
330
1F
100
AcDbEntity
  8
1
  6
Continuous
 62
     3
100
AcDbLine
 10
3.7527767497204
 20
44.0226497308229
 30
0.0
 11
3.7527767497204
 21
40.1773502692021
 31
0.0
  0
LINE
  5
16C
330
1F
100
AcDbEntity
  8
1
  6
Continuous
 62
     3
100
AcDbLine
 10
-3.75277674974487
 20
44.0226497308229
 30
0.0
 11
-3.75277674974487
 21
40.1773502692021
 31
0.0
  0
LINE
  5
16D
330
1F
100
AcDbEntity
  8
1
  6
Continuous
 62
     3
100
AcDbLine
 10
-7.20000000001218
 20
39.6000000000124
 30
0.0
 11
7.19999999998782
 21
39.6000000000124
 31
0.0
  0
LINE
  5
16E
330
1F
100
AcDbEntity
  8
1
  6
Continuous
 62
     3
100
AcDbLine
 10
-14.0000000000122
 20
37.1000000000124
 30
0.0
 11
-14.0000000000122
 21
34.6000000000124
 31
0.0
  0
LINE
  5
16F
330
1F
100
AcDbEntity
  8
1
  6
DOT_CENTER
 62
     4
100
AcDbLine
 10
-0.00000000001216
 20
49.5708805990352
 30
0.0
 11
-0.00000000001216
 21
-27.1596850412713
 31
0.0
  0
LINE
  5
170
330
1F
100
AcDbEntity
  8
1
  6
DOT_CENTER
 62
     4
100
AcDbLine
 10
-46.2000000000122
 20
94.0000000000124
 30
0.0
 11
29.5747364784013
 21
94.0000000000124
 31
0.0
  0
LINE
  5
171
330
1F
100
AcDbEntity
  8
1
  6
Continuous
 62
     3
100
AcDbLine
 10
-6.66040139524068
 20
78.8461538461663
 30
0.0
 11
-8.32705645959291
 21
84.0000000000124
 31
0.0
  0
LINE
  5
172
330
1F
100
AcDbEntity
  8
1
  6
Continuous
 62
     3
100
AcDbLine
 10
-6.66040139524068
 20
109.153846153859
 30
0.0
 11
-10.466345049657
 21
97.3846153846278
 31
0.0
  0
LINE
  5
173
330
1F
100
AcDbEntity
  8
1
  6
Continuous
 62
     3
100
AcDbLine
 10
6.66040139521633
 20
109.153846153859
 30
0.0
 11
7.05413073257917
 21
107.93630541947
 31
0.0
  0
LINE
  5
174
330
1F
100
AcDbEntity
  8
1
  6
Continuous
 62
     3
100
AcDbLine
 10
-1.69723185801388
 20
109.000000000012
 30
0.0
 11
1.69723185798952
 21
109.000000000012
 31
0.0
  0
LINE
  5
175
330
1F
100
AcDbEntity
  8
1
  6
Continuous
 62
     3
100
AcDbLine
 10
2.69342655608133
 20
108.08715574276
 30
0.0
 11
2.99999999998784
 21
104.583005244271
 31
0.0
  0
LINE
  5
176
330
1F
100
AcDbEntity
  8
1
  6
Continuous
 62
     3
100
AcDbLine
 10
-2.69342655610566
 20
108.08715574276
 30
0.0
 11
-3.00000000001216
 21
104.583005244271
 31
0.0
  0
LINE
  5
177
330
1F
100
AcDbEntity
  8
1
  6
Continuous
 62
     3
100
AcDbLine
 10
-3.00000000001216
 20
104.583005244271
 30
0.0
 11
-3.03820680931898
 21
104.146299415573
 31
0.0
  0
LINE
  5
178
330
1F
100
AcDbEntity
  8
1
  6
Continuous
 62
     3
100
AcDbLine
 10
-72.0000000000122
 20
33.6000000000124
 30
0.0
 11
-72.0000000000122
 21
34.6000000000124
 31
0.0
  0
LINE
  5
179
330
1F
100
AcDbEntity
  8
1
  6
Continuous
 62
     3
100
AcDbLine
 10
-87.0000000000122
 20
33.6000000000124
 30
0.0
 11
-87.0000000000122
 21
34.6000000000124
 31
0.0
  0
LINE
  5
17A
330
1F
100
AcDbEntity
  8
1
  6
Continuous
 62
     3
100
AcDbLine
 10
7.49999999998784
 20
33.6000000000124
 30
0.0
 11
7.49999999998784
 21
34.6000000000124
 31
0.0
  0
LINE
  5
17B
330
1F
100
AcDbEntity
  8
1
  6
Continuous
 62
     3
100
AcDbLine
 10
-7.50000000001217
 20
33.6000000000124
 30
0.0
 11
-7.50000000001217
 21
34.6000000000124
 31
0.0
  0
LINE
  5
17C
330
1F
100
AcDbEntity
  8
1
  6
Continuous
 62
     3
100
AcDbLine
 10
0.29999999998783
 20
93.7000000000124
 30
0.0
 11
-3.18590646442696
 21
93.7000000000124
 31
0.0
  0
LINE
  5
17D
330
1F
100
AcDbEntity
  8
1
  6
Continuous
 62
     3
100
AcDbLine
 10
-0.30000000001216
 20
94.3000000000124
 30
0.0
 11
-3.18590646442696
 21
94.3000000000124
 31
0.0
  0
LINE
  5
17E
330
1F
100
AcDbEntity
  8
1
  6
Continuous
 62
     3
100
AcDbLine
 10
0.29999999998783
 20
97.1859064644272
 30
0.0
 11
0.29999999998783
 21
93.7000000000124
 31
0.0
  0
LINE
  5
17F
330
1F
100
AcDbEntity
  8
1
  6
Continuous
 62
     3
100
AcDbLine
 10
-0.30000000001216
 20
97.1859064644272
 30
0.0
 11
-0.30000000001216
 21
94.3000000000124
 31
0.0
  0
LINE
  5
180
330
1F
100
AcDbEntity
  8
1
  6
Continuous
 62
     3
100
AcDbLine
 10
-3.9242640687241
 20
94.0000000000124
 30
0.0
 11
-3.18590646442696
 21
93.7000000000124
 31
0.0
  0
LINE
  5
181
330
1F
100
AcDbEntity
  8
1
  6
Continuous
 62
     3
100
AcDbLine
 10
-3.18590646442696
 20
94.3000000000124
 30
0.0
 11
-3.9242640687241
 21
94.0000000000124
 31
0.0
  0
LINE
  5
182
330
1F
100
AcDbEntity
  8
1
  6
Continuous
 62
     3
100
AcDbLine
 10
-0.00000000001216
 20
97.9242640687243
 30
0.0
 11
-0.30000000001216
 21
97.1859064644272
 31
0.0
  0
LINE
  5
183
330
1F
100
AcDbEntity
  8
1
  6
DOT_CENTER
 62
     3
100
AcDbLine
 10
-0.00000000001216
 20
97.9242640687243
 30
0.0
 11
-0.00000000001216
 21
98.0000000000124
 31
0.0
  0
LINE
  5
184
330
1F
100
AcDbEntity
  8
1
  6
Continuous
 62
     3
100
AcDbLine
 10
-0.00000000001216
 20
97.9242640687243
 30
0.0
 11
0.29999999998783
 21
97.1859064644272
 31
0.0
  0
LINE
  5
185
330
1F
100
AcDbEntity
  8
1
  6
Continuous
 62
     3
100
AcDbLine
 10
-3.20000000001221
 20
46.5000000000124
 30
0.0
 11
-4.00000000001217
 21
45.7000000000124
 31
0.0
  0
LINE
  5
186
330
1F
100
AcDbEntity
  8
1
  6
Continuous
 62
     3
100
AcDbLine
 10
3.19999999998788
 20
46.5000000000124
 30
0.0
 11
3.99999999998784
 21
45.7000000000124
 31
0.0
  0
LINE
  5
187
330
1F
100
AcDbEntity
  8
1
  6
Continuous
 62
     3
100
AcDbLine
 10
-4.00000000001217
 20
45.7000000000124
 30
0.0
 11
3.99999999998784
 21
45.7000000000124
 31
0.0
  0
LINE
  5
188
330
1F
100
AcDbEntity
  8
1
  6
Continuous
 62
     3
100
AcDbLine
 10
3.99999999998784
 20
45.7000000000124
 30
0.0
 11
3.99999999998784
 21
44.6000000000125
 31
0.0
  0
LINE
  5
189
330
1F
100
AcDbEntity
  8
1
  6
Continuous
 62
     3
100
AcDbLine
 10
3.3234999999878
 20
46.3765000000124
 30
0.0
 11
3.3234999999878
 21
44.6000000000125
 31
0.0
  0
LINE
  5
18A
330
1F
100
AcDbEntity
  8
1
  6
Continuous
 62
     3
100
AcDbLine
 10
-3.32350000001213
 20
44.6000000000125
 30
0.0
 11
-3.32350000001213
 21
46.3765000000124
 31
0.0
  0
LINE
  5
18B
330
1F
100
AcDbEntity
  8
1
  6
Continuous
 62
     3
100
AcDbLine
 10
-4.00000000001219
 20
44.6000000000125
 30
0.0
 11
-4.00000000001217
 21
45.7000000000124
 31
0.0
  0
LINE
  5
18C
330
1F
100
AcDbEntity
  8
1
  6
Continuous
 62
     3
100
AcDbLine
 10
-82.7000000000122
 20
46.5000000000124
 30
0.0
 11
-76.3000000000121
 21
46.5000000000124
 31
0.0
  0
LINE
  5
18D
330
1F
100
AcDbEntity
  8
1
  6
Continuous
 62
     3
100
AcDbLine
 10
-79.5000000000122
 20
45.7757359313005
 30
0.0
 11
-79.8000000000122
 21
46.5000000000124
 31
0.0
  0
LINE
  5
18E
330
1F
100
AcDbEntity
  8
1
  6
Continuous
 62
     3
100
AcDbLine
 10
-79.5000000000122
 20
45.7757359313005
 30
0.0
 11
-79.2000000000122
 21
46.5000000000124
 31
0.0
  0
LINE
  5
18F
330
1F
100
AcDbEntity
  8
1
  6
Continuous
 62
     3
100
AcDbLine
 10
-83.5000000000122
 20
45.7000000000124
 30
0.0
 11
-75.5000000000122
 21
45.7000000000124
 31
0.0
  0
LINE
  5
190
330
1F
100
AcDbEntity
  8
1
  6
Continuous
 62
     3
100
AcDbLine
 10
-76.3000000000121
 20
46.5000000000124
 30
0.0
 11
-75.5000000000122
 21
45.7000000000124
 31
0.0
  0
LINE
  5
191
330
1F
100
AcDbEntity
  8
1
  6
Continuous
 62
     3
100
AcDbLine
 10
-82.7000000000122
 20
46.5000000000124
 30
0.0
 11
-83.5000000000122
 21
45.7000000000124
 31
0.0
  0
LINE
  5
192
330
1F
100
AcDbEntity
  8
1
  6
Continuous
 62
     3
100
AcDbLine
 10
-75.5000000000122
 20
45.7000000000124
 30
0.0
 11
-75.5000000000122
 21
44.6000000000124
 31
0.0
  0
LINE
  5
193
330
1F
100
AcDbEntity
  8
1
  6
Continuous
 62
     3
100
AcDbLine
 10
-76.1765000000122
 20
46.3765000000124
 30
0.0
 11
-76.1765000000122
 21
44.6000000000124
 31
0.0
  0
LINE
  5
194
330
1F
100
AcDbEntity
  8
1
  6
Continuous
 62
     3
100
AcDbLine
 10
-82.8235000000122
 20
44.6000000000124
 30
0.0
 11
-82.8235000000122
 21
46.3765000000124
 31
0.0
  0
LINE
  5
195
330
1F
100
AcDbEntity
  8
1
  6
Continuous
 62
     3
100
AcDbLine
 10
-83.5000000000122
 20
44.6000000000124
 30
0.0
 11
-83.5000000000122
 21
45.7000000000124
 31
0.0
  0
LINE
  5
196
330
1F
100
AcDbEntity
  8
1
  6
DOT_CENTER
 62
     4
100
AcDbLine
 10
67.9579582859219
 20
94.0000000000124
 30
0.0
 11
81.1545475859283
 21
94.0000000000124
 31
0.0
  0
LINE
  5
197
102
{ACAD_REACTORS
330
36B
102
}
330
1F
100
AcDbEntity
  8
1
  6
Continuous
 62
     3
100
AcDbLine
 10
64.8826183844795
 20
94.0000000000124
 30
0.0
 11
65.7368348631994
 21
94.0000000000124
 31
0.0
  0
LINE
  5
198
102
{ACAD_REACTORS
330
372
102
}
330
1F
100
AcDbEntity
  8
1
  6
Continuous
 62
     3
100
AcDbLine
 10
60.4481267165323
 20
94.0000000000124
 30
0.0
 11
61.0198358216426
 21
94.0000000000124
 31
0.0
  0
LINE
  5
199
102
{ACAD_REACTORS
330
372
102
}
330
1F
100
AcDbEntity
  8
1
  6
Continuous
 62
     3
100
AcDbLine
 10
63.1130751638909
 20
94.0000000000124
 30
0.0
 11
64.147749031372
 21
94.0000000000124
 31
0.0
  0
LINE
  5
19A
102
{ACAD_REACTORS
330
36C
102
}
330
1F
100
AcDbEntity
  8
1
  6
Continuous
 62
     3
100
AcDbLine
 10
55.5462938829754
 20
94.0000000000124
 30
0.0
 11
56.0589375140795
 21
94.0000000000124
 31
0.0
  0
LINE
  5
19B
102
{ACAD_REACTORS
330
36C
102
}
330
1F
100
AcDbEntity
  8
1
  6
Continuous
 62
     3
100
AcDbLine
 10
56.9254683595467
 20
94.0000000000124
 30
0.0
 11
57.9784000493905
 21
94.0000000000124
 31
0.0
  0
LINE
  5
19C
102
{ACAD_REACTORS
330
36C
102
}
330
1F
100
AcDbEntity
  8
1
  6
Continuous
 62
     3
100
AcDbLine
 10
58.7912359353275
 20
94.0000000000124
 30
0.0
 11
59.6454524140474
 21
94.0000000000124
 31
0.0
  0
LINE
  5
19D
102
{ACAD_REACTORS
330
371
102
}
330
1F
100
AcDbEntity
  8
1
  6
Continuous
 62
     3
100
AcDbLine
 10
51.1118022150282
 20
94.0000000000124
 30
0.0
 11
51.6835113201386
 21
94.0000000000124
 31
0.0
  0
LINE
  5
19E
102
{ACAD_REACTORS
330
371
102
}
330
1F
100
AcDbEntity
  8
1
  6
Continuous
 62
     3
100
AcDbLine
 10
53.7767506623867
 20
94.0000000000124
 30
0.0
 11
54.8114245298681
 21
94.0000000000124
 31
0.0
  0
LINE
  5
19F
102
{ACAD_REACTORS
330
36D
102
}
330
1F
100
AcDbEntity
  8
1
  6
Continuous
 62
     3
100
AcDbLine
 10
47.0639015005114
 20
94.0000000000124
 30
0.0
 11
47.9181179792314
 21
94.0000000000124
 31
0.0
  0
LINE
  5
1A0
102
{ACAD_REACTORS
330
36D
102
}
330
1F
100
AcDbEntity
  8
1
  6
Continuous
 62
     3
100
AcDbLine
 10
49.4549114338235
 20
94.0000000000124
 30
0.0
 11
50.3091279125435
 21
94.0000000000124
 31
0.0
  0
LINE
  5
1A1
330
1F
100
AcDbEntity
  8
1
  6
Continuous
 62
     3
100
AcDbLine
 10
19.9999999999878
 20
87.3286657365739
 30
0.0
 11
19.9999999999878
 21
100.671334263451
 31
0.0
  0
LINE
  5
1A2
330
1F
100
AcDbEntity
  8
1
  6
Continuous
 62
     3
100
AcDbLine
 10
77.8299235966957
 20
97.3910854778028
 30
0.0
 11
76.8686694224522
 21
100.032109615893
 31
0.0
  0
LINE
  5
1A3
330
1F
100
AcDbEntity
  8
1
  6
Continuous
 62
     3
100
AcDbLine
 10
76.2355180051711
 20
100.492261948975
 30
0.0
 11
19.9999999999878
 21
102.472449839935
 31
0.0
  0
LINE
  5
1A4
330
1F
100
AcDbEntity
  8
1
  6
Continuous
 62
     3
100
AcDbLine
 10
76.8686694224522
 20
87.9678903841316
 30
0.0
 11
77.8299235966957
 21
90.6089145222221
 31
0.0
  0
LINE
  5
1A5
330
1F
100
AcDbEntity
  8
1
  6
Continuous
 62
     3
100
AcDbLine
 10
76.2355180051711
 20
87.5077380510498
 30
0.0
 11
19.9999999999878
 21
85.5275501600895
 31
0.0
  0
LINE
  5
1A6
330
1F
100
AcDbEntity
  8
1
  6
Continuous
 62
     3
100
AcDbLine
 10
13.9999999999878
 20
102.500000000012
 30
0.0
 11
13.9999999999878
 21
85.5000000000124
 31
0.0
  0
LINE
  5
1A7
330
1F
100
AcDbEntity
  8
1
  6
Continuous
 62
     3
100
AcDbLine
 10
23.23760430702187
 20
100.326711635105
 30
0.0
 11
23.23760430702187
 21
87.6732883649196
 31
0.0
  0
LINE
  5
1A8
330
1F
100
AcDbEntity
  8
1
  6
Continuous
 62
     3
100
AcDbLine
 10
19.1999999999878
 20
86.5000000000124
 30
0.0
 11
19.0067336757935
 21
86.4070834979959
 31
0.0
  0
LINE
  5
1A9
330
1F
100
AcDbEntity
  8
1
  6
Continuous
 62
     3
100
AcDbLine
 10
19.1999999999878
 20
101.500000000012
 30
0.0
 11
19.0067336757935
 21
101.592916502029
 31
0.0
  0
LINE
  5
1AA
330
1F
100
AcDbEntity
  8
1
  6
Continuous
 62
     3
100
AcDbLine
 10
2.99999999998784
 20
108.000000000012
 30
0.0
 11
6.34314575049547
 21
108.000000000012
 31
0.0
  0
LINE
  5
1AB
330
1F
100
AcDbEntity
  8
1
  6
Continuous
 62
     3
100
AcDbLine
 10
11.9999999999878
 20
104.000000000012
 30
0.0
 11
9.17157287524168
 21
106.828427124759
 31
0.0
  0
LINE
  5
1AC
330
1F
100
AcDbEntity
  8
1
  6
Continuous
 62
     3
100
AcDbLine
 10
13.9999999999878
 20
104.000000000012
 30
0.0
 11
11.9999999999878
 21
104.000000000012
 31
0.0
  0
LINE
  5
1AD
330
1F
100
AcDbEntity
  8
1
  6
Continuous
 62
     3
100
AcDbLine
 10
-10.0000000000122
 20
84.0000000000124
 30
0.0
 11
13.9999999999878
 21
84.0000000000124
 31
0.0
  0
LINE
  5
1AE
330
1F
100
AcDbEntity
  8
1
  6
Continuous
 62
     3
100
AcDbLine
 10
-14.0000000000122
 20
91.0000000000124
 30
0.0
 11
-14.0000000000122
 21
88.0000000000124
 31
0.0
  0
LINE
  5
1AF
330
1F
100
AcDbEntity
  8
1
  6
Continuous
 62
     3
100
AcDbLine
 10
-10.0000000000122
 20
91.0000000000124
 30
0.0
 11
-14.0000000000122
 21
91.0000000000124
 31
0.0
  0
LINE
  5
1B0
330
1F
100
AcDbEntity
  8
1
  6
Continuous
 62
     3
100
AcDbLine
 10
2.99999999998784
 20
104.000000000012
 30
0.0
 11
2.99999999998784
 21
108.000000000012
 31
0.0
  0
LINE
  5
1B1
330
1F
100
AcDbEntity
  8
1
  6
Continuous
 62
     3
100
AcDbLine
 10
-10.0000000000122
 20
94.0000000000124
 30
0.0
 11
-10.0000000000122
 21
91.0000000000124
 31
0.0
  0
LINE
  5
1B2
330
1F
100
AcDbEntity
  8
1
  6
Continuous
 62
     3
100
AcDbLine
 10
-0.00000000001216
 20
104.000000000012
 30
0.0
 11
2.99999999998784
 21
104.000000000012
 31
0.0
  0
LINE
  5
1B3
102
{ACAD_REACTORS
330
36A
102
}
330
1F
100
AcDbEntity
  8
1
  6
Continuous
 62
     3
100
AcDbLine
 10
34.5999999999879
 20
90.9000000000124
 30
0.0
 11
32.9999999999878
 21
90.9000000000124
 31
0.0
  0
LINE
  5
1B4
102
{ACAD_REACTORS
330
36A
102
}
330
1F
100
AcDbEntity
  8
1
  6
Continuous
 62
     3
100
AcDbLine
 10
36.5999999999879
 20
92.9000000000124
 30
0.0
 11
36.5999999999879
 21
95.5000000000124
 31
0.0
  0
LINE
  5
1B5
102
{ACAD_REACTORS
330
36A
102
}
330
1F
100
AcDbEntity
  8
1
  6
Continuous
 62
     3
100
AcDbLine
 10
35.5999999999879
 20
95.5000000000124
 30
0.0
 11
35.5999999999879
 21
93.1000000000124
 31
0.0
  0
LINE
  5
1B6
102
{ACAD_REACTORS
330
36A
102
}
330
1F
100
AcDbEntity
  8
1
  6
Continuous
 62
     3
100
AcDbLine
 10
35.5999999999879
 20
95.5000000000124
 30
0.0
 11
34.6999999999879
 21
95.5000000000124
 31
0.0
  0
LINE
  5
1B7
102
{ACAD_REACTORS
330
36A
102
}
330
1F
100
AcDbEntity
  8
1
  6
Continuous
 62
     3
100
AcDbLine
 10
37.4999999999878
 20
95.5000000000124
 30
0.0
 11
36.5999999999879
 21
95.5000000000124
 31
0.0
  0
LINE
  5
1B8
102
{ACAD_REACTORS
330
36A
102
}
330
1F
100
AcDbEntity
  8
1
  6
Continuous
 62
     3
100
AcDbLine
 10
36.0999999999879
 20
98.5000000000124
 30
0.0
 11
34.6999999999879
 21
95.5000000000124
 31
0.0
  0
LINE
  5
1B9
102
{ACAD_REACTORS
330
36A
102
}
330
1F
100
AcDbEntity
  8
1
  6
Continuous
 62
     3
100
AcDbLine
 10
36.0999999999879
 20
98.5000000000124
 30
0.0
 11
37.4999999999878
 21
95.5000000000124
 31
0.0
  0
LINE
  5
1BA
102
{ACAD_REACTORS
330
36A
102
}
330
1F
100
AcDbEntity
  8
1
  6
Continuous
 62
     3
100
AcDbLine
 10
32.9999999999878
 20
91.9000000000124
 30
0.0
 11
34.3999999999878
 21
91.9000000000124
 31
0.0
  0
LINE
  5
1BB
102
{ACAD_REACTORS
330
36A
102
}
330
1F
100
AcDbEntity
  8
1
  6
Continuous
 62
     3
100
AcDbLine
 10
32.9999999999878
 20
90.9000000000124
 30
0.0
 11
32.9999999999878
 21
90.0000000000124
 31
0.0
  0
LINE
  5
1BC
102
{ACAD_REACTORS
330
36A
102
}
330
1F
100
AcDbEntity
  8
1
  6
Continuous
 62
     3
100
AcDbLine
 10
32.9999999999878
 20
92.8000000000124
 30
0.0
 11
32.9999999999878
 21
91.9000000000124
 31
0.0
  0
LINE
  5
1BD
102
{ACAD_REACTORS
330
36A
102
}
330
1F
100
AcDbEntity
  8
1
  6
Continuous
 62
     3
100
AcDbLine
 10
29.9999999999878
 20
91.4000000000124
 30
0.0
 11
32.9999999999878
 21
90.0000000000124
 31
0.0
  0
LINE
  5
1BE
102
{ACAD_REACTORS
330
36A
102
}
330
1F
100
AcDbEntity
  8
1
  6
Continuous
 62
     3
100
AcDbLine
 10
29.9999999999878
 20
91.4000000000124
 30
0.0
 11
32.9999999999878
 21
92.8000000000124
 31
0.0
  0
LINE
  5
1BF
102
{ACAD_REACTORS
330
36E
102
}
330
1F
100
AcDbEntity
  8
1
  6
Continuous
 62
     3
100
AcDbLine
 10
38.9999999999878
 20
92.0125000000124
 30
0.0
 11
40.4999999999878
 21
92.0125000000124
 31
0.0
  0
LINE
  5
1C0
102
{ACAD_REACTORS
330
36E
102
}
330
1F
100
AcDbEntity
  8
1
  6
Continuous
 62
     3
100
AcDbLine
 10
40.4999999999878
 20
92.0125000000124
 30
0.0
 11
40.4999999999878
 21
95.9875000000124
 31
0.0
  0
LINE
  5
1C1
102
{ACAD_REACTORS
330
36E
102
}
330
1F
100
AcDbEntity
  8
1
  6
Continuous
 62
     3
100
AcDbLine
 10
40.4999999999878
 20
95.9875000000124
 30
0.0
 11
38.9999999999878
 21
95.9875000000124
 31
0.0
  0
LINE
  5
1C2
102
{ACAD_REACTORS
330
36E
102
}
330
1F
100
AcDbEntity
  8
1
  6
Continuous
 62
     3
100
AcDbLine
 10
38.9999999999878
 20
95.9875000000124
 30
0.0
 11
38.9999999999878
 21
92.0125000000124
 31
0.0
  0
LINE
  5
1C3
102
{ACAD_REACTORS
330
36F
102
}
330
1F
100
AcDbEntity
  8
1
  6
Continuous
 62
     3
100
AcDbLine
 10
41.2499999999878
 20
92.0125000000124
 30
0.0
 11
42.7499999999878
 21
92.0125000000124
 31
0.0
  0
LINE
  5
1C4
102
{ACAD_REACTORS
330
36F
102
}
330
1F
100
AcDbEntity
  8
1
  6
Continuous
 62
     3
100
AcDbLine
 10
42.7499999999878
 20
92.0125000000124
 30
0.0
 11
42.7499999999878
 21
95.9875000000124
 31
0.0
  0
LINE
  5
1C5
102
{ACAD_REACTORS
330
36F
102
}
330
1F
100
AcDbEntity
  8
1
  6
Continuous
 62
     3
100
AcDbLine
 10
42.7499999999878
 20
95.9875000000124
 30
0.0
 11
41.2499999999878
 21
95.9875000000124
 31
0.0
  0
LINE
  5
1C6
102
{ACAD_REACTORS
330
36F
102
}
330
1F
100
AcDbEntity
  8
1
  6
Continuous
 62
     3
100
AcDbLine
 10
41.2499999999878
 20
95.9875000000124
 30
0.0
 11
41.2499999999878
 21
92.0125000000124
 31
0.0
  0
LINE
  5
1C7
102
{ACAD_REACTORS
330
370
102
}
330
1F
100
AcDbEntity
  8
1
  6
Continuous
 62
     3
100
AcDbLine
 10
43.4999999999878
 20
92.0125000000124
 30
0.0
 11
44.9999999999878
 21
92.0125000000124
 31
0.0
  0
LINE
  5
1C8
102
{ACAD_REACTORS
330
370
102
}
330
1F
100
AcDbEntity
  8
1
  6
Continuous
 62
     3
100
AcDbLine
 10
44.9999999999878
 20
92.0125000000124
 30
0.0
 11
44.9999999999878
 21
95.9875000000124
 31
0.0
  0
LINE
  5
1C9
102
{ACAD_REACTORS
330
370
102
}
330
1F
100
AcDbEntity
  8
1
  6
Continuous
 62
     3
100
AcDbLine
 10
44.9999999999878
 20
95.9875000000124
 30
0.0
 11
43.4999999999878
 21
95.9875000000124
 31
0.0
  0
LINE
  5
1CA
102
{ACAD_REACTORS
330
370
102
}
330
1F
100
AcDbEntity
  8
1
  6
Continuous
 62
     3
100
AcDbLine
 10
43.4999999999878
 20
95.9875000000124
 30
0.0
 11
43.4999999999878
 21
92.0125000000124
 31
0.0
  0
LINE
  5
1CB
102
{ACAD_REACTORS
330
36D
102
}
330
1F
100
AcDbEntity
  8
1
  6
Continuous
 62
     3
100
AcDbLine
 10
47.0639015005114
 20
95.9927926374524
 30
0.0
 11
47.9181179792314
 21
95.9927926374524
 31
0.0
  0
LINE
  5
1CC
102
{ACAD_REACTORS
330
36D
102
}
330
1F
100
AcDbEntity
  8
1
  6
Continuous
 62
     3
100
AcDbLine
 10
47.9181179792314
 20
95.1388605184124
 30
0.0
 11
47.9181179792314
 21
95.9927926374524
 31
0.0
  0
LINE
  5
1CD
102
{ACAD_REACTORS
330
36D
102
}
330
1F
100
AcDbEntity
  8
1
  6
Continuous
 62
     3
100
AcDbLine
 10
47.9181179792314
 20
95.1388605184124
 30
0.0
 11
49.4549114338235
 21
95.1388605184124
 31
0.0
  0
LINE
  5
1CE
102
{ACAD_REACTORS
330
36D
102
}
330
1F
100
AcDbEntity
  8
1
  6
Continuous
 62
     3
100
AcDbLine
 10
49.4549114338235
 20
95.9927926374524
 30
0.0
 11
49.4549114338235
 21
95.1388605184124
 31
0.0
  0
LINE
  5
1CF
102
{ACAD_REACTORS
330
36D
102
}
330
1F
100
AcDbEntity
  8
1
  6
Continuous
 62
     3
100
AcDbLine
 10
49.4549114338235
 20
95.9927926374524
 30
0.0
 11
50.3091279125435
 21
95.9927926374524
 31
0.0
  0
LINE
  5
1D0
102
{ACAD_REACTORS
330
36D
102
}
330
1F
100
AcDbEntity
  8
1
  6
Continuous
 62
     3
100
AcDbLine
 10
50.3091279125435
 20
95.9927926374524
 30
0.0
 11
50.3091279125435
 21
94.0000000000124
 31
0.0
  0
LINE
  5
1D1
102
{ACAD_REACTORS
330
36D
102
}
330
1F
100
AcDbEntity
  8
1
  6
Continuous
 62
     3
100
AcDbLine
 10
49.4549114338235
 20
94.8539321190524
 30
0.0
 11
49.4549114338235
 21
94.0000000000124
 31
0.0
  0
LINE
  5
1D2
102
{ACAD_REACTORS
330
36D
102
}
330
1F
100
AcDbEntity
  8
1
  6
Continuous
 62
     3
100
AcDbLine
 10
47.9181179792314
 20
94.8539321190524
 30
0.0
 11
49.4549114338235
 21
94.8539321190524
 31
0.0
  0
LINE
  5
1D3
102
{ACAD_REACTORS
330
36D
102
}
330
1F
100
AcDbEntity
  8
1
  6
Continuous
 62
     3
100
AcDbLine
 10
47.9181179792314
 20
94.0000000000124
 30
0.0
 11
47.9181179792314
 21
94.8539321190524
 31
0.0
  0
LINE
  5
1D4
102
{ACAD_REACTORS
330
36D
102
}
330
1F
100
AcDbEntity
  8
1
  6
Continuous
 62
     3
100
AcDbLine
 10
47.0639015005114
 20
95.9927926374524
 30
0.0
 11
47.0639015005114
 21
94.0000000000124
 31
0.0
  0
LINE
  5
1D5
102
{ACAD_REACTORS
330
371
102
}
330
1F
100
AcDbEntity
  8
1
  6
Continuous
 62
     3
100
AcDbLine
 10
52.4071174293642
 20
95.9927926374524
 30
0.0
 11
53.6157489474041
 21
95.9927926374524
 31
0.0
  0
LINE
  5
1D6
102
{ACAD_REACTORS
330
371
102
}
330
1F
100
AcDbEntity
  8
1
  6
Continuous
 62
     3
100
AcDbLine
 10
53.6157489474041
 20
95.9927926374524
 30
0.0
 11
54.8114245298681
 21
94.0000000000124
 31
0.0
  0
LINE
  5
1D7
102
{ACAD_REACTORS
330
371
102
}
330
1F
100
AcDbEntity
  8
1
  6
Continuous
 62
     3
100
AcDbLine
 10
53.503492384294
 20
94.4554304635004
 30
0.0
 11
53.7767506623867
 21
94.0000000000124
 31
0.0
  0
LINE
  5
1D8
102
{ACAD_REACTORS
330
371
102
}
330
1F
100
AcDbEntity
  8
1
  6
Continuous
 62
     3
100
AcDbLine
 10
51.9795411214058
 20
94.4554304635004
 30
0.0
 11
53.503492384294
 21
94.4554304635004
 31
0.0
  0
LINE
  5
1D9
102
{ACAD_REACTORS
330
371
102
}
330
1F
100
AcDbEntity
  8
1
  6
Continuous
 62
     3
100
AcDbLine
 10
51.6835113201386
 20
94.0000000000124
 30
0.0
 11
51.9795411214058
 21
94.4554304635004
 31
0.0
  0
LINE
  5
1DA
102
{ACAD_REACTORS
330
371
102
}
330
1F
100
AcDbEntity
  8
1
  6
Continuous
 62
     3
100
AcDbLine
 10
51.1118022150282
 20
94.0000000000124
 30
0.0
 11
52.4071174293642
 21
95.9927926374524
 31
0.0
  0
LINE
  5
1DB
102
{ACAD_REACTORS
330
371
102
}
330
1F
100
AcDbEntity
  8
1
  6
Continuous
 62
     3
100
AcDbLine
 10
52.7719957781077
 20
95.6745914738109
 30
0.0
 11
53.3666926294396
 21
94.6834300549244
 31
0.0
  0
LINE
  5
1DC
102
{ACAD_REACTORS
330
371
102
}
330
1F
100
AcDbEntity
  8
1
  6
Continuous
 62
     3
100
AcDbLine
 10
53.3666926294396
 20
94.6834300549244
 30
0.0
 11
52.1277408558315
 21
94.6834300549244
 31
0.0
  0
LINE
  5
1DD
102
{ACAD_REACTORS
330
371
102
}
330
1F
100
AcDbEntity
  8
1
  6
Continuous
 62
     3
100
AcDbLine
 10
52.1277408558315
 20
94.6834300549244
 30
0.0
 11
52.7719957781077
 21
95.6745914738109
 31
0.0
  0
LINE
  5
1DE
102
{ACAD_REACTORS
330
36C
102
}
330
1F
100
AcDbEntity
  8
1
  6
Continuous
 62
     3
100
AcDbLine
 10
55.5462938829754
 20
95.9927926374524
 30
0.0
 11
57.0643777625563
 21
95.9927926374524
 31
0.0
  0
LINE
  5
1DF
102
{ACAD_REACTORS
330
36C
102
}
330
1F
100
AcDbEntity
  8
1
  6
Continuous
 62
     3
100
AcDbLine
 10
57.5958731485114
 20
94.2920074023956
 30
0.0
 11
57.0643777625563
 21
95.9927926374524
 31
0.0
  0
LINE
  5
1E0
102
{ACAD_REACTORS
330
36C
102
}
330
1F
100
AcDbEntity
  8
1
  6
Continuous
 62
     3
100
AcDbLine
 10
58.1273685344667
 20
95.9927926374524
 30
0.0
 11
57.5958731485114
 21
94.2920074023956
 31
0.0
  0
LINE
  5
1E1
102
{ACAD_REACTORS
330
36C
102
}
330
1F
100
AcDbEntity
  8
1
  6
Continuous
 62
     3
100
AcDbLine
 10
58.1273685344667
 20
95.9927926374524
 30
0.0
 11
59.6454524140474
 21
95.9927926374524
 31
0.0
  0
LINE
  5
1E2
102
{ACAD_REACTORS
330
36C
102
}
330
1F
100
AcDbEntity
  8
1
  6
Continuous
 62
     3
100
AcDbLine
 10
59.6454524140474
 20
95.9927926374524
 30
0.0
 11
59.6454524140474
 21
94.0000000000124
 31
0.0
  0
LINE
  5
1E3
102
{ACAD_REACTORS
330
36C
102
}
330
1F
100
AcDbEntity
  8
1
  6
Continuous
 62
     3
100
AcDbLine
 10
57.9784000493905
 20
94.0000000000124
 30
0.0
 11
58.5634292347148
 21
95.6965846374523
 31
0.0
  0
LINE
  5
1E4
102
{ACAD_REACTORS
330
36C
102
}
330
1F
100
AcDbEntity
  8
1
  6
Continuous
 62
     3
100
AcDbLine
 10
56.0589375140795
 20
94.0000000000124
 30
0.0
 11
56.0589375140795
 21
95.6965846374523
 31
0.0
  0
LINE
  5
1E5
102
{ACAD_REACTORS
330
36C
102
}
330
1F
100
AcDbEntity
  8
1
  6
Continuous
 62
     3
100
AcDbLine
 10
55.5462938829754
 20
95.9927926374524
 30
0.0
 11
55.5462938829754
 21
94.0000000000124
 31
0.0
  0
LINE
  5
1E6
102
{ACAD_REACTORS
330
372
102
}
330
1F
100
AcDbEntity
  8
1
  6
Continuous
 62
     3
100
AcDbLine
 10
60.4481267165323
 20
94.0000000000124
 30
0.0
 11
61.7434419308683
 21
95.9927926374524
 31
0.0
  0
LINE
  5
1E7
102
{ACAD_REACTORS
330
372
102
}
330
1F
100
AcDbEntity
  8
1
  6
Continuous
 62
     3
100
AcDbLine
 10
61.7434419308683
 20
95.9927926374524
 30
0.0
 11
62.952073448908
 21
95.9927926374524
 31
0.0
  0
LINE
  5
1E8
102
{ACAD_REACTORS
330
372
102
}
330
1F
100
AcDbEntity
  8
1
  6
Continuous
 62
     3
100
AcDbLine
 10
62.952073448908
 20
95.9927926374524
 30
0.0
 11
64.147749031372
 21
94.0000000000124
 31
0.0
  0
LINE
  5
1E9
102
{ACAD_REACTORS
330
372
102
}
330
1F
100
AcDbEntity
  8
1
  6
Continuous
 62
     3
100
AcDbLine
 10
62.839816885798
 20
94.4554304635004
 30
0.0
 11
63.1130751638909
 21
94.0000000000124
 31
0.0
  0
LINE
  5
1EA
102
{ACAD_REACTORS
330
372
102
}
330
1F
100
AcDbEntity
  8
1
  6
Continuous
 62
     3
100
AcDbLine
 10
61.3158656229099
 20
94.4554304635004
 30
0.0
 11
62.839816885798
 21
94.4554304635004
 31
0.0
  0
LINE
  5
1EB
102
{ACAD_REACTORS
330
372
102
}
330
1F
100
AcDbEntity
  8
1
  6
Continuous
 62
     3
100
AcDbLine
 10
61.0198358216426
 20
94.0000000000124
 30
0.0
 11
61.3158656229099
 21
94.4554304635004
 31
0.0
  0
LINE
  5
1EC
102
{ACAD_REACTORS
330
372
102
}
330
1F
100
AcDbEntity
  8
1
  6
Continuous
 62
     3
100
AcDbLine
 10
61.4640653573354
 20
94.6834300549244
 30
0.0
 11
62.1083202796119
 21
95.6745914738109
 31
0.0
  0
LINE
  5
1ED
102
{ACAD_REACTORS
330
372
102
}
330
1F
100
AcDbEntity
  8
1
  6
Continuous
 62
     3
100
AcDbLine
 10
62.1083202796119
 20
95.6745914738109
 30
0.0
 11
62.7030171309437
 21
94.6834300549244
 31
0.0
  0
LINE
  5
1EE
102
{ACAD_REACTORS
330
372
102
}
330
1F
100
AcDbEntity
  8
1
  6
Continuous
 62
     3
100
AcDbLine
 10
62.7030171309437
 20
94.6834300549244
 30
0.0
 11
61.4640653573354
 21
94.6834300549244
 31
0.0
  0
LINE
  5
1EF
102
{ACAD_REACTORS
330
36B
102
}
330
1F
100
AcDbEntity
  8
1
  6
Continuous
 62
     3
100
AcDbLine
 10
64.8826183844794
 20
95.5942909819004
 30
0.0
 11
65.7368348631994
 21
95.5942909819004
 31
0.0
  0
LINE
  5
1F0
102
{ACAD_REACTORS
330
36B
102
}
330
1F
100
AcDbEntity
  8
1
  6
Continuous
 62
     3
100
AcDbLine
 10
65.7368348631994
 20
95.5942909819004
 30
0.0
 11
65.7368348631994
 21
94.0000000000124
 31
0.0
  0
LINE
  5
1F1
102
{ACAD_REACTORS
330
36B
102
}
330
1F
100
AcDbEntity
  8
1
  6
Continuous
 62
     3
100
AcDbLine
 10
64.8826183844794
 20
95.5942909819004
 30
0.0
 11
64.8826183844795
 21
94.0000000000124
 31
0.0
  0
LINE
  5
1F2
102
{ACAD_REACTORS
330
36C
102
}
330
1F
100
AcDbEntity
  8
1
  6
Continuous
 62
     3
100
AcDbLine
 10
56.0589375140795
 20
95.6965846374523
 30
0.0
 11
56.2819362556901
 21
95.6965846374523
 31
0.0
  0
LINE
  5
1F3
102
{ACAD_REACTORS
330
36C
102
}
330
1F
100
AcDbEntity
  8
1
  6
Continuous
 62
     3
100
AcDbLine
 10
58.5634292347148
 20
95.6965846374523
 30
0.0
 11
58.7912359353275
 21
95.6965846374523
 31
0.0
  0
LINE
  5
1F4
102
{ACAD_REACTORS
330
36C
102
}
330
1F
100
AcDbEntity
  8
1
  6
Continuous
 62
     3
100
AcDbLine
 10
58.7912359353275
 20
95.6965846374523
 30
0.0
 11
58.7912359353275
 21
94.0000000000124
 31
0.0
  0
LINE
  5
1F5
102
{ACAD_REACTORS
330
36C
102
}
330
1F
100
AcDbEntity
  8
1
  6
Continuous
 62
     3
100
AcDbLine
 10
56.2819362556901
 20
95.6965846374523
 30
0.0
 11
56.9254683595467
 21
94.0000000000124
 31
0.0
  0
LINE
  5
1F6
330
1F
100
AcDbEntity
  8
1
  6
Continuous
 62
     3
100
AcDbLine
 10
19.0067336757935
 20
101.592916502029
 30
0.0
 11
13.9999999999878
 21
104.000000000012
 31
0.0
  0
LINE
  5
1F7
330
1F
100
AcDbEntity
  8
1
  6
Continuous
 62
     3
100
AcDbLine
 10
19.0067336757935
 20
86.4070834979959
 30
0.0
 11
13.9999999999878
 21
84.0000000000124
 31
0.0
  0
LINE
  5
1F8
330
1F
100
AcDbEntity
  8
1
  6
Continuous
 62
     3
100
AcDbLine
 10
78.0173173467975
 20
56.6000000000124
 30
0.0
 11
25.5470053837803
 21
56.6000000000124
 31
0.0
  0
LINE
  5
1F9
330
1F
100
AcDbEntity
  8
1
  6
Continuous
 62
     3
100
AcDbLine
 10
78.0173173467975
 20
50.6000000000124
 30
0.0
 11
27.8564064605388
 21
50.6000000000124
 31
0.0
  0
LINE
  5
1FA
330
1F
100
AcDbEntity
  8
1
  6
Continuous
 62
     3
100
AcDbLine
 10
22.0829037686426
 20
54.6000000000124
 30
0.0
 11
20.4019237886345
 21
51.6884572681323
 31
0.0
  0
LINE
  5
1FB
330
1F
100
AcDbEntity
  8
1
  6
Continuous
 62
     3
100
AcDbLine
 10
26.1243556529699
 20
49.6000000000124
 30
0.0
 11
20.9325436574423
 21
40.6075178404128
 31
0.0
  0
LINE
  5
1FC
330
1F
100
AcDbEntity
  8
1
  6
Continuous
 62
     3
100
AcDbLine
 10
-13.5000000000122
 20
37.6000000000124
 30
0.0
 11
-7.70000000001218
 21
37.6000000000124
 31
0.0
  0
LINE
  5
1FD
330
1F
100
AcDbEntity
  8
1
  6
Continuous
 62
     3
100
AcDbLine
 10
13.4226497307982
 20
34.6000000000124
 30
0.0
 11
-14.0000000000122
 21
34.6000000000124
 31
0.0
  0
LINE
  5
1FE
330
1F
100
AcDbEntity
  8
1
  6
Continuous
 62
     3
100
AcDbLine
 10
14.2886751345826
 20
38.1000000000124
 30
0.0
 11
19.9999999999878
 21
47.9923048454257
 31
0.0
  0
LINE
  5
1FF
330
1F
100
AcDbEntity
  8
1
  6
Continuous
 62
     3
100
AcDbLine
 10
19.9999999999878
 20
41.9923048454257
 30
0.0
 11
19.9999999999878
 21
50.1884572681323
 31
0.0
  0
LINE
  5
200
330
1F
100
AcDbEntity
  8
1
  6
Continuous
 62
     3
100
AcDbLine
 10
19.9999999999878
 20
41.9923048454257
 30
0.0
 11
19.0067336757935
 21
40.2719171064739
 31
0.0
  0
LINE
  5
201
330
1F
100
AcDbEntity
  8
1
  6
Continuous
 62
     3
100
AcDbLine
 10
19.0067336757935
 20
40.2719171064739
 30
0.0
 11
16.886751345936
 21
36.6000000000124
 31
0.0
  0
LINE
  5
202
330
1F
100
AcDbEntity
  8
1
  6
Continuous
 62
     3
100
AcDbLine
 10
-86.8522843242847
 20
56.6000000000124
 30
0.0
 11
-72.1477156757397
 21
56.6000000000124
 31
0.0
  0
LINE
  5
203
330
1F
100
AcDbEntity
  8
1
  6
Continuous
 62
     3
100
AcDbLine
 10
-86.9759835613924
 20
47.9923048454257
 30
0.0
 11
-72.0240164386321
 21
47.9923048454257
 31
0.0
  0
LINE
  5
204
330
1F
100
AcDbEntity
  8
1
  6
Continuous
 62
     3
100
AcDbLine
 10
-71.0367137215927
 20
47.1511549160162
 30
0.0
 11
-69.5000000000122
 21
37.6000000000124
 31
0.0
  0
LINE
  5
205
330
1F
100
AcDbEntity
  8
1
  6
Continuous
 62
     3
100
AcDbLine
 10
-89.5000000000122
 20
37.6000000000124
 30
0.0
 11
-90.5000000000122
 21
37.6000000000124
 31
0.0
  0
LINE
  5
206
330
1F
100
AcDbEntity
  8
1
  6
Continuous
 62
     3
100
AcDbLine
 10
-89.5000000000122
 20
34.6000000000124
 30
0.0
 11
-90.5000000000122
 21
34.6000000000124
 31
0.0
  0
LINE
  5
207
330
1F
100
AcDbEntity
  8
1
  6
Continuous
 62
     3
100
AcDbLine
 10
-87.9632862784318
 20
47.1511549160162
 30
0.0
 11
-89.5000000000122
 21
37.6000000000124
 31
0.0
  0
LINE
  5
208
330
1F
100
AcDbEntity
  8
1
  6
Continuous
 62
     3
100
AcDbLine
 10
10.04
 20
-39.2654620608523
 30
0.0
 11
10.04
 21
-37.3654620608523
 31
0.0
  0
LINE
  5
209
330
1F
100
AcDbEntity
  8
1
  6
Continuous
 62
     3
100
AcDbLine
 10
10.04
 20
-35.2654620608523
 30
0.0
 11
11.32
 21
-35.2654620608523
 31
0.0
  0
LINE
  5
20A
330
1F
100
AcDbEntity
  8
1
  6
Continuous
 62
     3
100
AcDbLine
 10
11.32
 20
-35.2654620608523
 30
0.0
 11
11.64
 21
-35.5654620608523
 31
0.0
  0
LINE
  5
20B
330
1F
100
AcDbEntity
  8
1
  6
Continuous
 62
     3
100
AcDbLine
 10
11.64
 20
-35.5654620608523
 30
0.0
 11
11.88
 21
-35.9654620608523
 31
0.0
  0
LINE
  5
20C
330
1F
100
AcDbEntity
  8
1
  6
Continuous
 62
     3
100
AcDbLine
 10
11.88
 20
-35.9654620608523
 30
0.0
 11
11.96
 21
-36.3654620608523
 31
0.0
  0
LINE
  5
20D
330
1F
100
AcDbEntity
  8
1
  6
Continuous
 62
     3
100
AcDbLine
 10
11.96
 20
-36.3654620608523
 30
0.0
 11
11.88
 21
-36.8654620608523
 31
0.0
  0
LINE
  5
20E
330
1F
100
AcDbEntity
  8
1
  6
Continuous
 62
     3
100
AcDbLine
 10
11.88
 20
-36.8654620608523
 30
0.0
 11
11.64
 21
-37.1654620608523
 31
0.0
  0
LINE
  5
20F
330
1F
100
AcDbEntity
  8
1
  6
Continuous
 62
     3
100
AcDbLine
 10
11.64
 20
-37.1654620608523
 30
0.0
 11
11.32
 21
-37.3654620608523
 31
0.0
  0
LINE
  5
210
330
1F
100
AcDbEntity
  8
1
  6
Continuous
 62
     3
100
AcDbLine
 10
11.32
 20
-37.3654620608523
 30
0.0
 11
10.04
 21
-37.3654620608523
 31
0.0
  0
LINE
  5
211
330
1F
100
AcDbEntity
  8
1
  6
Continuous
 62
     3
100
AcDbLine
 10
11.32
 20
-37.3654620608523
 30
0.0
 11
12.04
 21
-39.2654620608523
 31
0.0
  0
LINE
  5
212
330
1F
100
AcDbEntity
  8
1
  6
Continuous
 62
     3
100
AcDbLine
 10
10.04
 20
-37.3654620608523
 30
0.0
 11
10.04
 21
-35.2654620608523
 31
0.0
  0
LINE
  5
213
330
1F
100
AcDbEntity
  8
1
  6
Continuous
 62
     3
100
AcDbLine
 10
13.88
 20
-39.2654620608523
 30
0.0
 11
13.88
 21
-35.5654620608523
 31
0.0
  0
LINE
  5
214
330
1F
100
AcDbEntity
  8
1
  6
Continuous
 62
     3
100
AcDbLine
 10
13.88
 20
-35.5654620608523
 30
0.0
 11
15.08
 21
-35.5654620608523
 31
0.0
  0
LINE
  5
215
330
1F
100
AcDbEntity
  8
1
  6
Continuous
 62
     3
100
AcDbLine
 10
15.08
 20
-35.5654620608523
 30
0.0
 11
15.48
 21
-35.7654620608523
 31
0.0
  0
LINE
  5
216
330
1F
100
AcDbEntity
  8
1
  6
Continuous
 62
     3
100
AcDbLine
 10
15.48
 20
-35.7654620608523
 30
0.0
 11
15.64
 21
-36.4654620608523
 31
0.0
  0
LINE
  5
217
330
1F
100
AcDbEntity
  8
1
  6
Continuous
 62
     3
100
AcDbLine
 10
15.64
 20
-36.4654620608523
 30
0.0
 11
15.48
 21
-36.9654620608523
 31
0.0
  0
LINE
  5
218
330
1F
100
AcDbEntity
  8
1
  6
Continuous
 62
     3
100
AcDbLine
 10
15.48
 20
-36.9654620608523
 30
0.0
 11
15.08
 21
-37.3654620608523
 31
0.0
  0
LINE
  5
219
330
1F
100
AcDbEntity
  8
1
  6
Continuous
 62
     3
100
AcDbLine
 10
15.08
 20
-37.3654620608523
 30
0.0
 11
13.88
 21
-37.3654620608523
 31
0.0
  0
LINE
  5
21A
330
1F
100
AcDbEntity
  8
1
  6
Continuous
 62
     3
100
AcDbLine
 10
13.88
 20
-37.3654620608523
 30
0.0
 11
15.08
 21
-37.3654620608523
 31
0.0
  0
LINE
  5
21B
330
1F
100
AcDbEntity
  8
1
  6
Continuous
 62
     3
100
AcDbLine
 10
15.08
 20
-37.3654620608523
 30
0.0
 11
15.64
 21
-37.6654620608523
 31
0.0
  0
LINE
  5
21C
330
1F
100
AcDbEntity
  8
1
  6
Continuous
 62
     3
100
AcDbLine
 10
15.64
 20
-37.6654620608523
 30
0.0
 11
15.8
 21
-38.3654620608523
 31
0.0
  0
LINE
  5
21D
330
1F
100
AcDbEntity
  8
1
  6
Continuous
 62
     3
100
AcDbLine
 10
15.8
 20
-38.3654620608523
 30
0.0
 11
15.64
 21
-38.9654620608523
 31
0.0
  0
LINE
  5
21E
330
1F
100
AcDbEntity
  8
1
  6
Continuous
 62
     3
100
AcDbLine
 10
15.64
 20
-38.9654620608523
 30
0.0
 11
15.08
 21
-39.2654620608523
 31
0.0
  0
LINE
  5
21F
330
1F
100
AcDbEntity
  8
1
  6
Continuous
 62
     3
100
AcDbLine
 10
15.08
 20
-39.2654620608523
 30
0.0
 11
13.88
 21
-39.2654620608523
 31
0.0
  0
LINE
  5
220
330
1F
100
AcDbEntity
  8
1
  6
Continuous
 62
     3
100
AcDbLine
 10
19.4
 20
-36.0654620608523
 30
0.0
 11
19.16
 21
-35.6654620608523
 31
0.0
  0
LINE
  5
221
330
1F
100
AcDbEntity
  8
1
  6
Continuous
 62
     3
100
AcDbLine
 10
19.16
 20
-35.6654620608523
 30
0.0
 11
18.84
 21
-35.3654620608523
 31
0.0
  0
LINE
  5
222
330
1F
100
AcDbEntity
  8
1
  6
Continuous
 62
     3
100
AcDbLine
 10
18.84
 20
-35.3654620608523
 30
0.0
 11
18.44
 21
-35.3654620608523
 31
0.0
  0
LINE
  5
223
330
1F
100
AcDbEntity
  8
1
  6
Continuous
 62
     3
100
AcDbLine
 10
18.44
 20
-35.3654620608523
 30
0.0
 11
18.12
 21
-35.3654620608523
 31
0.0
  0
LINE
  5
224
330
1F
100
AcDbEntity
  8
1
  6
Continuous
 62
     3
100
AcDbLine
 10
18.12
 20
-35.3654620608523
 30
0.0
 11
17.96
 21
-35.5654620608523
 31
0.0
  0
LINE
  5
225
330
1F
100
AcDbEntity
  8
1
  6
Continuous
 62
     3
100
AcDbLine
 10
17.96
 20
-35.5654620608523
 30
0.0
 11
17.64
 21
-35.7654620608523
 31
0.0
  0
LINE
  5
226
330
1F
100
AcDbEntity
  8
1
  6
Continuous
 62
     3
100
AcDbLine
 10
17.64
 20
-35.7654620608523
 30
0.0
 11
17.56
 21
-36.1654620608523
 31
0.0
  0
LINE
  5
227
330
1F
100
AcDbEntity
  8
1
  6
Continuous
 62
     3
100
AcDbLine
 10
17.56
 20
-36.1654620608523
 30
0.0
 11
17.64
 21
-36.7654620608523
 31
0.0
  0
LINE
  5
228
330
1F
100
AcDbEntity
  8
1
  6
Continuous
 62
     3
100
AcDbLine
 10
17.64
 20
-36.7654620608523
 30
0.0
 11
17.88
 21
-36.9654620608523
 31
0.0
  0
LINE
  5
229
330
1F
100
AcDbEntity
  8
1
  6
Continuous
 62
     3
100
AcDbLine
 10
17.88
 20
-36.9654620608523
 30
0.0
 11
18.04
 21
-37.1654620608523
 31
0.0
  0
LINE
  5
22A
330
1F
100
AcDbEntity
  8
1
  6
Continuous
 62
     3
100
AcDbLine
 10
18.04
 20
-37.1654620608523
 30
0.0
 11
18.44
 21
-37.2654620608523
 31
0.0
  0
LINE
  5
22B
330
1F
100
AcDbEntity
  8
1
  6
Continuous
 62
     3
100
AcDbLine
 10
18.44
 20
-37.2654620608523
 30
0.0
 11
18.84
 21
-37.2654620608523
 31
0.0
  0
LINE
  5
22C
330
1F
100
AcDbEntity
  8
1
  6
Continuous
 62
     3
100
AcDbLine
 10
18.84
 20
-37.2654620608523
 30
0.0
 11
19.08
 21
-37.3654620608523
 31
0.0
  0
LINE
  5
22D
330
1F
100
AcDbEntity
  8
1
  6
Continuous
 62
     3
100
AcDbLine
 10
19.08
 20
-37.3654620608523
 30
0.0
 11
19.4
 21
-37.7654620608523
 31
0.0
  0
LINE
  5
22E
330
1F
100
AcDbEntity
  8
1
  6
Continuous
 62
     3
100
AcDbLine
 10
19.4
 20
-37.7654620608523
 30
0.0
 11
19.48
 21
-38.3654620608523
 31
0.0
  0
LINE
  5
22F
330
1F
100
AcDbEntity
  8
1
  6
Continuous
 62
     3
100
AcDbLine
 10
19.48
 20
-38.3654620608523
 30
0.0
 11
19.4
 21
-38.8654620608523
 31
0.0
  0
LINE
  5
230
330
1F
100
AcDbEntity
  8
1
  6
Continuous
 62
     3
100
AcDbLine
 10
19.4
 20
-38.8654620608523
 30
0.0
 11
19.08
 21
-39.1654620608523
 31
0.0
  0
LINE
  5
231
330
1F
100
AcDbEntity
  8
1
  6
Continuous
 62
     3
100
AcDbLine
 10
19.08
 20
-39.1654620608523
 30
0.0
 11
18.84
 21
-39.2654620608523
 31
0.0
  0
LINE
  5
232
330
1F
100
AcDbEntity
  8
1
  6
Continuous
 62
     3
100
AcDbLine
 10
18.84
 20
-39.2654620608523
 30
0.0
 11
18.44
 21
-39.2654620608523
 31
0.0
  0
LINE
  5
233
330
1F
100
AcDbEntity
  8
1
  6
Continuous
 62
     3
100
AcDbLine
 10
18.44
 20
-39.2654620608523
 30
0.0
 11
18.04
 21
-39.1654620608523
 31
0.0
  0
LINE
  5
234
330
1F
100
AcDbEntity
  8
1
  6
Continuous
 62
     3
100
AcDbLine
 10
18.04
 20
-39.1654620608523
 30
0.0
 11
17.8
 21
-38.8654620608523
 31
0.0
  0
LINE
  5
235
330
1F
100
AcDbEntity
  8
1
  6
Continuous
 62
     3
100
AcDbLine
 10
17.8
 20
-38.8654620608523
 30
0.0
 11
17.56
 21
-38.3654620608523
 31
0.0
  0
LINE
  5
236
330
1F
100
AcDbEntity
  8
1
  6
Continuous
 62
     3
100
AcDbLine
 10
21.32
 20
-37.2654620608523
 30
0.0
 11
23.0
 21
-37.2654620608523
 31
0.0
  0
LINE
  5
237
330
1F
100
AcDbEntity
  8
1
  6
Continuous
 62
     3
100
AcDbLine
 10
25.64
 20
-35.6654620608523
 30
0.0
 11
26.12
 21
-35.2654620608523
 31
0.0
  0
LINE
  5
238
330
1F
100
AcDbEntity
  8
1
  6
Continuous
 62
     3
100
AcDbLine
 10
26.12
 20
-35.2654620608523
 30
0.0
 11
26.12
 21
-39.2654620608523
 31
0.0
  0
LINE
  5
239
330
1F
100
AcDbEntity
  8
1
  6
Continuous
 62
     3
100
AcDbLine
 10
29.72
 20
-35.2654620608523
 30
0.0
 11
29.24
 21
-35.3654620608523
 31
0.0
  0
LINE
  5
23A
330
1F
100
AcDbEntity
  8
1
  6
Continuous
 62
     3
100
AcDbLine
 10
29.24
 20
-35.3654620608523
 30
0.0
 11
28.92
 21
-35.7654620608523
 31
0.0
  0
LINE
  5
23B
330
1F
100
AcDbEntity
  8
1
  6
Continuous
 62
     3
100
AcDbLine
 10
28.92
 20
-35.7654620608523
 30
0.0
 11
28.84
 21
-36.1654620608523
 31
0.0
  0
LINE
  5
23C
330
1F
100
AcDbEntity
  8
1
  6
Continuous
 62
     3
100
AcDbLine
 10
28.84
 20
-36.1654620608523
 30
0.0
 11
28.92
 21
-36.5654620608523
 31
0.0
  0
LINE
  5
23D
330
1F
100
AcDbEntity
  8
1
  6
Continuous
 62
     3
100
AcDbLine
 10
28.92
 20
-36.5654620608523
 30
0.0
 11
29.24
 21
-36.9654620608523
 31
0.0
  0
LINE
  5
23E
330
1F
100
AcDbEntity
  8
1
  6
Continuous
 62
     3
100
AcDbLine
 10
29.24
 20
-36.9654620608523
 30
0.0
 11
29.64
 21
-37.1654620608523
 31
0.0
  0
LINE
  5
23F
330
1F
100
AcDbEntity
  8
1
  6
Continuous
 62
     3
100
AcDbLine
 10
29.64
 20
-37.1654620608523
 30
0.0
 11
29.88
 21
-37.1654620608523
 31
0.0
  0
LINE
  5
240
330
1F
100
AcDbEntity
  8
1
  6
Continuous
 62
     3
100
AcDbLine
 10
29.88
 20
-37.1654620608523
 30
0.0
 11
30.28
 21
-37.2654620608523
 31
0.0
  0
LINE
  5
241
330
1F
100
AcDbEntity
  8
1
  6
Continuous
 62
     3
100
AcDbLine
 10
30.28
 20
-37.2654620608523
 30
0.0
 11
30.68
 21
-37.6654620608523
 31
0.0
  0
LINE
  5
242
330
1F
100
AcDbEntity
  8
1
  6
Continuous
 62
     3
100
AcDbLine
 10
30.68
 20
-37.6654620608523
 30
0.0
 11
30.84
 21
-38.1654620608523
 31
0.0
  0
LINE
  5
243
330
1F
100
AcDbEntity
  8
1
  6
Continuous
 62
     3
100
AcDbLine
 10
30.84
 20
-38.1654620608523
 30
0.0
 11
30.68
 21
-38.8654620608523
 31
0.0
  0
LINE
  5
244
330
1F
100
AcDbEntity
  8
1
  6
Continuous
 62
     3
100
AcDbLine
 10
30.68
 20
-38.8654620608523
 30
0.0
 11
30.28
 21
-39.1654620608523
 31
0.0
  0
LINE
  5
245
330
1F
100
AcDbEntity
  8
1
  6
Continuous
 62
     3
100
AcDbLine
 10
30.28
 20
-39.1654620608523
 30
0.0
 11
29.72
 21
-39.2654620608523
 31
0.0
  0
LINE
  5
246
330
1F
100
AcDbEntity
  8
1
  6
Continuous
 62
     3
100
AcDbLine
 10
29.72
 20
-39.2654620608523
 30
0.0
 11
29.16
 21
-39.1654620608523
 31
0.0
  0
LINE
  5
247
330
1F
100
AcDbEntity
  8
1
  6
Continuous
 62
     3
100
AcDbLine
 10
29.16
 20
-39.1654620608523
 30
0.0
 11
28.84
 21
-38.8654620608523
 31
0.0
  0
LINE
  5
248
330
1F
100
AcDbEntity
  8
1
  6
Continuous
 62
     3
100
AcDbLine
 10
28.84
 20
-38.8654620608523
 30
0.0
 11
28.68
 21
-38.1654620608523
 31
0.0
  0
LINE
  5
249
330
1F
100
AcDbEntity
  8
1
  6
Continuous
 62
     3
100
AcDbLine
 10
28.68
 20
-38.1654620608523
 30
0.0
 11
28.76
 21
-37.6654620608523
 31
0.0
  0
LINE
  5
24A
330
1F
100
AcDbEntity
  8
1
  6
Continuous
 62
     3
100
AcDbLine
 10
28.76
 20
-37.6654620608523
 30
0.0
 11
29.08
 21
-37.3654620608523
 31
0.0
  0
LINE
  5
24B
330
1F
100
AcDbEntity
  8
1
  6
Continuous
 62
     3
100
AcDbLine
 10
29.08
 20
-37.3654620608523
 30
0.0
 11
29.24
 21
-37.2654620608523
 31
0.0
  0
LINE
  5
24C
330
1F
100
AcDbEntity
  8
1
  6
Continuous
 62
     3
100
AcDbLine
 10
29.24
 20
-37.2654620608523
 30
0.0
 11
29.64
 21
-37.1654620608523
 31
0.0
  0
LINE
  5
24D
330
1F
100
AcDbEntity
  8
1
  6
Continuous
 62
     3
100
AcDbLine
 10
29.64
 20
-37.1654620608523
 30
0.0
 11
29.88
 21
-37.1654620608523
 31
0.0
  0
LINE
  5
24E
330
1F
100
AcDbEntity
  8
1
  6
Continuous
 62
     3
100
AcDbLine
 10
29.88
 20
-37.1654620608523
 30
0.0
 11
30.28
 21
-36.9654620608523
 31
0.0
  0
LINE
  5
24F
330
1F
100
AcDbEntity
  8
1
  6
Continuous
 62
     3
100
AcDbLine
 10
30.28
 20
-36.9654620608523
 30
0.0
 11
30.52
 21
-36.5654620608523
 31
0.0
  0
LINE
  5
250
330
1F
100
AcDbEntity
  8
1
  6
Continuous
 62
     3
100
AcDbLine
 10
30.52
 20
-36.5654620608523
 30
0.0
 11
30.68
 21
-36.1654620608523
 31
0.0
  0
LINE
  5
251
330
1F
100
AcDbEntity
  8
1
  6
Continuous
 62
     3
100
AcDbLine
 10
30.68
 20
-36.1654620608523
 30
0.0
 11
30.52
 21
-35.7654620608523
 31
0.0
  0
LINE
  5
252
330
1F
100
AcDbEntity
  8
1
  6
Continuous
 62
     3
100
AcDbLine
 10
30.52
 20
-35.7654620608523
 30
0.0
 11
30.44
 21
-35.5654620608523
 31
0.0
  0
LINE
  5
253
330
1F
100
AcDbEntity
  8
1
  6
Continuous
 62
     3
100
AcDbLine
 10
30.44
 20
-35.5654620608523
 30
0.0
 11
30.2
 21
-35.3654620608523
 31
0.0
  0
LINE
  5
254
330
1F
100
AcDbEntity
  8
1
  6
Continuous
 62
     3
100
AcDbLine
 10
30.2
 20
-35.3654620608523
 30
0.0
 11
29.72
 21
-35.2654620608523
 31
0.0
  0
LINE
  5
255
330
1F
100
AcDbEntity
  8
1
  6
Continuous
 62
     3
100
AcDbLine
 10
32.6
 20
-36.0654620608523
 30
0.0
 11
33.0
 21
-35.5654620608523
 31
0.0
  0
LINE
  5
256
330
1F
100
AcDbEntity
  8
1
  6
Continuous
 62
     3
100
AcDbLine
 10
33.0
 20
-35.5654620608523
 30
0.0
 11
33.56
 21
-35.2654620608523
 31
0.0
  0
LINE
  5
257
330
1F
100
AcDbEntity
  8
1
  6
Continuous
 62
     3
100
AcDbLine
 10
33.56
 20
-35.2654620608523
 30
0.0
 11
34.12
 21
-35.5654620608523
 31
0.0
  0
LINE
  5
258
330
1F
100
AcDbEntity
  8
1
  6
Continuous
 62
     3
100
AcDbLine
 10
34.12
 20
-35.5654620608523
 30
0.0
 11
34.52
 21
-36.0654620608523
 31
0.0
  0
LINE
  5
259
330
1F
100
AcDbEntity
  8
1
  6
Continuous
 62
     3
100
AcDbLine
 10
34.52
 20
-36.0654620608523
 30
0.0
 11
34.44
 21
-36.5654620608523
 31
0.0
  0
LINE
  5
25A
330
1F
100
AcDbEntity
  8
1
  6
Continuous
 62
     3
100
AcDbLine
 10
34.44
 20
-36.5654620608523
 30
0.0
 11
34.12
 21
-37.1654620608523
 31
0.0
  0
LINE
  5
25B
330
1F
100
AcDbEntity
  8
1
  6
Continuous
 62
     3
100
AcDbLine
 10
34.12
 20
-37.1654620608523
 30
0.0
 11
33.64
 21
-37.5654620608523
 31
0.0
  0
LINE
  5
25C
330
1F
100
AcDbEntity
  8
1
  6
Continuous
 62
     3
100
AcDbLine
 10
33.64
 20
-37.5654620608523
 30
0.0
 11
33.24
 21
-37.7654620608523
 31
0.0
  0
LINE
  5
25D
330
1F
100
AcDbEntity
  8
1
  6
Continuous
 62
     3
100
AcDbLine
 10
33.24
 20
-37.7654620608523
 30
0.0
 11
32.92
 21
-38.1654620608523
 31
0.0
  0
LINE
  5
25E
330
1F
100
AcDbEntity
  8
1
  6
Continuous
 62
     3
100
AcDbLine
 10
32.92
 20
-38.1654620608523
 30
0.0
 11
32.68
 21
-38.5654620608523
 31
0.0
  0
LINE
  5
25F
330
1F
100
AcDbEntity
  8
1
  6
Continuous
 62
     3
100
AcDbLine
 10
32.68
 20
-38.5654620608523
 30
0.0
 11
32.52
 21
-39.2654620608523
 31
0.0
  0
LINE
  5
260
330
1F
100
AcDbEntity
  8
1
  6
Continuous
 62
     3
100
AcDbLine
 10
32.52
 20
-39.2654620608523
 30
0.0
 11
34.6
 21
-39.2654620608523
 31
0.0
  0
LINE
  5
261
330
1F
100
AcDbEntity
  8
1
  6
Continuous
 62
     3
100
AcDbLine
 10
36.36
 20
-37.2654620608523
 30
0.0
 11
38.04
 21
-37.2654620608523
 31
0.0
  0
LINE
  5
262
330
1F
100
AcDbEntity
  8
1
  6
Continuous
 62
     3
100
AcDbLine
 10
40.12
 20
-36.0654620608523
 30
0.0
 11
40.52
 21
-35.5654620608523
 31
0.0
  0
LINE
  5
263
330
1F
100
AcDbEntity
  8
1
  6
Continuous
 62
     3
100
AcDbLine
 10
40.52
 20
-35.5654620608523
 30
0.0
 11
41.08
 21
-35.2654620608523
 31
0.0
  0
LINE
  5
264
330
1F
100
AcDbEntity
  8
1
  6
Continuous
 62
     3
100
AcDbLine
 10
41.08
 20
-35.2654620608523
 30
0.0
 11
41.64
 21
-35.5654620608523
 31
0.0
  0
LINE
  5
265
330
1F
100
AcDbEntity
  8
1
  6
Continuous
 62
     3
100
AcDbLine
 10
41.64
 20
-35.5654620608523
 30
0.0
 11
42.04
 21
-36.0654620608523
 31
0.0
  0
LINE
  5
266
330
1F
100
AcDbEntity
  8
1
  6
Continuous
 62
     3
100
AcDbLine
 10
42.04
 20
-36.0654620608523
 30
0.0
 11
41.96
 21
-36.5654620608523
 31
0.0
  0
LINE
  5
267
330
1F
100
AcDbEntity
  8
1
  6
Continuous
 62
     3
100
AcDbLine
 10
41.96
 20
-36.5654620608523
 30
0.0
 11
41.64
 21
-37.1654620608523
 31
0.0
  0
LINE
  5
268
330
1F
100
AcDbEntity
  8
1
  6
Continuous
 62
     3
100
AcDbLine
 10
41.64
 20
-37.1654620608523
 30
0.0
 11
41.16
 21
-37.5654620608523
 31
0.0
  0
LINE
  5
269
330
1F
100
AcDbEntity
  8
1
  6
Continuous
 62
     3
100
AcDbLine
 10
41.16
 20
-37.5654620608523
 30
0.0
 11
40.76
 21
-37.7654620608523
 31
0.0
  0
LINE
  5
26A
330
1F
100
AcDbEntity
  8
1
  6
Continuous
 62
     3
100
AcDbLine
 10
40.76
 20
-37.7654620608523
 30
0.0
 11
40.44
 21
-38.1654620608523
 31
0.0
  0
LINE
  5
26B
330
1F
100
AcDbEntity
  8
1
  6
Continuous
 62
     3
100
AcDbLine
 10
40.44
 20
-38.1654620608523
 30
0.0
 11
40.2
 21
-38.5654620608523
 31
0.0
  0
LINE
  5
26C
330
1F
100
AcDbEntity
  8
1
  6
Continuous
 62
     3
100
AcDbLine
 10
40.2
 20
-38.5654620608523
 30
0.0
 11
40.04
 21
-39.2654620608523
 31
0.0
  0
LINE
  5
26D
330
1F
100
AcDbEntity
  8
1
  6
Continuous
 62
     3
100
AcDbLine
 10
40.04
 20
-39.2654620608523
 30
0.0
 11
42.12
 21
-39.2654620608523
 31
0.0
  0
LINE
  5
26E
330
1F
100
AcDbEntity
  8
1
  6
Continuous
 62
     3
100
AcDbLine
 10
45.56
 20
-35.2654620608523
 30
0.0
 11
43.96
 21
-35.2654620608523
 31
0.0
  0
LINE
  5
26F
330
1F
100
AcDbEntity
  8
1
  6
Continuous
 62
     3
100
AcDbLine
 10
43.96
 20
-35.2654620608523
 30
0.0
 11
43.88
 21
-37.2654620608523
 31
0.0
  0
LINE
  5
270
330
1F
100
AcDbEntity
  8
1
  6
Continuous
 62
     3
100
AcDbLine
 10
43.88
 20
-37.2654620608523
 30
0.0
 11
44.36
 21
-36.8654620608523
 31
0.0
  0
LINE
  5
271
330
1F
100
AcDbEntity
  8
1
  6
Continuous
 62
     3
100
AcDbLine
 10
44.36
 20
-36.8654620608523
 30
0.0
 11
44.76
 21
-36.7654620608523
 31
0.0
  0
LINE
  5
272
330
1F
100
AcDbEntity
  8
1
  6
Continuous
 62
     3
100
AcDbLine
 10
44.76
 20
-36.7654620608523
 30
0.0
 11
45.16
 21
-36.8654620608523
 31
0.0
  0
LINE
  5
273
330
1F
100
AcDbEntity
  8
1
  6
Continuous
 62
     3
100
AcDbLine
 10
45.16
 20
-36.8654620608523
 30
0.0
 11
45.4
 21
-37.1654620608523
 31
0.0
  0
LINE
  5
274
330
1F
100
AcDbEntity
  8
1
  6
Continuous
 62
     3
100
AcDbLine
 10
45.4
 20
-37.1654620608523
 30
0.0
 11
45.56
 21
-37.3654620608523
 31
0.0
  0
LINE
  5
275
330
1F
100
AcDbEntity
  8
1
  6
Continuous
 62
     3
100
AcDbLine
 10
45.56
 20
-37.3654620608523
 30
0.0
 11
45.72
 21
-38.0654620608523
 31
0.0
  0
LINE
  5
276
330
1F
100
AcDbEntity
  8
1
  6
Continuous
 62
     3
100
AcDbLine
 10
45.72
 20
-38.0654620608523
 30
0.0
 11
45.56
 21
-38.7654620608523
 31
0.0
  0
LINE
  5
277
330
1F
100
AcDbEntity
  8
1
  6
Continuous
 62
     3
100
AcDbLine
 10
45.56
 20
-38.7654620608523
 30
0.0
 11
45.4
 21
-38.9654620608523
 31
0.0
  0
LINE
  5
278
330
1F
100
AcDbEntity
  8
1
  6
Continuous
 62
     3
100
AcDbLine
 10
45.4
 20
-38.9654620608523
 30
0.0
 11
45.16
 21
-39.2654620608523
 31
0.0
  0
LINE
  5
279
330
1F
100
AcDbEntity
  8
1
  6
Continuous
 62
     3
100
AcDbLine
 10
45.16
 20
-39.2654620608523
 30
0.0
 11
44.84
 21
-39.2654620608523
 31
0.0
  0
LINE
  5
27A
330
1F
100
AcDbEntity
  8
1
  6
Continuous
 62
     3
100
AcDbLine
 10
44.84
 20
-39.2654620608523
 30
0.0
 11
44.44
 21
-39.2654620608523
 31
0.0
  0
LINE
  5
27B
330
1F
100
AcDbEntity
  8
1
  6
Continuous
 62
     3
100
AcDbLine
 10
44.44
 20
-39.2654620608523
 30
0.0
 11
44.12
 21
-38.9654620608523
 31
0.0
  0
LINE
  5
27C
330
1F
100
AcDbEntity
  8
1
  6
Continuous
 62
     3
100
AcDbLine
 10
44.12
 20
-38.9654620608523
 30
0.0
 11
43.8
 21
-38.7654620608523
 31
0.0
  0
LINE
  5
27D
330
1F
100
AcDbEntity
  8
1
  6
Continuous
 62
     3
100
AcDbLine
 10
50.05150329053464
 20
92.70000000001241
 30
0.0
 11
50.42950329053466
 21
93.0000000000124
 31
0.0
  0
LINE
  5
27E
330
1F
100
AcDbEntity
  8
1
  6
Continuous
 62
     3
100
AcDbLine
 10
50.42950329053466
 20
93.0000000000124
 30
0.0
 11
50.42950329053466
 21
90.0000000000124
 31
0.0
  0
LINE
  5
27F
330
1F
100
AcDbEntity
  8
1
  6
Continuous
 62
     3
100
AcDbLine
 10
55.53250329053464
 20
91.5000000000124
 30
0.0
 11
56.85550329053464
 21
91.5000000000124
 31
0.0
  0
LINE
  5
280
330
1F
100
AcDbEntity
  8
1
  6
Continuous
 62
     3
100
AcDbLine
 10
58.43050329053463
 20
92.4750000000124
 30
0.0
 11
58.74550329053463
 21
92.9250000000124
 31
0.0
  0
LINE
  5
281
330
1F
100
AcDbEntity
  8
1
  6
Continuous
 62
     3
100
AcDbLine
 10
58.74550329053463
 20
92.9250000000124
 30
0.0
 11
59.18650329053463
 21
93.0000000000124
 31
0.0
  0
LINE
  5
282
330
1F
100
AcDbEntity
  8
1
  6
Continuous
 62
     3
100
AcDbLine
 10
59.18650329053463
 20
93.0000000000124
 30
0.0
 11
59.62750329053463
 21
92.9250000000124
 31
0.0
  0
LINE
  5
283
330
1F
100
AcDbEntity
  8
1
  6
Continuous
 62
     3
100
AcDbLine
 10
59.62750329053463
 20
92.9250000000124
 30
0.0
 11
59.81650329053463
 21
92.4750000000124
 31
0.0
  0
LINE
  5
284
330
1F
100
AcDbEntity
  8
1
  6
Continuous
 62
     3
100
AcDbLine
 10
59.81650329053463
 20
92.4750000000124
 30
0.0
 11
59.94250329053463
 21
92.1750000000124
 31
0.0
  0
LINE
  5
285
330
1F
100
AcDbEntity
  8
1
  6
Continuous
 62
     3
100
AcDbLine
 10
59.94250329053463
 20
92.1750000000124
 30
0.0
 11
59.75350329053464
 21
91.8000000000124
 31
0.0
  0
LINE
  5
286
330
1F
100
AcDbEntity
  8
1
  6
Continuous
 62
     3
100
AcDbLine
 10
59.75350329053464
 20
91.8000000000124
 30
0.0
 11
59.50150329053463
 21
91.57500000001241
 31
0.0
  0
LINE
  5
287
330
1F
100
AcDbEntity
  8
1
  6
Continuous
 62
     3
100
AcDbLine
 10
59.50150329053463
 20
91.57500000001241
 30
0.0
 11
59.12350329053462
 21
91.57500000001241
 31
0.0
  0
LINE
  5
288
330
1F
100
AcDbEntity
  8
1
  6
Continuous
 62
     3
100
AcDbLine
 10
59.12350329053462
 20
91.57500000001241
 30
0.0
 11
59.50150329053463
 21
91.57500000001241
 31
0.0
  0
LINE
  5
289
330
1F
100
AcDbEntity
  8
1
  6
Continuous
 62
     3
100
AcDbLine
 10
59.50150329053463
 20
91.57500000001241
 30
0.0
 11
59.81650329053463
 21
91.27500000001241
 31
0.0
  0
LINE
  5
28A
330
1F
100
AcDbEntity
  8
1
  6
Continuous
 62
     3
100
AcDbLine
 10
59.81650329053463
 20
91.27500000001241
 30
0.0
 11
60.00550329053462
 21
90.82500000001241
 31
0.0
  0
LINE
  5
28B
330
1F
100
AcDbEntity
  8
1
  6
Continuous
 62
     3
100
AcDbLine
 10
60.00550329053462
 20
90.82500000001241
 30
0.0
 11
59.81650329053463
 21
90.3000000000124
 31
0.0
  0
LINE
  5
28C
330
1F
100
AcDbEntity
  8
1
  6
Continuous
 62
     3
100
AcDbLine
 10
59.81650329053463
 20
90.3000000000124
 30
0.0
 11
59.62750329053463
 21
90.07500000001241
 31
0.0
  0
LINE
  5
28D
330
1F
100
AcDbEntity
  8
1
  6
Continuous
 62
     3
100
AcDbLine
 10
59.62750329053463
 20
90.07500000001241
 30
0.0
 11
59.18650329053463
 21
90.0000000000124
 31
0.0
  0
LINE
  5
28E
330
1F
100
AcDbEntity
  8
1
  6
Continuous
 62
     3
100
AcDbLine
 10
59.18650329053463
 20
90.0000000000124
 30
0.0
 11
58.80850329053462
 21
90.07500000001241
 31
0.0
  0
LINE
  5
28F
330
1F
100
AcDbEntity
  8
1
  6
Continuous
 62
     3
100
AcDbLine
 10
58.80850329053462
 20
90.07500000001241
 30
0.0
 11
58.49350329053462
 21
90.3000000000124
 31
0.0
  0
LINE
  5
290
330
1F
100
AcDbEntity
  8
1
  6
Continuous
 62
     3
100
AcDbLine
 10
58.49350329053462
 20
90.3000000000124
 30
0.0
 11
58.36750329053461
 21
90.52500000001241
 31
0.0
  0
LINE
  5
291
330
1F
100
AcDbEntity
  8
1
  6
Continuous
 62
     3
100
AcDbLine
 10
62.14750329053464
 20
93.0000000000124
 30
0.0
 11
61.70650329053464
 21
92.77500000001241
 31
0.0
  0
LINE
  5
292
330
1F
100
AcDbEntity
  8
1
  6
Continuous
 62
     3
100
AcDbLine
 10
61.70650329053464
 20
92.77500000001241
 30
0.0
 11
61.45450329053463
 21
92.32500000001241
 31
0.0
  0
LINE
  5
293
330
1F
100
AcDbEntity
  8
1
  6
Continuous
 62
     3
100
AcDbLine
 10
61.45450329053463
 20
92.32500000001241
 30
0.0
 11
61.32850329053463
 21
91.5000000000124
 31
0.0
  0
LINE
  5
294
330
1F
100
AcDbEntity
  8
1
  6
Continuous
 62
     3
100
AcDbLine
 10
61.32850329053463
 20
91.5000000000124
 30
0.0
 11
61.45450329053463
 21
90.6750000000124
 31
0.0
  0
LINE
  5
295
330
1F
100
AcDbEntity
  8
1
  6
Continuous
 62
     3
100
AcDbLine
 10
61.45450329053463
 20
90.6750000000124
 30
0.0
 11
61.70650329053464
 21
90.2250000000124
 31
0.0
  0
LINE
  5
296
330
1F
100
AcDbEntity
  8
1
  6
Continuous
 62
     3
100
AcDbLine
 10
61.70650329053464
 20
90.2250000000124
 30
0.0
 11
62.14750329053464
 21
90.0000000000124
 31
0.0
  0
LINE
  5
297
330
1F
100
AcDbEntity
  8
1
  6
Continuous
 62
     3
100
AcDbLine
 10
62.14750329053464
 20
90.0000000000124
 30
0.0
 11
62.58850329053465
 21
90.2250000000124
 31
0.0
  0
LINE
  5
298
330
1F
100
AcDbEntity
  8
1
  6
Continuous
 62
     3
100
AcDbLine
 10
62.58850329053465
 20
90.2250000000124
 30
0.0
 11
62.90350329053464
 21
90.6750000000124
 31
0.0
  0
LINE
  5
299
330
1F
100
AcDbEntity
  8
1
  6
Continuous
 62
     3
100
AcDbLine
 10
62.90350329053464
 20
90.6750000000124
 30
0.0
 11
62.96650329053463
 21
91.5000000000124
 31
0.0
  0
LINE
  5
29A
330
1F
100
AcDbEntity
  8
1
  6
Continuous
 62
     3
100
AcDbLine
 10
62.96650329053463
 20
91.5000000000124
 30
0.0
 11
62.90350329053464
 21
92.32500000001241
 31
0.0
  0
LINE
  5
29B
330
1F
100
AcDbEntity
  8
1
  6
Continuous
 62
     3
100
AcDbLine
 10
62.90350329053464
 20
92.32500000001241
 30
0.0
 11
62.58850329053465
 21
92.77500000001241
 31
0.0
  0
LINE
  5
29C
330
1F
100
AcDbEntity
  8
1
  6
Continuous
 62
     3
100
AcDbLine
 10
62.58850329053465
 20
92.77500000001241
 30
0.0
 11
62.14750329053464
 21
93.0000000000124
 31
0.0
  0
LINE
  5
29D
330
1F
100
AcDbEntity
  8
1
  6
Continuous
 62
     3
100
AcDbLine
 10
65.10850329053463
 20
93.0000000000124
 30
0.0
 11
64.66750329053463
 21
92.77500000001241
 31
0.0
  0
LINE
  5
29E
330
1F
100
AcDbEntity
  8
1
  6
Continuous
 62
     3
100
AcDbLine
 10
64.66750329053463
 20
92.77500000001241
 30
0.0
 11
64.41550329053462
 21
92.32500000001241
 31
0.0
  0
LINE
  5
29F
330
1F
100
AcDbEntity
  8
1
  6
Continuous
 62
     3
100
AcDbLine
 10
64.41550329053462
 20
92.32500000001241
 30
0.0
 11
64.28950329053461
 21
91.5000000000124
 31
0.0
  0
LINE
  5
2A0
330
1F
100
AcDbEntity
  8
1
  6
Continuous
 62
     3
100
AcDbLine
 10
64.28950329053461
 20
91.5000000000124
 30
0.0
 11
64.41550329053462
 21
90.6750000000124
 31
0.0
  0
LINE
  5
2A1
330
1F
100
AcDbEntity
  8
1
  6
Continuous
 62
     3
100
AcDbLine
 10
64.41550329053462
 20
90.6750000000124
 30
0.0
 11
64.66750329053463
 21
90.2250000000124
 31
0.0
  0
LINE
  5
2A2
330
1F
100
AcDbEntity
  8
1
  6
Continuous
 62
     3
100
AcDbLine
 10
64.66750329053463
 20
90.2250000000124
 30
0.0
 11
65.10850329053463
 21
90.0000000000124
 31
0.0
  0
LINE
  5
2A3
330
1F
100
AcDbEntity
  8
1
  6
Continuous
 62
     3
100
AcDbLine
 10
65.10850329053463
 20
90.0000000000124
 30
0.0
 11
65.54950329053463
 21
90.2250000000124
 31
0.0
  0
LINE
  5
2A4
330
1F
100
AcDbEntity
  8
1
  6
Continuous
 62
     3
100
AcDbLine
 10
65.54950329053463
 20
90.2250000000124
 30
0.0
 11
65.86450329053463
 21
90.6750000000124
 31
0.0
  0
LINE
  5
2A5
330
1F
100
AcDbEntity
  8
1
  6
Continuous
 62
     3
100
AcDbLine
 10
65.86450329053463
 20
90.6750000000124
 30
0.0
 11
65.92750329053462
 21
91.5000000000124
 31
0.0
  0
LINE
  5
2A6
330
1F
100
AcDbEntity
  8
1
  6
Continuous
 62
     3
100
AcDbLine
 10
65.92750329053462
 20
91.5000000000124
 30
0.0
 11
65.86450329053463
 21
92.32500000001241
 31
0.0
  0
LINE
  5
2A7
330
1F
100
AcDbEntity
  8
1
  6
Continuous
 62
     3
100
AcDbLine
 10
65.86450329053463
 20
92.32500000001241
 30
0.0
 11
65.54950329053463
 21
92.77500000001241
 31
0.0
  0
LINE
  5
2A8
330
1F
100
AcDbEntity
  8
1
  6
Continuous
 62
     3
100
AcDbLine
 10
65.54950329053463
 20
92.77500000001241
 30
0.0
 11
65.10850329053463
 21
93.0000000000124
 31
0.0
  0
LINE
  5
2A9
330
1F
100
AcDbEntity
  8
1
  6
Continuous
 62
     3
100
AcDbLine
 10
7.69999999998782
 20
37.6000000000124
 30
0.0
 11
13.4226497307982
 21
37.6000000000124
 31
0.0
  0
LINE
  5
2AA
330
1F
100
AcDbEntity
  8
1
  6
Continuous
 62
     3
100
AcDbLine
 10
-7.20000000001218
 20
37.6000000000124
 30
0.0
 11
7.19999999998782
 21
37.6000000000124
 31
0.0
  0
LINE
  5
2AB
330
1F
100
AcDbEntity
  8
1
  6
Continuous
 62
     3
100
AcDbLine
 10
-86.7000000000122
 20
37.6000000000124
 30
0.0
 11
-76.5000000000122
 21
37.6000000000124
 31
0.0
  0
LINE
  5
2AC
330
1F
100
AcDbEntity
  8
1
  6
Continuous
 62
     3
100
AcDbLine
 10
-72.3000000000122
 20
37.6000000000124
 30
0.0
 11
-69.5000000000122
 21
37.6000000000124
 31
0.0
  0
ARC
  5
2AD
330
1F
100
AcDbEntity
  8
1
  6
Continuous
 62
     3
100
AcDbCircle
 10
27.9999999999878
 20
118.000000000012
 30
0.0
 40
1.0
100
AcDbArc
 50
0.0
 51
90.0
  0
ARC
  5
2AE
330
1F
100
AcDbEntity
  8
1
  6
Continuous
 62
     3
100
AcDbCircle
 10
29.9999999999878
 20
116.500000000012
 30
0.0
 40
1.0
100
AcDbArc
 50
180.0
 51
270.0
  0
ARC
  5
2AF
330
1F
100
AcDbEntity
  8
1
  6
Continuous
 62
     3
100
AcDbCircle
 10
27.9999999999878
 20
70.0000000000124
 30
0.0
 40
1.0
100
AcDbArc
 50
270.0
 51
0.0
  0
ARC
  5
2B0
330
1F
100
AcDbEntity
  8
1
  6
Continuous
 62
     3
100
AcDbCircle
 10
29.9999999999878
 20
71.5000000000124
 30
0.0
 40
1.0
100
AcDbArc
 50
90.0
 51
180.0
  0
ARC
  5
2B1
330
1F
100
AcDbEntity
  8
1
  6
Continuous
 62
     3
100
AcDbCircle
 10
29.9999999999878
 20
-22.4999999999876
 30
0.0
 40
1.0
100
AcDbArc
 50
90.0
 51
180.0
  0
ARC
  5
2B2
330
1F
100
AcDbEntity
  8
1
  6
Continuous
 62
     3
100
AcDbCircle
 10
27.9999999999878
 20
-23.9999999999876
 30
0.0
 40
1.0
100
AcDbArc
 50
270.0
 51
0.0
  0
ARC
  5
2B3
330
1F
100
AcDbEntity
  8
1
  6
Continuous
 62
     3
100
AcDbCircle
 10
29.9999999999878
 20
22.5000000000124
 30
0.0
 40
1.0
100
AcDbArc
 50
180.0
 51
270.0
  0
ARC
  5
2B4
330
1F
100
AcDbEntity
  8
1
  6
Continuous
 62
     3
100
AcDbCircle
 10
27.9999999999878
 20
24.0000000000124
 30
0.0
 40
1.0
100
AcDbArc
 50
0.0
 51
90.0
  0
ARC
  5
2B5
330
1F
100
AcDbEntity
  8
1
  6
Continuous
 62
     3
100
AcDbCircle
 10
-95.5000000000122
 20
33.2110034631425
 30
0.0
 40
1.000000000000023
100
AcDbArc
 50
272.9999999999973
 51
0.0
  0
ARC
  5
2B6
330
1F
100
AcDbEntity
  8
1
  6
Continuous
 62
     3
100
AcDbCircle
 10
-100.500000000012
 20
22.5000000000124
 30
0.0
 40
1.0
100
AcDbArc
 50
270.0
 51
0.0
  0
ARC
  5
2B7
330
1F
100
AcDbEntity
  8
1
  6
Continuous
 62
     3
100
AcDbCircle
 10
13.4142135623609
 20
70.0000000000124
 30
0.0
 40
1.000000000000011
100
AcDbArc
 50
225.0000000000044
 51
270.0
  0
ARC
  5
2B8
330
1F
100
AcDbEntity
  8
1
  6
Continuous
 62
     3
100
AcDbCircle
 10
13.4142135623609
 20
70.0000000000124
 30
0.0
 40
1.000000000000011
100
AcDbArc
 50
225.0000000000044
 51
270.0
  0
ARC
  5
2B9
330
1F
100
AcDbEntity
  8
1
  6
Continuous
 62
     3
100
AcDbCircle
 10
11.5857864376148
 20
69.0000000000124
 30
0.0
 40
0.9999999999999302
100
AcDbArc
 50
44.99999999999986
 51
90.0
  0
ARC
  5
2BA
330
1F
100
AcDbEntity
  8
1
  6
Continuous
 62
     3
100
AcDbCircle
 10
-10.5857864376391
 20
71.0000000000124
 30
0.0
 40
1.000000000000011
100
AcDbArc
 50
225.0000000000044
 51
270.0
  0
ARC
  5
2BB
330
1F
100
AcDbEntity
  8
1
  6
Continuous
 62
     3
100
AcDbCircle
 10
-13.9142135623852
 20
71.5000000000124
 30
0.0
 40
0.9999999999999302
100
AcDbArc
 50
44.99999999999986
 51
90.0
  0
ARC
  5
2BC
330
1F
100
AcDbEntity
  8
1
  6
Continuous
 62
     3
100
AcDbCircle
 10
-22.5000000000122
 20
116.500000000012
 30
0.0
 40
1.0
100
AcDbArc
 50
270.0
 51
0.0
  0
ARC
  5
2BD
330
1F
100
AcDbEntity
  8
1
  6
Continuous
 62
     3
100
AcDbCircle
 10
22.4999999999878
 20
120.000000000012
 30
0.0
 40
1.0
100
AcDbArc
 50
180.0
 51
270.0
  0
ARC
  5
2BE
330
1F
100
AcDbEntity
  8
1
  6
Continuous
 62
     3
100
AcDbCircle
 10
-4.03440150741068
 20
104.23345515832
 30
0.0
 40
0.9999999999993023
100
AcDbArc
 50
291.5161687110107
 51
355.0000000000373
  0
ARC
  5
2BF
330
1F
100
AcDbEntity
  8
1
  6
Continuous
 62
     3
100
AcDbCircle
 10
1.69723185798952
 20
108.000000000012
 30
0.0
 40
1.000000000000095
100
AcDbArc
 50
5.00000000001975
 51
90.0
  0
ARC
  5
2C0
330
1F
100
AcDbEntity
  8
1
  6
Continuous
 62
     3
100
AcDbCircle
 10
-1.69723185801388
 20
108.000000000012
 30
0.0
 40
1.0
100
AcDbArc
 50
90.0
 51
174.9999999999801
  0
ARC
  5
2C1
330
1F
100
AcDbEntity
  8
1
  6
Continuous
 62
     3
100
AcDbCircle
 10
-98.5000000000122
 20
31.0510354332975
 30
0.0
 40
1.000000000000024
100
AcDbArc
 50
92.9999999999982
 51
180.0
  0
ARC
  5
2C2
330
1F
100
AcDbEntity
  8
1
  6
Continuous
 62
     3
100
AcDbCircle
 10
-60.5000000000122
 20
31.0510354332975
 30
0.0
 40
1.0
100
AcDbArc
 50
0.0
 51
87.00000000000263
  0
ARC
  5
2C3
330
1F
100
AcDbEntity
  8
1
  6
Continuous
 62
     3
100
AcDbCircle
 10
-93.5000000000122
 20
37.6000000000124
 30
0.0
 40
1.0
100
AcDbArc
 50
90.0
 51
180.0
  0
ARC
  5
2C4
330
1F
100
AcDbEntity
  8
1
  6
Continuous
 62
     3
100
AcDbCircle
 10
-60.5000000000122
 20
22.6370702608199
 30
0.0
 40
1.000000000000045
100
AcDbArc
 50
294.999999999999
 51
0.0
  0
ARC
  5
2C5
330
1F
100
AcDbEntity
  8
1
  6
Continuous
 62
     3
100
AcDbCircle
 10
-63.3636453277158
 20
19.0949746763469
 30
0.0
 40
1.000000000000045
100
AcDbArc
 50
114.9999999999989
 51
229.8002626126707
  0
ARC
  5
2C6
330
1F
100
AcDbEntity
  8
1
  6
Continuous
 62
     3
100
AcDbCircle
 10
-98.5000000000122
 20
22.6370702608199
 30
0.0
 40
1.0
100
AcDbArc
 50
180.0
 51
245.0000000000007
  0
ARC
  5
2C7
330
1F
100
AcDbEntity
  8
1
  6
Continuous
 62
     3
100
AcDbCircle
 10
13.4142135623609
 20
-23.9999999999876
 30
0.0
 40
1.000000000000003
100
AcDbArc
 50
225.000000000004
 51
270.0
  0
ARC
  5
2C8
330
1F
100
AcDbEntity
  8
1
  6
Continuous
 62
     3
100
AcDbCircle
 10
11.5857864376148
 20
-24.9999999999876
 30
0.0
 40
0.9999999999999327
100
AcDbArc
 50
45.0
 51
90.0
  0
ARC
  5
2C9
330
1F
100
AcDbEntity
  8
1
  6
Continuous
 62
     3
100
AcDbCircle
 10
11.5857864376148
 20
25.0000000000124
 30
0.0
 40
1.0
100
AcDbArc
 50
270.0
 51
314.999999999996
  0
ARC
  5
2CA
330
1F
100
AcDbEntity
  8
1
  6
Continuous
 62
     3
100
AcDbCircle
 10
13.4142135623609
 20
24.0000000000124
 30
0.0
 40
1.0
100
AcDbArc
 50
90.0
 51
135.0
  0
ARC
  5
2CB
330
1F
100
AcDbEntity
  8
1
  6
Continuous
 62
     3
100
AcDbCircle
 10
-10.5857864376391
 20
-22.9999999999876
 30
0.0
 40
1.000000000000003
100
AcDbArc
 50
225.000000000004
 51
270.0
  0
ARC
  5
2CC
330
1F
100
AcDbEntity
  8
1
  6
Continuous
 62
     3
100
AcDbCircle
 10
-13.9142135623852
 20
-22.4999999999876
 30
0.0
 40
0.9999999999999327
100
AcDbArc
 50
45.0
 51
90.0
  0
ARC
  5
2CD
330
1F
100
AcDbEntity
  8
1
  6
Continuous
 62
     3
100
AcDbCircle
 10
-13.9142135623852
 20
22.5000000000124
 30
0.0
 40
1.0
100
AcDbArc
 50
270.0
 51
314.999999999996
  0
ARC
  5
2CE
330
1F
100
AcDbEntity
  8
1
  6
Continuous
 62
     3
100
AcDbCircle
 10
-10.5857864376391
 20
23.0000000000124
 30
0.0
 40
1.000000000000043
100
AcDbArc
 50
114.4698005207013
 51
135.0
  0
ARC
  5
2CF
330
1F
100
AcDbEntity
  8
1
  6
Continuous
 62
     3
100
AcDbCircle
 10
9.99999999998784
 20
32.0481555856732
 30
0.0
 40
0.9999999999999591
100
AcDbArc
 50
0.0
 51
90.0
  0
ARC
  5
2D0
330
1F
100
AcDbEntity
  8
1
  6
Continuous
 62
     3
100
AcDbCircle
 10
-10.0000000000122
 20
32.0481555856732
 30
0.0
 40
1.0
100
AcDbArc
 50
90.0
 51
180.0
  0
ARC
  5
2D1
330
1F
100
AcDbEntity
  8
1
  6
Continuous
 62
     3
100
AcDbCircle
 10
-13.5000000000122
 20
37.1000000000124
 30
0.0
 40
0.5
100
AcDbArc
 50
90.0
 51
180.0
  0
ARC
  5
2D2
330
1F
100
AcDbEntity
  8
1
  6
Continuous
 62
     3
100
AcDbCircle
 10
-4.03440150741068
 20
104.23345515832
 30
0.0
 40
0.9999999999993023
100
AcDbArc
 50
291.5161687110107
 51
355.0000000000373
  0
ARC
  5
2D3
330
1F
100
AcDbEntity
  8
1
  6
Continuous
 62
     3
100
AcDbCircle
 10
1.69723185798952
 20
108.000000000012
 30
0.0
 40
1.000000000000095
100
AcDbArc
 50
5.00000000001975
 51
90.0
  0
ARC
  5
2D4
330
1F
100
AcDbEntity
  8
1
  6
Continuous
 62
     3
100
AcDbCircle
 10
-1.69723185801388
 20
108.000000000012
 30
0.0
 40
1.0
100
AcDbArc
 50
90.0
 51
174.9999999999801
  0
ARC
  5
2D5
330
1F
100
AcDbEntity
  8
1
  6
Continuous
 62
     3
100
AcDbCircle
 10
76.2108845879021
 20
88.2073044844595
 30
0.0
 40
0.6999999999999407
100
AcDbArc
 50
272.0166890183747
 51
340.0000000000038
  0
ARC
  5
2D6
330
1F
100
AcDbEntity
  8
1
  6
Continuous
 62
     3
100
AcDbCircle
 10
76.2108845879021
 20
99.7926955155652
 30
0.0
 40
0.6999999999999107
100
AcDbArc
 50
19.99999999998859
 51
87.98331098162562
  0
ARC
  5
2D7
330
1F
100
AcDbEntity
  8
1
  6
Continuous
 62
     3
100
AcDbCircle
 10
82.5283867006253
 20
88.8988138055937
 30
0.0
 40
4.999999999999948
100
AcDbArc
 50
128.2980118668302
 51
159.9999999999997
  0
ARC
  5
2D8
330
1F
100
AcDbEntity
  8
1
  6
Continuous
 62
     3
100
AcDbCircle
 10
82.5283867006252
 20
99.1011861944312
 30
0.0
 40
4.999999999999974
100
AcDbArc
 50
200.0000000000007
 51
231.7019881331722
  0
ARC
  5
2D9
330
1F
100
AcDbEntity
  8
1
  6
Continuous
 62
     3
100
AcDbCircle
 10
-10.0000000000122
 20
88.0000000000124
 30
0.0
 40
4.0
100
AcDbArc
 50
180.0
 51
270.0
  0
ARC
  5
2DA
330
1F
100
AcDbEntity
  8
1
  6
Continuous
 62
     3
100
AcDbCircle
 10
6.34314575049547
 20
104.000000000012
 30
0.0
 40
4.000000000000592
100
AcDbArc
 50
45.00000000000809
 51
90.0
  0
ARC
  5
2DB
102
{ACAD_REACTORS
330
36A
102
}
330
1F
100
AcDbEntity
  8
1
  6
Continuous
 62
     3
100
AcDbCircle
 10
34.5999999999879
 20
92.9000000000124
 30
0.0
 40
2.0
100
AcDbArc
 50
270.0
 51
0.0
  0
ARC
  5
2DC
102
{ACAD_REACTORS
330
36A
102
}
330
1F
100
AcDbEntity
  8
1
  6
Continuous
 62
     3
100
AcDbCircle
 10
34.3999999999878
 20
93.1000000000124
 30
0.0
 40
1.200000000000003
100
AcDbArc
 50
270.0
 51
0.0
  0
ARC
  5
2DD
330
1F
100
AcDbEntity
  8
1
  6
Continuous
 62
     3
100
AcDbCircle
 10
13.4226497307982
 20
38.6000000000124
 30
0.0
 40
4.0
100
AcDbArc
 50
270.0
 51
330.0000000000003
  0
ARC
  5
2DE
330
1F
100
AcDbEntity
  8
1
  6
Continuous
 62
     3
100
AcDbCircle
 10
13.4226497307982
 20
38.6000000000124
 30
0.0
 40
1.0
100
AcDbArc
 50
270.0
 51
329.9999999999989
  0
ARC
  5
2DF
330
1F
100
AcDbEntity
  8
1
  6
Continuous
 62
     3
100
AcDbCircle
 10
25.5470053837803
 20
52.6000000000124
 30
0.0
 40
4.0
100
AcDbArc
 50
90.0
 51
149.9999999999996
  0
ARC
  5
2E0
330
1F
100
AcDbEntity
  8
1
  6
Continuous
 62
     3
100
AcDbCircle
 10
22.9999999999878
 20
50.1884572681323
 30
0.0
 40
2.999999999999984
100
AcDbArc
 50
149.9999999999998
 51
180.0
  0
ARC
  5
2E1
330
1F
100
AcDbEntity
  8
1
  6
Continuous
 62
     3
100
AcDbCircle
 10
27.8564064605388
 20
48.6000000000124
 30
0.0
 40
2.0
100
AcDbArc
 50
90.0
 51
150.0000000000003
  0
ARC
  5
2E2
330
1F
100
AcDbEntity
  8
1
  6
Continuous
 62
     3
100
AcDbCircle
 10
-72.0240164386321
 20
46.9923048454257
 30
0.0
 40
0.9999999999999929
100
AcDbArc
 50
9.14015651711252
 51
90.0
  0
ARC
  5
2E3
330
1F
100
AcDbEntity
  8
1
  6
Continuous
 62
     3
100
AcDbCircle
 10
-86.9759835613924
 20
46.9923048454257
 30
0.0
 40
1.0
100
AcDbArc
 50
90.0
 51
170.8598434828875
  0
ARC
  5
2E4
330
1F
100
AcDbEntity
  8
1
  6
Continuous
 62
     3
100
AcDbCircle
 10
-72.1477156757397
 20
55.6000000000124
 30
0.0
 40
1.000000000000016
100
AcDbArc
 50
1.35373571154087
 51
90.0
  0
ARC
  5
2E5
330
1F
100
AcDbEntity
  8
1
  6
Continuous
 62
     3
100
AcDbCircle
 10
-86.8522843242847
 20
55.6000000000124
 30
0.0
 40
1.0
100
AcDbArc
 50
90.0
 51
178.6462642884534
  0
ARC
  5
2E6
330
1F
100
AcDbEntity
  8
1
  6
Continuous
 62
     3
100
AcDbCircle
 10
14.6649702363106
 20
86.154989636528
 30
0.0
 40
31.33502976367707
100
AcDbArc
 50
348.9843190086376
 51
0.52667912570158
  0
ARC
  5
2E7
330
1F
100
AcDbEntity
  8
1
  6
Continuous
 62
     3
100
AcDbCircle
 10
40.2105349277114
 20
112.979729160886
 30
0.0
 40
5.789465072276396
100
AcDbArc
 50
334.1943323430817
 51
25.80566765690941
  0
ARC
  5
2E8
330
1F
100
AcDbEntity
  8
1
  6
Continuous
 62
     3
100
AcDbCircle
 10
14.6649702363106
 20
101.845010363497
 30
0.0
 40
31.33502976367707
100
AcDbArc
 50
359.4620035749086
 51
11.01568099136251
  0
ARC
  5
2E9
330
1F
100
AcDbEntity
  8
1
  6
Continuous
 62
     3
100
AcDbCircle
 10
40.2105349277114
 20
75.0202708391391
 30
0.0
 40
5.789465072276267
100
AcDbArc
 50
334.1943323430844
 51
25.8056676569165
  0
ARC
  5
2EA
330
1F
100
AcDbEntity
  8
1
  6
Continuous
 62
     3
100
AcDbCircle
 10
40.2105349277114
 20
-18.9797291608609
 30
0.0
 40
5.789465072276269
100
AcDbArc
 50
334.1943323430843
 51
25.80566765691653
  0
ARC
  5
2EB
330
1F
100
AcDbEntity
  8
1
  6
Continuous
 62
     3
100
AcDbCircle
 10
14.6649702363106
 20
-7.84501036347194
 30
0.0
 40
31.33502976367706
100
AcDbArc
 50
348.9843190086378
 51
11.01568099136232
  0
ARC
  5
2EC
330
1F
100
AcDbEntity
  8
1
  6
Continuous
 62
     3
100
AcDbCircle
 10
14.6649702363106
 20
7.84501036349673
 30
0.0
 40
31.33502976367707
100
AcDbArc
 50
348.9843190086376
 51
11.01568099136227
  0
ARC
  5
2ED
330
1F
100
AcDbEntity
  8
1
  6
Continuous
 62
     3
100
AcDbCircle
 10
40.2105349277114
 20
18.9797291608857
 30
0.0
 40
5.789465072276313
100
AcDbArc
 50
334.1943323430834
 51
25.80566765691565
  0
ARC
  5
2EE
330
1F
100
AcDbEntity
  8
1
  6
Continuous
 62
     3
100
AcDbCircle
 10
-108.175882551289
 20
18.9797291608857
 30
0.0
 40
3.675882551276862
100
AcDbArc
 50
316.7153516651701
 51
43.28464833482869
  0
ARC
  5
2EF
330
1F
100
AcDbEntity
  8
1
  6
Continuous
 62
     3
100
AcDbCircle
 10
-122.924621202471
 20
7.84501036349673
 30
0.0
 40
18.424621202459
100
AcDbArc
 50
341.0363262771218
 51
18.96367372287832
  0
ARC
  5
2F0
330
1F
100
AcDbEntity
  8
1
  6
Continuous
 62
     3
100
AcDbCircle
 10
-122.924621202471
 20
-7.84501036347194
 30
0.0
 40
18.42462120245897
100
AcDbArc
 50
341.036326277122
 51
18.96367372287811
  0
ARC
  5
2F1
330
1F
100
AcDbEntity
  8
1
  6
Continuous
 62
     3
100
AcDbCircle
 10
-108.175882551289
 20
-18.9797291608609
 30
0.0
 40
3.675882551276794
100
AcDbArc
 50
316.7153516651713
 51
43.28464833482982
  0
ARC
  5
2F2
330
1F
100
AcDbEntity
  8
1
  6
Continuous
 62
     3
100
AcDbCircle
 10
-108.175882551289
 20
-18.9797291608609
 30
0.0
 40
3.675882551276794
100
AcDbArc
 50
316.7153516651713
 51
43.28464833482982
  0
ARC
  5
2F3
330
1F
100
AcDbEntity
  8
1
  6
Continuous
 62
     3
100
AcDbCircle
 10
-122.924621202471
 20
-7.84501036347194
 30
0.0
 40
18.42462120245897
100
AcDbArc
 50
341.036326277122
 51
18.96367372287811
  0
ARC
  5
2F4
330
1F
100
AcDbEntity
  8
1
  6
Continuous
 62
     3
100
AcDbCircle
 10
-122.924621202471
 20
7.84501036349673
 30
0.0
 40
18.424621202459
100
AcDbArc
 50
341.0363262771218
 51
18.96367372287832
  0
ARC
  5
2F5
330
1F
100
AcDbEntity
  8
1
  6
Continuous
 62
     3
100
AcDbCircle
 10
-91.587619967143
 20
7.84501036349675
 30
0.0
 40
31.33502976367964
100
AcDbArc
 50
168.9843190086385
 51
191.0156809913614
  0
ARC
  5
2F6
330
1F
100
AcDbEntity
  8
1
  6
Continuous
 62
     3
100
AcDbCircle
 10
-91.587619967143
 20
-7.84501036347194
 30
0.0
 40
31.33502976367963
100
AcDbArc
 50
168.9843190086386
 51
191.0156809913615
  0
ARC
  5
2F7
330
1F
100
AcDbEntity
  8
1
  6
Continuous
 62
     3
100
AcDbCircle
 10
-117.133184658545
 20
-18.9797291608608
 30
0.0
 40
5.789465072277528
100
AcDbArc
 50
154.1943323430904
 51
205.8056676569105
  0
ARC
  5
2F8
330
1F
100
AcDbEntity
  8
1
  6
Continuous
 62
     3
100
AcDbCircle
 10
-117.133184658545
 20
18.9797291608857
 30
0.0
 40
5.789465072277528
100
AcDbArc
 50
154.1943323430904
 51
205.8056676569105
  0
ARC
  5
2F9
330
1F
100
AcDbEntity
  8
1
  6
Continuous
 62
     3
100
AcDbCircle
 10
-37.6331846585452
 20
18.9797291608857
 30
0.0
 40
5.78946507227726
100
AcDbArc
 50
154.1943323430891
 51
205.8056676569118
  0
ARC
  5
2FA
330
1F
100
AcDbEntity
  8
1
  6
Continuous
 62
     3
100
AcDbCircle
 10
-43.4246212024708
 20
7.84501036349673
 30
0.0
 40
18.42462120245861
100
AcDbArc
 50
341.0363262771214
 51
18.96367372287872
  0
ARC
  5
2FB
330
1F
100
AcDbEntity
  8
1
  6
Continuous
 62
     3
100
AcDbCircle
 10
-43.4246212024708
 20
-7.84501036347194
 30
0.0
 40
18.42462120245859
100
AcDbArc
 50
341.0363262771216
 51
18.96367372287852
  0
ARC
  5
2FC
330
1F
100
AcDbEntity
  8
1
  6
Continuous
 62
     3
100
AcDbCircle
 10
-28.6758825512884
 20
-18.9797291608609
 30
0.0
 40
3.675882551276201
100
AcDbArc
 50
316.7153516651626
 51
43.28464833483851
  0
ARC
  5
2FD
330
1F
100
AcDbEntity
  8
1
  6
Continuous
 62
     3
100
AcDbCircle
 10
-37.6331846585452
 20
-18.9797291608608
 30
0.0
 40
5.78946507227726
100
AcDbArc
 50
154.1943323430891
 51
205.8056676569118
  0
ARC
  5
2FE
330
1F
100
AcDbEntity
  8
1
  6
Continuous
 62
     3
100
AcDbCircle
 10
-12.0876199671429
 20
-7.84501036347194
 30
0.0
 40
31.33502976367962
100
AcDbArc
 50
168.9843190086386
 51
191.0156809913615
  0
ARC
  5
2FF
330
1F
100
AcDbEntity
  8
1
  6
Continuous
 62
     3
100
AcDbCircle
 10
-12.0876199671429
 20
7.84501036349675
 30
0.0
 40
31.33502976367963
100
AcDbArc
 50
168.9843190086385
 51
191.0156809913614
  0
ARC
  5
300
330
1F
100
AcDbEntity
  8
1
  6
Continuous
 62
     3
100
AcDbCircle
 10
-37.6331846585452
 20
112.979729160886
 30
0.0
 40
5.789465072276955
100
AcDbArc
 50
154.1943323430953
 51
205.8056676569136
  0
ARC
  5
301
330
1F
100
AcDbEntity
  8
1
  6
Continuous
 62
     3
100
AcDbCircle
 10
-12.0876199671429
 20
101.845010363497
 30
0.0
 40
31.33502976367964
100
AcDbArc
 50
168.9843190086384
 51
191.015680991362
  0
ARC
  5
302
330
1F
100
AcDbEntity
  8
1
  6
Continuous
 62
     3
100
AcDbCircle
 10
-12.0876199671429
 20
86.154989636528
 30
0.0
 40
31.33502976367962
100
AcDbArc
 50
168.9843190086386
 51
191.0156809913614
  0
ARC
  5
303
330
1F
100
AcDbEntity
  8
1
  6
Continuous
 62
     3
100
AcDbCircle
 10
-37.6331846585452
 20
75.0202708391391
 30
0.0
 40
5.789465072277302
100
AcDbArc
 50
154.1943323430883
 51
205.8056676569109
  0
ARC
  5
304
330
1F
100
AcDbEntity
  8
1
  6
Continuous
 62
     3
100
AcDbCircle
 10
18.9797291608611
 20
131.633184658546
 30
0.0
 40
5.78946507227662
100
AcDbArc
 50
64.19433234308605
 51
115.805667656914
  0
ARC
  5
305
330
1F
100
AcDbEntity
  8
1
  6
Continuous
 62
     3
100
AcDbCircle
 10
7.84501036347217
 20
106.087619967143
 30
0.0
 40
31.33502976367964
100
AcDbArc
 50
78.98431900863854
 51
101.0156809913615
  0
ARC
  5
306
330
1F
100
AcDbEntity
  8
1
  6
Continuous
 62
     3
100
AcDbCircle
 10
-7.8450103634965
 20
106.087619967143
 30
0.0
 40
31.33502976367963
100
AcDbArc
 50
78.98431900863858
 51
101.0156809913614
  0
ARC
  5
307
330
1F
100
AcDbEntity
  8
1
  6
Continuous
 62
     3
100
AcDbCircle
 10
-18.9797291608854
 20
131.633184658546
 30
0.0
 40
5.789465072276622
100
AcDbArc
 50
64.194332343086
 51
115.8056676569149
  0
ARC
  5
308
330
1F
100
AcDbEntity
  8
1
  6
Continuous
 62
     3
100
AcDbCircle
 10
-28.6758825512884
 20
75.0202708391391
 30
0.0
 40
3.675882551276196
100
AcDbArc
 50
316.7153516651626
 51
43.28464833483847
  0
ARC
  5
309
330
1F
100
AcDbEntity
  8
1
  6
Continuous
 62
     3
100
AcDbCircle
 10
-43.4246212024708
 20
86.154989636528
 30
0.0
 40
18.4246212024586
100
AcDbArc
 50
341.0363262771215
 51
18.96367372287853
  0
ARC
  5
30A
330
1F
100
AcDbEntity
  8
1
  6
Continuous
 62
     3
100
AcDbCircle
 10
-43.4246212024708
 20
101.845010363497
 30
0.0
 40
18.4246212024587
100
AcDbArc
 50
341.0363262771206
 51
18.96367372287883
  0
ARC
  5
30B
330
1F
100
AcDbEntity
  8
1
  6
Continuous
 62
     3
100
AcDbCircle
 10
-28.6758825512884
 20
112.979729160886
 30
0.0
 40
3.675882551276401
100
AcDbArc
 50
316.7153516651593
 51
43.28464833482944
  0
ARC
  5
30C
330
1F
100
AcDbEntity
  8
1
  6
Continuous
 62
     3
100
AcDbCircle
 10
-18.9797291608854
 20
122.675882551289
 30
0.0
 40
3.675882551276859
100
AcDbArc
 50
226.7153516651702
 51
313.2846483348287
  0
ARC
  5
30D
330
1F
100
AcDbEntity
  8
1
  6
Continuous
 62
     3
100
AcDbCircle
 10
-7.8450103634965
 20
137.424621202471
 30
0.0
 40
18.42462120245899
100
AcDbArc
 50
251.0363262771219
 51
288.9636737228781
  0
ARC
  5
30E
330
1F
100
AcDbEntity
  8
1
  6
Continuous
 62
     3
100
AcDbCircle
 10
7.84501036347217
 20
137.424621202471
 30
0.0
 40
18.424621202459
100
AcDbArc
 50
251.0363262771218
 51
288.9636737228782
  0
ARC
  5
30F
330
1F
100
AcDbEntity
  8
1
  6
Continuous
 62
     3
100
AcDbCircle
 10
18.9797291608611
 20
122.675882551289
 30
0.0
 40
3.675882551276794
100
AcDbArc
 50
226.7153516651713
 51
313.2846483348287
  0
ARC
  5
310
330
1F
100
AcDbEntity
  8
1
  6
Continuous
 62
     3
100
AcDbCircle
 10
-0.00000000001216
 20
94.0000000000124
 30
0.0
 40
11.00000000000023
100
AcDbArc
 50
74.173379868128
 51
105.826620131872
  0
ARC
  5
311
330
1F
100
AcDbEntity
  8
1
  6
Continuous
 62
     3
100
AcDbCircle
 10
-0.00000000001216
 20
81.0000000000124
 30
0.0
 40
7.0
100
AcDbArc
 50
270.0
 51
342.079786860608
  0
ARC
  5
312
330
1F
100
AcDbEntity
  8
1
  6
Continuous
 62
     3
100
AcDbCircle
 10
-0.00000000001216
 20
81.0000000000124
 30
0.0
 40
6.999999999999977
100
AcDbArc
 50
197.9202131393919
 51
270.0
  0
ARC
  5
313
330
1F
100
AcDbEntity
  8
1
  6
Continuous
 62
     3
100
AcDbCircle
 10
-79.5000000000122
 20
0.00000000001239
 30
0.0
 40
21.49999999999996
100
AcDbArc
 50
265.043500472695
 51
274.9564995273049
  0
ARC
  5
314
330
1F
100
AcDbEntity
  8
1
  6
Continuous
 62
     3
100
AcDbCircle
 10
-79.5000000000122
 20
0.00000000001239
 30
0.0
 40
21.49999999999996
100
AcDbArc
 50
274.9564995273049
 51
310.0435004726951
  0
ARC
  5
315
330
1F
100
AcDbEntity
  8
1
  6
Continuous
 62
     3
100
AcDbCircle
 10
-79.5000000000122
 20
0.00000000001239
 30
0.0
 40
21.49999999999999
100
AcDbArc
 50
310.0435004726951
 51
319.9564995273049
  0
ARC
  5
316
330
1F
100
AcDbEntity
  8
1
  6
Continuous
 62
     3
100
AcDbCircle
 10
-79.5000000000122
 20
0.00000000001239
 30
0.0
 40
21.49999999999999
100
AcDbArc
 50
319.9564995273049
 51
355.043500472695
  0
ARC
  5
317
330
1F
100
AcDbEntity
  8
1
  6
Continuous
 62
     3
100
AcDbCircle
 10
-79.5000000000122
 20
0.00000000001239
 30
0.0
 40
21.49999999999996
100
AcDbArc
 50
355.043500472695
 51
4.95649952730498
  0
ARC
  5
318
330
1F
100
AcDbEntity
  8
1
  6
Continuous
 62
     3
100
AcDbCircle
 10
-79.5000000000122
 20
0.00000000001239
 30
0.0
 40
21.49999999999996
100
AcDbArc
 50
4.95649952730498
 51
40.04350047269514
  0
ARC
  5
319
330
1F
100
AcDbEntity
  8
1
  6
Continuous
 62
     3
100
AcDbCircle
 10
-79.5000000000122
 20
0.00000000001239
 30
0.0
 40
21.5
100
AcDbArc
 50
40.04350047269514
 51
49.95649952730492
  0
ARC
  5
31A
330
1F
100
AcDbEntity
  8
1
  6
Continuous
 62
     3
100
AcDbCircle
 10
-79.5000000000122
 20
0.00000000001239
 30
0.0
 40
21.5
100
AcDbArc
 50
49.95649952730492
 51
85.04350047269507
  0
ARC
  5
31B
330
1F
100
AcDbEntity
  8
1
  6
Continuous
 62
     3
100
AcDbCircle
 10
-79.5000000000122
 20
0.00000000001239
 30
0.0
 40
21.49999999999998
100
AcDbArc
 50
85.04350047269507
 51
94.95649952730497
  0
ARC
  5
31C
330
1F
100
AcDbEntity
  8
1
  6
Continuous
 62
     3
100
AcDbCircle
 10
-79.5000000000122
 20
0.00000000001239
 30
0.0
 40
21.49999999999999
100
AcDbArc
 50
94.95649952730497
 51
130.0435004726949
  0
ARC
  5
31D
330
1F
100
AcDbEntity
  8
1
  6
Continuous
 62
     3
100
AcDbCircle
 10
-79.5000000000122
 20
0.00000000001239
 30
0.0
 40
21.50000000000009
100
AcDbArc
 50
130.0435004726949
 51
139.9564995273049
  0
ARC
  5
31E
330
1F
100
AcDbEntity
  8
1
  6
Continuous
 62
     3
100
AcDbCircle
 10
-79.5000000000122
 20
0.00000000001239
 30
0.0
 40
21.50000000000001
100
AcDbArc
 50
139.9564995273049
 51
175.0435004726949
  0
ARC
  5
31F
330
1F
100
AcDbEntity
  8
1
  6
Continuous
 62
     3
100
AcDbCircle
 10
-79.5000000000122
 20
0.00000000001239
 30
0.0
 40
21.49999999999959
100
AcDbArc
 50
175.0435004726949
 51
184.9564995273051
  0
ARC
  5
320
330
1F
100
AcDbEntity
  8
1
  6
Continuous
 62
     3
100
AcDbCircle
 10
-79.5000000000122
 20
0.00000000001239
 30
0.0
 40
21.49999999999959
100
AcDbArc
 50
184.9564995273051
 51
220.0435004726951
  0
ARC
  5
321
330
1F
100
AcDbEntity
  8
1
  6
Continuous
 62
     3
100
AcDbCircle
 10
-79.5000000000122
 20
0.00000000001239
 30
0.0
 40
21.5
100
AcDbArc
 50
229.9564995273049
 51
265.043500472695
  0
ARC
  5
322
330
1F
100
AcDbEntity
  8
1
  6
Continuous
 62
     3
100
AcDbCircle
 10
-79.5000000000122
 20
0.00000000001239
 30
0.0
 40
21.5
100
AcDbArc
 50
220.0435004726951
 51
229.9564995273049
  0
ARC
  5
323
330
1F
100
AcDbEntity
  8
1
  6
Continuous
 62
     3
100
AcDbCircle
 10
-79.5000000000122
 20
0.00000000001239
 30
0.0
 40
25.00000000000001
100
AcDbArc
 50
239.3165828910241
 51
0.0
  0
ARC
  5
324
330
1F
100
AcDbEntity
  8
1
  6
Continuous
 62
     3
100
AcDbCircle
 10
-79.5000000000122
 20
0.00000000001239
 30
0.0
 40
24.00000000000001
100
AcDbArc
 50
243.6156702505919
 51
49.80026261267118
  0
ARC
  5
325
330
1F
100
AcDbEntity
  8
1
  6
Continuous
 62
     3
100
AcDbCircle
 10
-79.5000000000122
 20
0.00000000001239
 30
0.0
 40
24.00000000000003
100
AcDbArc
 50
53.65027076640389
 51
61.12804724574384
  0
ARC
  5
326
330
1F
100
AcDbEntity
  8
1
  6
Continuous
 62
     3
100
AcDbCircle
 10
-79.5000000000122
 20
0.00000000001239
 30
0.0
 40
23.99999999999993
100
AcDbArc
 50
61.12804724574384
 51
90.0
  0
ARC
  5
327
330
1F
100
AcDbEntity
  8
1
  6
Continuous
 62
     3
100
AcDbCircle
 10
-74.2506309723033
 20
0.00000000001239
 30
0.0
 40
26.74936902770888
100
AcDbArc
 50
126.5095912593655
 51
233.4904087406344
  0
ARC
  5
328
330
1F
100
AcDbEntity
  8
1
  6
Continuous
 62
     3
100
AcDbCircle
 10
-79.5000000000122
 20
0.00000000001239
 30
0.0
 40
24.00000000000001
100
AcDbArc
 50
90.0
 51
116.384329749408
  0
ARC
  5
329
330
1F
100
AcDbEntity
  8
1
  6
Continuous
 62
     3
100
AcDbCircle
 10
-79.5000000000122
 20
0.00000000001239
 30
0.0
 40
24.00000000000006
100
AcDbArc
 50
49.80026261267118
 51
53.59402219828773
  0
ARC
  5
32A
330
1F
100
AcDbEntity
  8
1
  6
Continuous
 62
     3
100
AcDbCircle
 10
-79.5000000000122
 20
0.00000000001239
 30
0.0
 40
24.99999999999989
100
AcDbArc
 50
0.0
 51
52.09224660944833
  0
ARC
  5
32B
330
1F
100
AcDbEntity
  8
1
  6
Continuous
 62
     3
100
AcDbCircle
 10
-28.6758825512884
 20
-18.9797291608609
 30
0.0
 40
3.675882551276201
100
AcDbArc
 50
316.7153516651626
 51
43.28464833483851
  0
ARC
  5
32C
330
1F
100
AcDbEntity
  8
1
  6
Continuous
 62
     3
100
AcDbCircle
 10
-43.4246212024708
 20
-7.84501036347194
 30
0.0
 40
18.42462120245859
100
AcDbArc
 50
341.0363262771216
 51
18.96367372287852
  0
ARC
  5
32D
330
1F
100
AcDbEntity
  8
1
  6
Continuous
 62
     3
100
AcDbCircle
 10
-43.4246212024708
 20
7.84501036349673
 30
0.0
 40
18.42462120245861
100
AcDbArc
 50
341.0363262771214
 51
18.96367372287872
  0
ARC
  5
32E
330
1F
100
AcDbEntity
  8
1
  6
Continuous
 62
     3
100
AcDbCircle
 10
-28.6758825512884
 20
18.9797291608857
 30
0.0
 40
3.67588255127627
100
AcDbArc
 50
316.7153516651614
 51
43.28464833483739
  0
ARC
  5
32F
330
1F
100
AcDbEntity
  8
1
  6
Continuous
 62
     3
100
AcDbCircle
 10
-11.3897219864087
 20
20.5404605098087
 30
0.0
 40
3.392180830951527
100
AcDbArc
 50
8.0727200818474
 51
83.4028159352338
  0
ARC
  5
330
330
1F
100
AcDbEntity
  8
1
  6
Continuous
 62
     3
100
AcDbCircle
 10
-12.0000000000122
 20
24.4142135623855
 30
0.0
 40
1.000000000000073
100
AcDbArc
 50
315.0
 51
0.0
  0
ARC
  5
331
330
1F
100
AcDbEntity
  8
1
  6
Continuous
 62
     3
100
AcDbCircle
 10
11.7573593128685
 20
24.8284271247586
 30
0.0
 40
0.7573593128807001
100
AcDbArc
 50
180.0
 51
314.9999999999999
  0
ARC
  5
332
330
1F
100
AcDbEntity
  8
1
  6
Continuous
 62
     3
100
AcDbCircle
 10
11.3830851948339
 20
20.6300680095661
 30
0.0
 40
3.391636166622776
100
AcDbArc
 50
96.48539639503161
 51
173.4521898982334
  0
ARC
  5
333
330
1F
100
AcDbEntity
  8
1
  6
Continuous
 62
     3
100
AcDbCircle
 10
-0.00000000001216
 20
94.0000000000124
 30
0.0
 40
7.70000000000001
100
AcDbArc
 50
0.0
 51
185.2001935063464
  0
ARC
  5
334
330
1F
100
AcDbEntity
  8
1
  6
Continuous
 62
     3
100
AcDbCircle
 10
-0.00000000001216
 20
94.0000000000124
 30
0.0
 40
7.700000000000012
100
AcDbArc
 50
185.2001935063464
 51
0.0
  0
ARC
  5
335
330
1F
100
AcDbEntity
  8
1
  6
Continuous
 62
     3
100
AcDbCircle
 10
-76.2500000000122
 20
35.4109425179445
 30
0.0
 40
9.204564146136384
100
AcDbArc
 50
69.32383294638397
 51
110.6761670536167
  0
ARC
  5
336
330
1F
100
AcDbEntity
  8
1
  6
Continuous
 62
     3
100
AcDbCircle
 10
-76.2500000000122
 20
49.0110499061598
 30
0.0
 40
9.412584622514068
100
AcDbArc
 50
249.8009632980032
 51
290.1990367019961
  0
ARC
  5
337
330
1F
100
AcDbEntity
  8
1
  6
Continuous
 62
     3
100
AcDbCircle
 10
-82.7500000000122
 20
48.7754233325559
 30
0.0
 40
9.191809419410953
100
AcDbArc
 50
249.2938254456125
 51
290.7061745543875
  0
ARC
  5
338
330
1F
100
AcDbEntity
  8
1
  6
Continuous
 62
     3
100
AcDbCircle
 10
-82.7500000000122
 20
35.4696165027621
 30
0.0
 40
9.149692748956678
100
AcDbArc
 50
69.19410241127196
 51
110.805897588728
  0
ARC
  5
339
330
1F
100
AcDbEntity
  8
1
  6
Continuous
 62
     3
100
AcDbCircle
 10
-0.00000000001224
 20
32.1148004287854
 30
0.0
 40
12.48519957122708
100
AcDbArc
 50
72.50767547489129
 51
107.4923245251087
  0
ARC
  5
33A
330
1F
100
AcDbEntity
  8
1
  6
Continuous
 62
     3
100
AcDbCircle
 10
-0.00000000001224
 20
52.0851995712386
 30
0.0
 40
12.48519957122612
100
AcDbArc
 50
252.50767547489
 51
287.4923245251101
  0
ARC
  5
33B
330
1F
100
AcDbEntity
  8
1
  6
Continuous
 62
     3
100
AcDbCircle
 10
5.62638837485412
 20
41.271211515541
 30
0.0
 40
3.328788484471471
100
AcDbArc
 50
55.74681268968413
 51
124.2531873103159
  0
ARC
  5
33C
330
1F
100
AcDbEntity
  8
1
  6
Continuous
 62
     3
100
AcDbCircle
 10
5.62638837485412
 20
42.9287884844837
 30
0.0
 40
3.328788484471218
100
AcDbArc
 50
235.7468126896812
 51
304.2531873103188
  0
ARC
  5
33D
330
1F
100
AcDbEntity
  8
1
  6
Continuous
 62
     3
100
AcDbCircle
 10
-5.62638837487853
 20
41.393899783214
 30
0.0
 40
3.228118152870147
100
AcDbArc
 50
54.52106030986177
 51
125.4789396901382
  0
ARC
  5
33E
330
1F
100
AcDbEntity
  8
1
  6
Continuous
 62
     3
100
AcDbCircle
 10
-5.62638837487853
 20
42.9287884844836
 30
0.0
 40
3.328788484471102
100
AcDbArc
 50
235.746812689681
 51
304.2531873103189
  0
ARC
  5
33F
330
1F
100
AcDbEntity
  8
1
  6
Continuous
 62
     3
100
AcDbCircle
 10
-2.18392938033216
 20
42.1636601934492
 30
0.0
 40
5.999999999999973
100
AcDbArc
 50
310.4819934651271
 51
334.7051436492716
  0
ARC
  5
340
330
1F
100
AcDbEntity
  8
1
  6
Continuous
 62
     3
100
AcDbCircle
 10
-6.59275145292798
 20
45.4452234707185
 30
0.0
 40
12.08498115237538
100
AcDbArc
 50
319.5208460520508
 51
331.0741920805388
  0
ARC
  5
341
330
1F
100
AcDbEntity
  8
1
  6
Continuous
 62
     3
100
AcDbCircle
 10
-0.00000000001216
 20
107.000000000012
 30
0.0
 40
7.000000000000228
100
AcDbArc
 50
17.92021313939908
 51
90.0
  0
ARC
  5
342
330
1F
100
AcDbEntity
  8
1
  6
Continuous
 62
     3
100
AcDbCircle
 10
-0.00000000001216
 20
107.000000000012
 30
0.0
 40
7.0
100
AcDbArc
 50
90.0
 51
162.079786860601
  0
ARC
  5
343
330
1F
100
AcDbEntity
  8
1
  6
Continuous
 62
     3
100
AcDbCircle
 10
-0.00000000001216
 20
94.0000000000124
 30
0.0
 40
11.00000000000023
100
AcDbArc
 50
74.173379868128
 51
105.826620131872
  0
ARC
  5
344
330
1F
100
AcDbEntity
  8
1
  6
Continuous
 62
     3
100
AcDbCircle
 10
-0.00000000001216
 20
94.0000000000124
 30
0.0
 40
3.200000000000001
100
AcDbArc
 50
275.3793789911121
 51
84.62062100888812
  0
ARC
  5
345
330
1F
100
AcDbEntity
  8
1
  6
Continuous
 62
     3
100
AcDbCircle
 10
-0.00000000001216
 20
94.0000000000124
 30
0.0
 40
3.200000000000003
100
AcDbArc
 50
185.3793789911123
 51
264.6206210088879
  0
ARC
  5
346
330
1F
100
AcDbEntity
  8
1
  6
Continuous
 62
     3
100
AcDbCircle
 10
-0.00000000001216
 20
94.0000000000124
 30
0.0
 40
3.200000000000001
100
AcDbArc
 50
95.37937899111208
 51
174.620621008888
  0
ARC
  5
347
330
1F
100
AcDbEntity
  8
1
  6
Continuous
 62
     3
100
AcDbCircle
 10
-0.00000000001216
 20
94.0000000000124
 30
0.0
 40
3.200000000000001
100
AcDbArc
 50
264.6206210088879
 51
275.3793789911121
  0
ARC
  5
348
330
1F
100
AcDbEntity
  8
1
  6
Continuous
 62
     3
100
AcDbCircle
 10
-0.00000000001216
 20
94.0000000000124
 30
0.0
 40
11.00000000000002
100
AcDbArc
 50
162.0797868606076
 51
195.8266201318724
  0
ARC
  5
349
330
1F
100
AcDbEntity
  8
1
  6
Continuous
 62
     3
100
AcDbCircle
 10
19.1708206856434
 20
87.3286657365739
 30
0.0
 40
0.829179314344374
100
AcDbArc
 50
272.0166890183756
 51
0.0
  0
ARC
  5
34A
330
1F
100
AcDbEntity
  8
1
  6
Continuous
 62
     3
100
AcDbCircle
 10
19.1708206856434
 20
100.671334263451
 30
0.0
 40
0.8291793143444011
100
AcDbArc
 50
0.0
 51
87.98331098162323
  0
ARC
  5
34B
330
1F
100
AcDbEntity
  8
1
  6
Continuous
 62
     3
100
AcDbCircle
 10
19.9999999999878
 20
86.528169924803
 30
0.0
 40
1.000619764713532
100
AcDbArc
 50
186.9504785558898
 51
270.0
  0
ARC
  5
34C
330
1F
100
AcDbEntity
  8
1
  6
Continuous
 62
     3
100
AcDbCircle
 10
19.9999999999878
 20
101.471830075222
 30
0.0
 40
1.000619764712994
100
AcDbArc
 50
90.0
 51
173.0495214441159
  0
ARC
  5
34D
330
1F
100
AcDbEntity
  8
1
  6
Continuous
 62
     3
100
AcDbCircle
 10
78.4999999999879
 20
94.0000000000124
 30
0.0
 40
1.5
100
AcDbArc
 50
0.0
 51
51.70198813316954
  0
ARC
  5
34E
330
1F
100
AcDbEntity
  8
1
  6
Continuous
 62
     3
100
AcDbCircle
 10
78.4999999999879
 20
94.0000000000124
 30
0.0
 40
1.500000000000068
100
AcDbArc
 50
308.2980118668278
 51
0.0
  0
ARC
  5
34F
330
1F
100
AcDbEntity
  8
1
  6
Continuous
 62
     3
100
AcDbCircle
 10
-0.00000000001216
 20
94.0000000000124
 30
0.0
 40
9.999999999999588
100
AcDbArc
 50
90.0
 51
180.0
  0
ARC
  5
350
330
1F
100
AcDbEntity
  8
1
  6
Continuous
 62
     3
100
AcDbCircle
 10
76.7390064964498
 20
53.6000000000124
 30
0.0
 40
3.260993503537939
100
AcDbArc
 50
293.0790292912928
 51
66.92097070870715
  0
ARC
  5
351
330
1F
100
AcDbEntity
  8
1
  6
Continuous
 62
     3
100
AcDbCircle
 10
19.6007817542164
 20
42.5563645837328
 30
0.0
 40
2.360422291843664
100
AcDbArc
 50
255.4236287360254
 51
304.3470987031019
  0
ARC
  5
352
330
1F
100
AcDbEntity
  8
1
  6
Continuous
 62
     3
100
AcDbCircle
 10
-557.426610503027
 20
44.1321109759498
 30
0.0
 40
486.4143778705586
100
AcDbArc
 50
0.34662028362074
 51
1.35373571154099
  0
ARC
  5
353
330
1F
100
AcDbEntity
  8
1
  6
Continuous
 62
     3
100
AcDbCircle
 10
398.426610503003
 20
44.1321109759498
 30
0.0
 40
486.4143778705592
100
AcDbArc
 50
178.646264288459
 51
179.6533797163792
  0
CIRCLE
  5
354
330
1F
100
AcDbEntity
  8
1
  6
Continuous
 62
     3
100
AcDbCircle
 10
-79.5000000000122
 20
0.00000000001239
 30
0.0
 40
16.74999999999999
  0
CIRCLE
  5
355
330
1F
100
AcDbEntity
  8
1
  6
Continuous
 62
     3
100
AcDbCircle
 10
-79.5000000000122
 20
0.00000000001239
 30
0.0
 40
16.62045140406029
  0
CIRCLE
  5
356
330
1F
100
AcDbEntity
  8
1
  6
Continuous
 62
     3
100
AcDbCircle
 10
-79.5000000000122
 20
0.00000000001239
 30
0.0
 40
15.09373926545629
  0
CIRCLE
  5
357
330
1F
100
AcDbEntity
  8
1
  6
Continuous
 62
     3
100
AcDbCircle
 10
-79.5000000000122
 20
0.00000000001239
 30
0.0
 40
14.51109329740639
  0
CIRCLE
  5
358
330
1F
100
AcDbEntity
  8
1
  6
Continuous
 62
     3
100
AcDbCircle
 10
-79.5000000000122
 20
0.00000000001239
 30
0.0
 40
11.5
  0
CIRCLE
  5
359
330
1F
100
AcDbEntity
  8
1
  6
Continuous
 62
     3
100
AcDbCircle
 10
-79.5000000000122
 20
0.00000000001239
 30
0.0
 40
10.5
  0
CIRCLE
  5
35A
330
1F
100
AcDbEntity
  8
1
  6
Continuous
 62
     3
100
AcDbCircle
 10
-79.5000000000122
 20
0.00000000001239
 30
0.0
 40
19.49999999999999
  0
CIRCLE
  5
35B
330
1F
100
AcDbEntity
  8
1
  6
Continuous
 62
     3
100
AcDbCircle
 10
-0.00000000001216
 20
94.0000000000124
 30
0.0
 40
6.50000000000003
  0
CIRCLE
  5
35C
330
1F
100
AcDbEntity
  8
1
  6
Continuous
 62
     3
100
AcDbCircle
 10
-0.00000000001216
 20
94.0000000000124
 30
0.0
 40
4.00000000000002
  0
CIRCLE
  5
35D
102
{ACAD_REACTORS
330
373
102
}
330
1F
100
AcDbEntity
  8
1
  6
Continuous
 62
     4
100
AcDbCircle
 10
65.3097266238395
 20
96.8465825766524
 30
0.0
 40
0.6263590671360078
  0
SPLINE
  5
35E
330
1F
100
AcDbEntity
  8
1
  6
Continuous
 62
     3
100
AcDbSpline
210
0.0
220
0.0
230
1.0
 70
     8
 71
     3
 72
    63
 73
    59
 74
    57
 42
0.000000001
 43
0.0000000001
 44
0.00000001
 40
0.0
 40
0.0
 40
0.0
 40
0.0
 40
0.033638182903275
 40
0.0672763647055862
 40
0.3101723528277961
 40
0.5530702890311444
 40
0.7953077465891608
 40
1.03755039071578
 40
1.346424483484827
 40
1.655299936649917
 40
1.964277483595932
 40
2.273252413187446
 40
2.640315192241956
 40
3.007380466937777
 40
3.374408674700098
 40
3.741435778290358
 40
4.155647106045354
 40
4.569859495939838
 40
4.984071104130454
 40
5.398282133721181
 40
5.847314456455777
 40
6.29634731682898
 40
6.745376517923094
 40
7.194405415565068
 40
7.66477281643828
 40
8.135140524575311
 40
8.605507201940512
 40
9.075873656678231
 40
9.553428102077294
 40
10.03098277252317
 40
10.5085374429691
 40
10.98609188836822
 40
11.45645834310592
 40
11.92682502047109
 40
12.39719272860813
 40
12.86756012948135
 40
13.31658902712332
 40
13.76561822821742
 40
14.21465108859062
 40
14.6636834113252
 40
15.07789444091596
 40
15.49210604910661
 40
15.90631843900107
 40
16.32052976675606
 40
16.68755687034632
 40
17.05458507810864
 40
17.42165035280444
 40
17.78871313185894
 40
18.09768806145044
 40
18.40666560839644
 40
18.71554106156157
 40
19.02441515433064
 40
19.26665779845727
 40
19.50889525601529
 40
19.75179319221862
 40
19.99468918034081
 40
20.02832736214313
 40
20.06196554504638
 40
20.06196554504638
 40
20.06196554504638
 40
20.06196554504638
 10
-10.0000000000122
 20
33.0481555856732
 30
0.0
 10
-9.9890229522218
 20
33.04586868235837
 30
0.0
 10
-9.967068859912265
 20
33.04129486178439
 30
0.0
 10
-9.865776521512306
 20
33.02056983615556
 30
0.0
 10
-9.695814447115536
 20
32.98747591906501
 30
0.0
 10
-9.456777758733624
 20
32.94551098507956
 30
0.0
 10
-9.217178823552992
 20
32.90828919691099
 30
0.0
 10
-8.955249351682657
 20
32.87179974202755
 30
0.0
 10
-8.670816707404263
 20
32.83603210681699
 30
0.0
 10
-8.363900333053303
 20
32.80096511379471
 30
0.0
 10
-8.05669022662819
 20
32.76826625570382
 30
0.0
 10
-7.729936554607215
 20
32.73601289059796
 30
0.0
 10
-7.383641763541796
 20
32.70472522415214
 30
0.0
 10
-7.01782726007482
 20
32.67457110632245
 30
0.0
 10
-6.651830629205572
 20
32.64687904008876
 30
0.0
 10
-6.269988701393038
 20
32.62041460344019
 30
0.0
 10
-5.872290350632454
 20
32.59536683439915
 30
0.0
 10
-5.45874799596286
 20
32.57179058578767
 30
0.0
 10
-5.045088560370452
 20
32.55037409872671
 30
0.0
 10
-4.619732108839345
 20
32.53050888519616
 30
0.0
 10
-4.182682602183088
 20
32.51233129536618
 30
0.0
 10
-3.733950850712132
 20
32.49588297346673
 30
0.0
 10
-3.285150169574368
 20
32.4814771407626
 30
0.0
 10
-2.829180816255895
 20
32.46888031496408
 30
0.0
 10
-2.36604848569804
 20
32.45816600246133
 30
0.0
 10
-1.895762472438857
 20
32.449348061812
 30
0.0
 10
-1.425444143214257
 20
32.44249198834467
 30
0.0
 10
-0.9527057934376427
 20
32.43757602644741
 30
0.0
 10
-0.4775549389056096
 20
32.43463857438797
 30
0.0
 10
-0.0000000000121831
 20
32.43366964183171
 30
0.0
 10
0.4775549388812635
 20
32.43463857438797
 30
0.0
 10
0.9527057934133281
 20
32.43757602644741
 30
0.0
 10
1.425444143189946
 20
32.44249198834466
 30
0.0
 10
1.895762472414531
 20
32.449348061812
 30
0.0
 10
2.366048485673713
 20
32.45816600246135
 30
0.0
 10
2.829180816231572
 20
32.46888031496407
 30
0.0
 10
3.28515016955004
 20
32.4814771407626
 30
0.0
 10
3.733950850687798
 20
32.49588297346673
 30
0.0
 10
4.182682602158739
 20
32.51233129536618
 30
0.0
 10
4.619732108815001
 20
32.53050888519614
 30
0.0
 10
5.045088560346127
 20
32.55037409872671
 30
0.0
 10
5.458747995938548
 20
32.57179058578768
 30
0.0
 10
5.872290350608145
 20
32.59536683439914
 30
0.0
 10
6.269988701368717
 20
32.62041460344021
 30
0.0
 10
6.651830629181246
 20
32.64687904008876
 30
0.0
 10
7.017827260050494
 20
32.67457110632246
 30
0.0
 10
7.383641763517456
 20
32.70472522415211
 30
0.0
 10
7.729936554582858
 20
32.73601289059793
 30
0.0
 10
8.05669022660383
 20
32.76826625570376
 30
0.0
 10
8.363900333028942
 20
32.80096511379465
 30
0.0
 10
8.670816707379917
 20
32.83603210681699
 30
0.0
 10
8.95524935165832
 20
32.87179974202763
 30
0.0
 10
9.217178823528673
 20
32.90828919691103
 30
0.0
 10
9.456777758709306
 20
32.94551098507959
 30
0.0
 10
9.695814447091195
 20
32.98747591906506
 30
0.0
 10
9.865776521487973
 20
33.02056983615564
 30
0.0
 10
9.967068859887915
 20
33.04129486178438
 30
0.0
 10
9.989022952197447
 20
33.04586868235838
 30
0.0
 10
9.99999999998784
 20
33.0481555856732
 30
0.0
 11
-10.0000000000122
 21
33.0481555856732
 31
0.0
 11
-9.967064805855246
 21
33.04131451257215
 31
0.0
 11
-9.934110788173085
 21
33.03456469581415
 31
0.0
 11
-9.695678398681657
 21
32.98821324822845
 31
0.0
 11
-9.45643102922023
 21
32.94625965979611
 31
0.0
 11
-9.217089246596727
 21
32.90891669662909
 31
0.0
 11
-8.97718582858096
 21
32.87533323905704
 31
0.0
 11
-8.670748510599543
 21
32.83661147153225
 31
0.0
 11
-8.36389077059604
 21
32.80136416069735
 31
0.0
 11
-8.056649118849528
 21
32.76865801591826
 31
0.0
 11
-7.74916889240168
 21
32.73830315766268
 31
0.0
 11
-7.383601442992872
 21
32.70520446212664
 31
0.0
 11
-7.01778261130557
 21
32.67498032906966
 31
0.0
 11
-6.651802352428467
 21
32.64726471332435
 31
0.0
 11
-6.285655303241905
 21
32.6218632745035
 31
0.0
 11
-5.872266231517608
 21
32.59577689183657
 31
0.0
 11
-5.458728204922067
 21
32.57215054119889
 31
0.0
 11
-5.045071206845884
 21
32.55072288974468
 31
0.0
 11
-4.631311688530072
 21
32.53138799943547
 31
0.0
 11
-4.182668420407158
 21
32.51269990788818
 31
0.0
 11
-3.733937952673167
 21
32.49622334998002
 31
0.0
 11
-3.285140093394875
 21
32.481811379897
 31
0.0
 11
-2.836282623986778
 21
32.46940480848951
 31
0.0
 11
-2.366041426452619
 21
32.45850949387073
 31
0.0
 11
-1.895756690070949
 21
32.44967504313281
 31
0.0
 11
-1.425439974813858
 21
32.44281950076734
 31
0.0
 11
-0.955098944820115
 21
32.43792898105786
 31
0.0
 11
-0.4775536719969218
 21
32.43496914002491
 31
0.0
 11
-0.000000000012203
 21
32.4339926294012
 31
0.0
 11
0.4775536719725769
 21
32.4349691400249
 31
0.0
 11
0.9550989447958282
 21
32.43792898105786
 31
0.0
 11
1.425439974789546
 21
32.44281950076734
 31
0.0
 11
1.895756690046614
 21
32.44967504313281
 31
0.0
 11
2.366041426428291
 21
32.45850949387074
 31
0.0
 11
2.836282623962461
 21
32.46940480848951
 31
0.0
 11
3.285140093370549
 21
32.481811379897
 31
0.0
 11
3.73393795264883
 21
32.49622334998001
 31
0.0
 11
4.182668420382812
 21
32.51269990788818
 31
0.0
 11
4.631311688505714
 21
32.53138799943547
 31
0.0
 11
5.04507120682156
 21
32.55072288974468
 31
0.0
 11
5.458728204897775
 21
32.57215054119889
 31
0.0
 11
5.872266231493295
 21
32.59577689183657
 31
0.0
 11
6.285655303217577
 21
32.62186327450351
 31
0.0
 11
6.651802352404143
 21
32.64726471332435
 31
0.0
 11
7.017782611281251
 21
32.67498032906967
 31
0.0
 11
7.383601442968534
 21
32.70520446212664
 31
0.0
 11
7.749168892377325
 21
32.73830315766266
 31
0.0
 11
8.056649118825167
 21
32.7686580159182
 31
0.0
 11
8.363890770571665
 21
32.8013641606973
 31
0.0
 11
8.670748510575194
 21
32.83661147153226
 31
0.0
 11
8.977185828556635
 21
32.87533323905711
 31
0.0
 11
9.217089246572407
 21
32.90891669662914
 31
0.0
 11
9.456431029195917
 21
32.94625965979614
 31
0.0
 11
9.695678398657325
 21
32.9882132482285
 31
0.0
 11
9.93411078814874
 21
33.03456469581417
 31
0.0
 11
9.967064805830908
 21
33.04131451257216
 31
0.0
 11
9.99999999998784
 21
33.0481555856732
 31
0.0
  0
SPLINE
  5
35F
330
1F
100
AcDbEntity
  8
1
  6
Continuous
 62
     3
100
AcDbSpline
210
0.0
220
0.0
230
1.0
 70
     8
 71
     3
 72
     9
 73
     5
 74
     3
 42
0.000000001
 43
0.0000000001
 44
0.00000001
 40
0.0
 40
0.0
 40
0.0
 40
0.0
 40
0.0812286442039786
 40
0.1625057679497496
 40
0.1625057679497496
 40
0.1625057679497496
 40
0.1625057679497496
 10
8.01357250789079
 20
21.0168239264865
 30
0.0
 10
8.01182989852541
 20
21.04404510028371
 30
0.0
 10
8.008343620257532
 20
21.09850369084888
 30
0.0
 10
7.987580314101328
 20
21.14896960615869
 30
0.0
 10
7.97719555440804
 20
21.1742100886833
 30
0.0
 11
8.01357250789079
 21
21.0168239264865
 31
0.0
 11
8.004027989773533
 21
21.09748987339346
 31
0.0
 11
7.97719555440804
 21
21.1742100886833
 31
0.0
  0
SPLINE
  5
360
330
1F
100
AcDbEntity
  8
1
  6
Continuous
 62
     3
100
AcDbSpline
210
0.0
220
0.0
230
1.0
 70
     8
 71
     3
 72
    75
 73
    71
 74
    69
 42
0.000000001
 43
0.0000000001
 44
0.00000001
 40
0.0
 40
0.0
 40
0.0
 40
0.0
 40
0.2006693620943621
 40
0.4012904459923222
 40
0.5420292563780276
 40
0.682798596406252
 40
0.8226229597851171
 40
0.962376277574097
 40
1.148727187354637
 40
1.335151526342746
 40
1.521479607750342
 40
1.707773959897222
 40
1.939132812186392
 40
2.170517697436795
 40
2.401777859146721
 40
2.633025935436878
 40
2.904098905775362
 40
3.175181204910452
 40
3.446231939263143
 40
3.717278332999995
 40
4.02105381112626
 40
4.324833049865418
 40
4.628590536821421
 40
4.93234611183298
 40
5.260375628911121
 40
5.588406987759532
 40
5.91642869014761
 40
6.244449330629738
 40
6.587389877291874
 40
6.93033151275846
 40
7.273268807702394
 40
7.616205312650037
 40
7.964173864202772
 40
8.312143221138232
 40
8.660112578059424
 40
9.008081129574808
 40
9.351017634466018
 40
9.693954929317174
 40
10.03689656465136
 40
10.37983711120622
 40
10.70785775162441
 40
11.03587945377593
 40
11.36391081217013
 40
11.6919403293355
 40
11.99569590506022
 40
12.29945339095494
 40
12.60323262637171
 40
12.9070081073183
 40
13.17805451017833
 40
13.44910523539705
 40
13.72018750281685
 40
13.99126050286528
 40
14.22250866374375
 40
14.45376874576563
 40
14.68515336069799
 40
14.9165124566484
 40
15.10280740817988
 40
15.28913496976516
 40
15.47555775141023
 40
15.66190977335631
 40
15.80166468493834
 40
15.9414885756973
 40
16.08226093401994
 40
16.22298905240581
 40
16.32226881397221
 40
16.42141669831946
 40
16.52318350110694
 40
16.62506793279844
 40
16.70633394997327
 40
16.78756615591177
 40
16.78756615591177
 40
16.78756615591177
 40
16.78756615591177
 10
7.97719555440804
 20
21.1742100886833
 30
0.0
 10
7.945283922026807
 20
21.23357030262336
 30
0.0
 10
7.881468346973833
 20
21.35227645683403
 30
0.0
 10
7.743551884611747
 20
21.47337302648243
 30
0.0
 10
7.612127309526073
 20
21.56545762071231
 30
0.0
 10
7.490803504002483
 20
21.63657855295473
 30
0.0
 10
7.367279322114737
 20
21.70270607486725
 30
0.0
 10
7.227492493611005
 20
21.77050765311419
 30
0.0
 10
7.070480999161137
 20
21.83800725916576
 30
0.0
 10
6.896401180259685
 20
21.90465410161885
 30
0.0
 10
6.720514324472678
 20
21.96628121688013
 30
0.0
 10
6.528792471713573
 20
22.02779686243152
 30
0.0
 10
6.321031817329919
 20
22.08824253805189
 30
0.0
 10
6.097361585978152
 20
22.14736337666197
 30
0.0
 10
5.87264127478442
 20
22.20218416111913
 30
0.0
 10
5.634059670337571
 20
22.25583543610344
 30
0.0
 10
5.381521288349937
 20
22.30773758876867
 30
0.0
 10
5.115087304366259
 20
22.35770878607215
 30
0.0
 10
4.84796108820889
 20
22.40377272141747
 30
0.0
 10
4.569455786859725
 20
22.44781486870676
 30
0.0
 10
4.279561060250002
 20
22.4895042267703
 30
0.0
 10
3.978325381606362
 20
22.52872771121701
 30
0.0
 10
3.676652095802565
 20
22.56436476000576
 30
0.0
 10
3.366551441118869
 20
22.59738878707736
 30
0.0
 10
3.048034697561716
 20
22.62759806079722
 30
0.0
 10
2.721141303817896
 20
22.65492619301721
 30
0.0
 10
2.393986408693498
 20
22.67887434920534
 30
0.0
 10
2.061645397779698
 20
22.69981227582939
 30
0.0
 10
1.724141407089451
 20
22.71762182310802
 30
0.0
 10
1.381509545851194
 20
22.73227793902714
 30
0.0
 10
1.038755293375667
 20
22.74367275465756
 30
0.0
 10
0.6942327708415154
 20
22.75184172087117
 30
0.0
 10
0.3479703861685908
 20
22.75672434724864
 30
0.0
 10
-0.0000000031773633
 20
22.75833584024193
 30
0.0
 10
-0.3479703925096904
 20
22.75672434699656
 30
0.0
 10
-0.6942327771431445
 20
22.75184172037921
 30
0.0
 10
-1.038755299609919
 20
22.74367275394886
 30
0.0
 10
-1.38150955198395
 20
22.73227793808526
 30
0.0
 10
-1.724141413098867
 20
22.71762182187427
 30
0.0
 10
-2.061645403677083
 20
22.69981227440947
 30
0.0
 10
-2.393986414459055
 20
22.67887434786007
 30
0.0
 10
-2.721141309316892
 20
22.65492619143706
 30
0.0
 10
-3.048034702765695
 20
22.62759805808693
 30
0.0
 10
-3.3665514464343
 20
22.59738878445031
 30
0.0
 10
-3.676652101370636
 20
22.56436476061292
 30
0.0
 10
-3.978325385880782
 20
22.52872771094649
 30
0.0
 10
-4.279561062413672
 20
22.48950421416076
 30
0.0
 10
-4.569455792115065
 20
22.44781485871245
 30
0.0
 10
-4.84796110074701
 20
22.40377275188795
 30
0.0
 10
-5.115087305222298
 20
22.35770880738392
 30
0.0
 10
-5.381521258404018
 20
22.30773746440953
 30
0.0
 10
-5.634059672143948
 20
22.25583534310983
 30
0.0
 10
-5.872641389842923
 20
22.20218452580711
 30
0.0
 10
-6.097361596357634
 20
22.14736363905395
 30
0.0
 10
-6.321031361261318
 20
22.08824118553148
 30
0.0
 10
-6.528792301972326
 20
22.02779587595443
 30
0.0
 10
-6.720515669923015
 20
21.96628493105696
 30
0.0
 10
-6.896402117927817
 20
21.90465680115565
 30
0.0
 10
-7.070474121437458
 20
21.83799336005445
 30
0.0
 10
-7.22749169735166
 20
21.77049943831696
 30
0.0
 10
-7.367286276143619
 20
21.7027361949345
 30
0.0
 10
-7.490855180967112
 20
21.63661194098839
 30
0.0
 10
-7.611914531388424
 20
21.56529105482664
 30
0.0
 10
-7.716335428801207
 20
21.49281108319849
 30
0.0
 10
-7.803068292070215
 20
21.42006534732921
 30
0.0
 10
-7.872608437276918
 20
21.34778487678474
 30
0.0
 10
-7.93207647925973
 20
21.26567136704487
 30
0.0
 10
-7.975838303046793
 20
21.1813275942415
 30
0.0
 10
-8.008004748054551
 20
21.09833331188351
 30
0.0
 10
-8.011716840601633
 20
21.0439899519484
 30
0.0
 10
-8.01357250791511
 20
21.0168239264865
 30
0.0
 11
7.97719555440804
 21
21.1742100886833
 31
0.0
 11
7.87188569771996
 21
21.34502585491351
 31
0.0
 11
7.726175449601105
 21
21.48292923802434
 31
0.0
 11
7.611054823874032
 21
21.56389005678624
 31
0.0
 11
7.490114031114148
 21
21.63592707255334
 31
0.0
 11
7.366827997073424
 21
21.70189226277764
 31
0.0
 11
7.241093528099783
 21
21.76289909082568
 31
0.0
 11
7.070036906440269
 21
21.83683347818466
 31
0.0
 11
6.896066894810603
 21
21.90382951612677
 31
0.0
 11
6.720241807854696
 21
21.96550359985851
 31
0.0
 11
6.542874982168777
 21
22.022482496643
 31
0.0
 11
6.320787504358779
 21
22.08732130114832
 31
0.0
 11
6.097140303608906
 21
22.14665842747659
 31
0.0
 11
5.872478446178649
 21
22.20150650908174
 31
0.0
 11
5.646873459881498
 21
22.25228113654369
 31
0.0
 11
5.381374515649344
 21
22.30696994393121
 31
0.0
 11
5.114960119610192
 21
22.3570596862252
 31
0.0
 11
4.847857197246608
 21
22.40315230228339
 31
0.0
 11
4.580142659662083
 21
22.44552061263279
 31
0.0
 11
4.279470978691887
 21
22.48883436473495
 31
0.0
 11
3.978244152382623
 21
22.52813098990468
 31
0.0
 11
3.676586592122307
 21
22.56378666224967
 31
0.0
 11
3.374541112493708
 21
22.59597326410756
 31
0.0
 11
3.047981325722651
 21
22.62699050855066
 31
0.0
 11
2.721094019467721
 21
22.6543631429707
 31
0.0
 11
2.393948366863163
 21
22.67832058318049
 31
0.0
 11
2.066577401675916
 21
22.69895529813697
 31
0.0
 11
1.724114691828373
 21
22.71705255251629
 31
0.0
 11
1.381487478710335
 21
22.73173444209344
 31
0.0
 11
1.038739519439954
 21
22.7431284932139
 31
0.0
 11
0.6958993612967675
 21
22.7512569690503
 31
0.0
 11
0.3479655693714886
 21
22.75617520411366
 31
0.0
 11
-0.000000000012164
 21
22.75779866597005
 31
0.0
 11
-0.3479655693944497
 21
22.75617520410945
 31
0.0
 11
-0.6958993613210925
 21
22.75125696905034
 31
0.0
 11
-1.038739519470971
 21
22.74312849322642
 31
0.0
 11
-1.381487478734662
 21
22.73173444209346
 31
0.0
 11
-1.724114691827324
 21
22.7170525524706
 31
0.0
 11
-2.066577401700257
 21
22.69895529813698
 31
0.0
 11
-2.393948366976755
 21
22.67832058334084
 31
0.0
 11
-2.721094019492031
 21
22.65436314297075
 31
0.0
 11
-3.04798132541563
 21
22.62699050795573
 31
0.0
 11
-3.374541112518063
 21
22.59597326410761
 31
0.0
 11
-3.676586593260321
 21
22.56378666424941
 31
0.0
 11
-3.978244152406936
 21
22.52813098990474
 31
0.0
 11
-4.279470974598969
 21
22.48883435734222
 31
0.0
 11
-4.580142659686413
 21
22.44552061263282
 31
0.0
 11
-4.847857210431668
 21
22.40315232591439
 31
0.0
 11
-5.114960119634517
 21
22.35705968622523
 31
0.0
 11
-5.381374467238343
 21
22.30696985696235
 31
0.0
 11
-5.646873459905807
 21
22.25228113654367
 31
0.0
 11
-5.872478591973811
 21
22.20150677082297
 31
0.0
 11
-6.097140303633266
 21
22.14665842747655
 31
0.0
 11
-6.320786970555694
 21
22.08732034262542
 31
0.0
 11
-6.542874982193133
 21
22.02248249664298
 31
0.0
 11
-6.720243295794698
 21
21.96550627151061
 31
0.0
 11
-6.896066894834885
 21
21.90382951612677
 31
0.0
 11
-7.070031496643129
 21
21.83682376448849
 31
0.0
 11
-7.241093528124136
 21
21.76289909082571
 31
0.0
 11
-7.366841728602102
 21
21.70191691861194
 31
0.0
 11
-7.49011403113849
 21
21.63592707255333
 31
0.0
 11
-7.611004906733296
 21
21.56380042717826
 31
0.0
 11
-7.726175449625425
 21
21.48292923802436
 31
0.0
 11
-7.801905819783681
 21
21.41873124725996
 31
0.0
 11
-7.870276759254705
 21
21.34692792197623
 31
0.0
 11
-7.929876840854872
 21
21.26443966625834
 31
0.0
 11
-7.97719555443239
 21
21.17421008868329
 31
0.0
 11
-8.003992566952828
 21
21.09748925978704
 31
0.0
 11
-8.01357250791511
 21
21.0168239264865
 31
0.0
  0
SPLINE
  5
361
330
1F
100
AcDbEntity
  8
1
  6
Continuous
 62
     3
100
AcDbSpline
210
0.0
220
0.0
230
1.0
 70
     8
 71
     3
 72
    63
 73
    59
 74
    57
 42
0.000000001
 43
0.0000000001
 44
0.00000001
 40
0.0
 40
0.0
 40
0.0
 40
0.0
 40
0.0336381829032678
 40
0.0672763647055867
 40
0.3101723528278143
 40
0.553070289031153
 40
0.7953077465891601
 40
1.03755039071578
 40
1.346424483484832
 40
1.655299936649929
 40
1.964277483595943
 40
2.273252413187451
 40
2.640315192241963
 40
3.00738046693779
 40
3.37440867470011
 40
3.741435778290371
 40
4.155647106045361
 40
4.569859495939839
 40
4.984071104130463
 40
5.398282133721198
 40
5.84731445645579
 40
6.29634731682899
 40
6.745376517923103
 40
7.194405415565079
 40
7.664772816438286
 40
8.135140524575315
 40
8.605507201940517
 40
9.075873656678239
 40
9.553428102077302
 40
10.03098277252318
 40
10.50853744296911
 40
10.98609188836823
 40
11.45645834310592
 40
11.9268250204711
 40
12.39719272860814
 40
12.86756012948136
 40
13.31658902712333
 40
13.76561822821743
 40
14.21465108859063
 40
14.66368341132521
 40
15.07789444091597
 40
15.49210604910661
 40
15.90631843900107
 40
16.32052976675606
 40
16.68755687034632
 40
17.05458507810864
 40
17.42165035280443
 40
17.78871313185892
 40
18.09768806145047
 40
18.40666560839652
 40
18.71554106156159
 40
19.02441515433062
 40
19.26665779845726
 40
19.5088952560153
 40
19.75179319221863
 40
19.99468918034083
 40
20.02832736214315
 40
20.06196554504639
 40
20.06196554504639
 40
20.06196554504639
 40
20.06196554504639
 10
-10.0000000000122
 20
32.6141629562844
 30
0.0
 10
-9.9890229522218
 20
32.61187605296956
 30
0.0
 10
-9.967068859912265
 20
32.60730223239559
 30
0.0
 10
-9.865776521512329
 20
32.58657720676668
 30
0.0
 10
-9.695814447115527
 20
32.55348328967614
 30
0.0
 10
-9.45677775873362
 20
32.51151835569075
 30
0.0
 10
-9.217178823552995
 20
32.4742965675222
 30
0.0
 10
-8.955249351682657
 20
32.43780711263873
 30
0.0
 10
-8.670816707404267
 20
32.40203947742813
 30
0.0
 10
-8.363900333053307
 20
32.36697248440584
 30
0.0
 10
-8.056690226628197
 20
32.33427362631492
 30
0.0
 10
-7.729936554607217
 20
32.30202026120905
 30
0.0
 10
-7.383641763541796
 20
32.27073259476328
 30
0.0
 10
-7.017827260074819
 20
32.24057847693362
 30
0.0
 10
-6.651830629205567
 20
32.21288641069992
 30
0.0
 10
-6.269988701393038
 20
32.18642197405132
 30
0.0
 10
-5.872290350632454
 20
32.16137420501032
 30
0.0
 10
-5.45874799596286
 20
32.13779795639884
 30
0.0
 10
-5.045088560370449
 20
32.11638146933787
 30
0.0
 10
-4.619732108839342
 20
32.09651625580729
 30
0.0
 10
-4.182682602183081
 20
32.07833866597733
 30
0.0
 10
-3.73395085071213
 20
32.06189034407791
 30
0.0
 10
-3.285150169574364
 20
32.04748451137375
 30
0.0
 10
-2.829180816255896
 20
32.03488768557521
 30
0.0
 10
-2.366048485698039
 20
32.02417337307247
 30
0.0
 10
-1.895762472438858
 20
32.01535543242318
 30
0.0
 10
-1.425444143214258
 20
32.00849935895582
 30
0.0
 10
-0.9527057934376439
 20
32.00358339705853
 30
0.0
 10
-0.4775549389056095
 20
32.00064594499911
 30
0.0
 10
-0.0000000000121832
 20
31.99967701244289
 30
0.0
 10
0.4775549388812635
 20
32.00064594499912
 30
0.0
 10
0.9527057934133281
 20
32.00358339705853
 30
0.0
 10
1.425444143189946
 20
32.00849935895582
 30
0.0
 10
1.895762472414531
 20
32.01535543242318
 30
0.0
 10
2.366048485673713
 20
32.02417337307249
 30
0.0
 10
2.829180816231572
 20
32.0348876855752
 30
0.0
 10
3.285150169550041
 20
32.04748451137375
 30
0.0
 10
3.733950850687799
 20
32.06189034407794
 30
0.0
 10
4.182682602158738
 20
32.07833866597736
 30
0.0
 10
4.619732108815001
 20
32.09651625580736
 30
0.0
 10
5.045088560346123
 20
32.11638146933791
 30
0.0
 10
5.458747995938543
 20
32.13779795639886
 30
0.0
 10
5.87229035060814
 20
32.1613742050103
 30
0.0
 10
6.269988701368714
 20
32.18642197405133
 30
0.0
 10
6.651830629181242
 20
32.21288641069992
 30
0.0
 10
7.017827260050484
 20
32.24057847693363
 30
0.0
 10
7.383641763517439
 20
32.27073259476327
 30
0.0
 10
7.729936554582856
 20
32.30202026120904
 30
0.0
 10
8.056690226603846
 20
32.33427362631495
 30
0.0
 10
8.363900333028974
 20
32.36697248440584
 30
0.0
 10
8.670816707379926
 20
32.40203947742812
 30
0.0
 10
8.955249351658315
 20
32.43780711263874
 30
0.0
 10
9.21717882352866
 20
32.4742965675222
 30
0.0
 10
9.4567777587093
 20
32.51151835569077
 30
0.0
 10
9.695814447091198
 20
32.5534832896762
 30
0.0
 10
9.865776521487994
 20
32.58657720676675
 30
0.0
 10
9.967068859887917
 20
32.60730223239558
 30
0.0
 10
9.98902295219745
 20
32.61187605296958
 30
0.0
 10
9.99999999998784
 20
32.6141629562844
 30
0.0
 11
-10.0000000000122
 21
32.6141629562844
 31
0.0
 11
-9.967064805855255
 21
32.60732188318335
 31
0.0
 11
-9.93411078817309
 21
32.60057206642532
 31
0.0
 11
-9.69567839868165
 21
32.55422061883959
 31
0.0
 11
-9.456431029220226
 21
32.51226703040729
 31
0.0
 11
-9.21708924659673
 21
32.47492406724029
 31
0.0
 11
-8.977185828580964
 21
32.44134060966823
 31
0.0
 11
-8.670748510599546
 21
32.4026188421434
 31
0.0
 11
-8.36389077059604
 21
32.36737153130847
 31
0.0
 11
-8.056649118849531
 21
32.33466538652935
 31
0.0
 11
-7.749168892401688
 21
32.3043105282738
 31
0.0
 11
-7.383601442992875
 21
32.27121183273779
 31
0.0
 11
-7.017782611305566
 21
32.24098769968083
 31
0.0
 11
-6.651802352428464
 21
32.21327208393551
 31
0.0
 11
-6.285655303241902
 21
32.18787064511464
 31
0.0
 11
-5.872266231517608
 21
32.16178426244773
 31
0.0
 11
-5.458728204922073
 21
32.13815791181005
 31
0.0
 11
-5.045071206845882
 21
32.11673026035583
 31
0.0
 11
-4.631311688530063
 21
32.09739537004661
 31
0.0
 11
-4.182668420407153
 21
32.07870727849933
 31
0.0
 11
-3.733937952673164
 21
32.06223072059118
 31
0.0
 11
-3.285140093394873
 21
32.04781875050816
 31
0.0
 11
-2.836282623986775
 21
32.03541217910065
 31
0.0
 11
-2.36604142645262
 21
32.02451686448188
 31
0.0
 11
-1.895756690070953
 21
32.01568241374398
 31
0.0
 11
-1.42543997481386
 21
32.0088268713785
 31
0.0
 11
-0.9550989448201155
 21
32.00393635166899
 31
0.0
 11
-0.4775536719969219
 21
32.00097651063606
 31
0.0
 11
-0.000000000012203
 21
32.00000000001237
 31
0.0
 11
0.4775536719725769
 21
32.00097651063606
 31
0.0
 11
0.9550989447958282
 21
32.00393635166899
 31
0.0
 11
1.425439974789546
 21
32.0088268713785
 31
0.0
 11
1.895756690046614
 21
32.01568241374398
 31
0.0
 11
2.366041426428291
 21
32.02451686448188
 31
0.0
 11
2.836282623962461
 21
32.03541217910065
 31
0.0
 11
3.285140093370549
 21
32.04781875050816
 31
0.0
 11
3.73393795264883
 21
32.0622307205912
 31
0.0
 11
4.182668420382812
 21
32.07870727849937
 31
0.0
 11
4.631311688505712
 21
32.09739537004667
 31
0.0
 11
5.045071206821556
 21
32.11673026035588
 31
0.0
 11
5.45872820489777
 21
32.13815791181008
 31
0.0
 11
5.87226623149329
 21
32.16178426244773
 31
0.0
 11
6.285655303217574
 21
32.18787064511464
 31
0.0
 11
6.651802352404139
 21
32.21327208393551
 31
0.0
 11
7.017782611281241
 21
32.24098769968084
 31
0.0
 11
7.383601442968517
 21
32.27121183273778
 31
0.0
 11
7.749168892377299
 21
32.30431052827379
 31
0.0
 11
8.056649118825185
 21
32.33466538652937
 31
0.0
 11
8.363890770571725
 21
32.36737153130848
 31
0.0
 11
8.670748510575207
 21
32.4026188421434
 31
0.0
 11
8.977185828556609
 21
32.44134060966823
 31
0.0
 11
9.217089246572392
 21
32.47492406724029
 31
0.0
 11
9.456431029195915
 21
32.51226703040731
 31
0.0
 11
9.69567839865733
 21
32.55422061883964
 31
0.0
 11
9.934110788148748
 21
32.60057206642534
 31
0.0
 11
9.967064805830915
 21
32.60732188318335
 31
0.0
 11
9.99999999998784
 21
32.6141629562844
 31
0.0
  0
ARC
  5
362
330
1F
100
AcDbEntity
  8
1
  6
Continuous
 62
     3
100
AcDbCircle
 10
7.19999999998782
 20
39.1000000000124
 30
0.0
 40
0.5000000000000009
100
AcDbArc
 50
0.0
 51
90.0
  0
ARC
  5
363
330
1F
100
AcDbEntity
  8
1
  6
Continuous
 62
     3
100
AcDbCircle
 10
7.19999999998782
 20
38.1000000000124
 30
0.0
 40
0.5
100
AcDbArc
 50
270.0000000000005
 51
0.0
  0
ARC
  5
364
330
1F
100
AcDbEntity
  8
1
  6
Continuous
 62
     3
100
AcDbCircle
 10
-7.20000000001218
 20
39.1000000000124
 30
0.0
 40
0.5
100
AcDbArc
 50
90.0
 51
180.0
  0
ARC
  5
365
330
1F
100
AcDbEntity
  8
1
  6
Continuous
 62
     3
100
AcDbCircle
 10
-7.20000000001218
 20
38.1000000000124
 30
0.0
 40
0.5
100
AcDbArc
 50
180.0
 51
270.0
  0
ARC
  5
366
330
1F
100
AcDbEntity
  8
1
  6
Continuous
 62
     3
100
AcDbCircle
 10
-72.3000000000122
 20
39.1000000000124
 30
0.0
 40
0.5
100
AcDbArc
 50
0.0
 51
90.0
  0
ARC
  5
367
330
1F
100
AcDbEntity
  8
1
  6
Continuous
 62
     3
100
AcDbCircle
 10
-86.7000000000122
 20
39.1000000000124
 30
0.0
 40
0.5
100
AcDbArc
 50
90.0
 51
180.0
  0
ARC
  5
368
330
1F
100
AcDbEntity
  8
1
  6
Continuous
 62
     3
100
AcDbCircle
 10
-86.7000000000122
 20
38.1000000000124
 30
0.0
 40
0.5
100
AcDbArc
 50
180.0
 51
270.0
  0
ARC
  5
369
330
1F
100
AcDbEntity
  8
1
  6
Continuous
 62
     3
100
AcDbCircle
 10
-72.3000000000122
 20
38.1000000000124
 30
0.0
 40
0.5
100
AcDbArc
 50
270.0
 51
0.0
  0
HATCH
  5
36A
330
1F
100
AcDbEntity
  8
1
  6
Continuous
 62
     4
100
AcDbHatch
 10
0.0
 20
0.0
 30
0.0
210
0.0
220
0.0
230
1.0
  2
_USER
 70
     0
 71
     1
 91
        1
 92
        1
 93
       14
 72
     1
 10
36.5999999999879
 20
95.5000000000124
 11
36.5999999999879
 21
92.9000000000124
 72
     2
 10
34.5999999999879
 20
92.9000000000124
 40
2.0
 50
0.0
 51
90.0
 73
     0
 72
     1
 10
34.5999999999879
 20
90.9000000000124
 11
32.9999999999878
 21
90.9000000000124
 72
     1
 10
32.9999999999878
 20
90.9000000000124
 11
32.9999999999878
 21
90.0000000000124
 72
     1
 10
32.9999999999878
 20
90.0000000000124
 11
29.9999999999878
 21
91.4000000000124
 72
     1
 10
29.9999999999878
 20
91.4000000000124
 11
32.9999999999878
 21
92.8000000000124
 72
     1
 10
32.9999999999878
 20
92.8000000000124
 11
32.9999999999878
 21
91.9000000000124
 72
     1
 10
32.9999999999878
 20
91.9000000000124
 11
34.3999999999878
 21
91.9000000000124
 72
     2
 10
34.3999999999878
 20
93.1000000000124
 40
1.200000000000003
 50
270.0
 51
360.0
 73
     1
 72
     1
 10
35.5999999999879
 20
93.1000000000124
 11
35.5999999999879
 21
95.5000000000124
 72
     1
 10
35.5999999999879
 20
95.5000000000124
 11
34.6999999999879
 21
95.5000000000124
 72
     1
 10
34.6999999999879
 20
95.5000000000124
 11
36.0999999999879
 21
98.5000000000124
 72
     1
 10
36.0999999999879
 20
98.5000000000124
 11
37.4999999999878
 21
95.5000000000124
 72
     1
 10
37.4999999999878
 20
95.5000000000124
 11
36.5999999999879
 21
95.5000000000124
 97
       14
330
1B9
330
1B8
330
1B6
330
1B5
330
2DC
330
1BA
330
1BC
330
1BE
330
1BD
330
1BB
330
1B3
330
2DB
330
1B4
330
1B7
 75
     1
 76
     0
 52
90.00000000000001
 41
0.1
 77
     0
 78
     1
 53
90.00000000000001
 43
0.0
 44
0.0
 45
-0.1
 46
0.0
 79
     0
 98
        1
 10
0.0
 20
0.0
  0
HATCH
  5
36B
330
1F
100
AcDbEntity
  8
1
  6
Continuous
 62
     4
100
AcDbHatch
 10
0.0
 20
0.0
 30
0.0
210
0.0
220
0.0
230
1.0
  2
_USER
 70
     0
 71
     1
 91
        1
 92
        1
 93
        4
 72
     1
 10
65.7368348631994
 20
94.0000000000124
 11
64.8826183844795
 21
94.0000000000124
 72
     1
 10
64.8826183844795
 20
94.0000000000124
 11
64.8826183844794
 21
95.5942909819004
 72
     1
 10
64.8826183844794
 20
95.5942909819004
 11
65.7368348631994
 21
95.5942909819004
 72
     1
 10
65.7368348631994
 20
95.5942909819004
 11
65.7368348631994
 21
94.0000000000124
 97
        4
330
1EF
330
1F1
330
197
330
1F0
 75
     1
 76
     0
 52
90.00000000000001
 41
0.1
 77
     0
 78
     1
 53
90.00000000000001
 43
0.0
 44
0.0
 45
-0.1
 46
0.0
 79
     0
 98
        1
 10
0.0
 20
0.0
  0
HATCH
  5
36C
330
1F
100
AcDbEntity
  8
1
  6
Continuous
 62
     4
100
AcDbHatch
 10
0.0
 20
0.0
 30
0.0
210
0.0
220
0.0
230
1.0
  2
_USER
 70
     0
 71
     1
 91
        1
 92
        1
 93
       15
 72
     1
 10
59.6454524140474
 20
94.0000000000124
 11
58.7912359353275
 21
94.0000000000124
 72
     1
 10
58.7912359353275
 20
94.0000000000124
 11
58.7912359353275
 21
95.6965846374523
 72
     1
 10
58.7912359353275
 20
95.6965846374523
 11
58.5634292347148
 21
95.6965846374523
 72
     1
 10
58.5634292347148
 20
95.6965846374523
 11
57.9784000493905
 21
94.0000000000124
 72
     1
 10
57.9784000493905
 20
94.0000000000124
 11
56.9254683595467
 21
94.0000000000124
 72
     1
 10
56.9254683595467
 20
94.0000000000124
 11
56.2819362556901
 21
95.6965846374523
 72
     1
 10
56.2819362556901
 20
95.6965846374523
 11
56.0589375140795
 21
95.6965846374523
 72
     1
 10
56.0589375140795
 20
95.6965846374523
 11
56.0589375140795
 21
94.0000000000124
 72
     1
 10
56.0589375140795
 20
94.0000000000124
 11
55.5462938829754
 21
94.0000000000124
 72
     1
 10
55.5462938829754
 20
94.0000000000124
 11
55.5462938829754
 21
95.9927926374524
 72
     1
 10
55.5462938829754
 20
95.9927926374524
 11
57.0643777625563
 21
95.9927926374524
 72
     1
 10
57.0643777625563
 20
95.9927926374524
 11
57.5958731485114
 21
94.2920074023956
 72
     1
 10
57.5958731485114
 20
94.2920074023956
 11
58.1273685344667
 21
95.9927926374524
 72
     1
 10
58.1273685344667
 20
95.9927926374524
 11
59.6454524140474
 21
95.9927926374524
 72
     1
 10
59.6454524140474
 20
95.9927926374524
 11
59.6454524140474
 21
94.0000000000124
 97
       15
330
1E1
330
1E0
330
1DF
330
1DE
330
1E5
330
19A
330
1E4
330
1F2
330
1F5
330
19B
330
1E3
330
1F3
330
1F4
330
19C
330
1E2
 75
     1
 76
     0
 52
90.00000000000001
 41
0.1
 77
     0
 78
     1
 53
90.00000000000001
 43
0.0
 44
0.0
 45
-0.1
 46
0.0
 79
     0
 98
        1
 10
0.0
 20
0.0
  0
HATCH
  5
36D
330
1F
100
AcDbEntity
  8
1
  6
Continuous
 62
     4
100
AcDbHatch
 10
0.0
 20
0.0
 30
0.0
210
0.0
220
0.0
230
1.0
  2
_USER
 70
     0
 71
     1
 91
        1
 92
        1
 93
       12
 72
     1
 10
47.9181179792314
 20
95.1388605184124
 11
49.4549114338235
 21
95.1388605184124
 72
     1
 10
49.4549114338235
 20
95.1388605184124
 11
49.4549114338235
 21
95.9927926374524
 72
     1
 10
49.4549114338235
 20
95.9927926374524
 11
50.3091279125435
 21
95.9927926374524
 72
     1
 10
50.3091279125435
 20
95.9927926374524
 11
50.3091279125435
 21
94.0000000000124
 72
     1
 10
50.3091279125435
 20
94.0000000000124
 11
49.4549114338235
 21
94.0000000000124
 72
     1
 10
49.4549114338235
 20
94.0000000000124
 11
49.4549114338235
 21
94.8539321190524
 72
     1
 10
49.4549114338235
 20
94.8539321190524
 11
47.9181179792314
 21
94.8539321190524
 72
     1
 10
47.9181179792314
 20
94.8539321190524
 11
47.9181179792314
 21
94.0000000000124
 72
     1
 10
47.9181179792314
 20
94.0000000000124
 11
47.0639015005114
 21
94.0000000000124
 72
     1
 10
47.0639015005114
 20
94.0000000000124
 11
47.0639015005114
 21
95.9927926374524
 72
     1
 10
47.0639015005114
 20
95.9927926374524
 11
47.9181179792314
 21
95.9927926374524
 72
     1
 10
47.9181179792314
 20
95.9927926374524
 11
47.9181179792314
 21
95.1388605184124
 97
       12
330
1CB
330
1D4
330
19F
330
1D3
330
1D2
330
1D1
330
1A0
330
1D0
330
1CF
330
1CE
330
1CD
330
1CC
 75
     1
 76
     0
 52
90.00000000000001
 41
0.1
 77
     0
 78
     1
 53
90.00000000000001
 43
0.0
 44
0.0
 45
-0.1
 46
0.0
 79
     0
 98
        1
 10
0.0
 20
0.0
  0
HATCH
  5
36E
330
1F
100
AcDbEntity
  8
1
  6
Continuous
 62
     4
100
AcDbHatch
 10
0.0
 20
0.0
 30
0.0
210
0.0
220
0.0
230
1.0
  2
_USER
 70
     0
 71
     1
 91
        1
 92
        1
 93
        4
 72
     1
 10
40.4999999999878
 20
95.9875000000124
 11
38.9999999999878
 21
95.9875000000124
 72
     1
 10
38.9999999999878
 20
95.9875000000124
 11
38.9999999999878
 21
92.0125000000124
 72
     1
 10
38.9999999999878
 20
92.0125000000124
 11
40.4999999999878
 21
92.0125000000124
 72
     1
 10
40.4999999999878
 20
92.0125000000124
 11
40.4999999999878
 21
95.9875000000124
 97
        4
330
1C1
330
1C2
330
1BF
330
1C0
 75
     1
 76
     0
 52
90.00000000000001
 41
0.1
 77
     0
 78
     1
 53
90.00000000000001
 43
0.0
 44
0.0
 45
-0.1
 46
0.0
 79
     0
 98
        1
 10
0.0
 20
0.0
  0
HATCH
  5
36F
330
1F
100
AcDbEntity
  8
1
  6
Continuous
 62
     4
100
AcDbHatch
 10
0.0
 20
0.0
 30
0.0
210
0.0
220
0.0
230
1.0
  2
_USER
 70
     0
 71
     1
 91
        1
 92
        1
 93
        4
 72
     1
 10
42.7499999999878
 20
95.9875000000124
 11
41.2499999999878
 21
95.9875000000124
 72
     1
 10
41.2499999999878
 20
95.9875000000124
 11
41.2499999999878
 21
92.0125000000124
 72
     1
 10
41.2499999999878
 20
92.0125000000124
 11
42.7499999999878
 21
92.0125000000124
 72
     1
 10
42.7499999999878
 20
92.0125000000124
 11
42.7499999999878
 21
95.9875000000124
 97
        4
330
1C5
330
1C6
330
1C3
330
1C4
 75
     1
 76
     0
 52
90.00000000000001
 41
0.1
 77
     0
 78
     1
 53
90.00000000000001
 43
0.0
 44
0.0
 45
-0.1
 46
0.0
 79
     0
 98
        1
 10
0.0
 20
0.0
  0
HATCH
  5
370
330
1F
100
AcDbEntity
  8
1
  6
Continuous
 62
     4
100
AcDbHatch
 10
0.0
 20
0.0
 30
0.0
210
0.0
220
0.0
230
1.0
  2
_USER
 70
     0
 71
     1
 91
        1
 92
        1
 93
        4
 72
     1
 10
44.9999999999878
 20
95.9875000000124
 11
43.4999999999878
 21
95.9875000000124
 72
     1
 10
43.4999999999878
 20
95.9875000000124
 11
43.4999999999878
 21
92.0125000000124
 72
     1
 10
43.4999999999878
 20
92.0125000000124
 11
44.9999999999878
 21
92.0125000000124
 72
     1
 10
44.9999999999878
 20
92.0125000000124
 11
44.9999999999878
 21
95.9875000000124
 97
        4
330
1C9
330
1CA
330
1C7
330
1C8
 75
     1
 76
     0
 52
90.00000000000001
 41
0.1
 77
     0
 78
     1
 53
90.00000000000001
 43
0.0
 44
0.0
 45
-0.1
 46
0.0
 79
     0
 98
        1
 10
0.0
 20
0.0
  0
HATCH
  5
371
330
1F
100
AcDbEntity
  8
1
  6
Continuous
 62
     4
100
AcDbHatch
 10
0.0
 20
0.0
 30
0.0
210
0.0
220
0.0
230
1.0
  2
_USER
 70
     0
 71
     1
 91
        2
 92
        1
 93
        8
 72
     1
 10
54.8114245298681
 20
94.0000000000124
 11
53.7767506623867
 21
94.0000000000124
 72
     1
 10
53.7767506623867
 20
94.0000000000124
 11
53.503492384294
 21
94.4554304635004
 72
     1
 10
53.503492384294
 20
94.4554304635004
 11
51.9795411214058
 21
94.4554304635004
 72
     1
 10
51.9795411214058
 20
94.4554304635004
 11
51.6835113201386
 21
94.0000000000124
 72
     1
 10
51.6835113201386
 20
94.0000000000124
 11
51.1118022150282
 21
94.0000000000124
 72
     1
 10
51.1118022150282
 20
94.0000000000124
 11
52.4071174293642
 21
95.9927926374524
 72
     1
 10
52.4071174293642
 20
95.9927926374524
 11
53.6157489474041
 21
95.9927926374524
 72
     1
 10
53.6157489474041
 20
95.9927926374524
 11
54.8114245298681
 21
94.0000000000124
 97
        8
330
1D5
330
1DA
330
19D
330
1D9
330
1D8
330
1D7
330
19E
330
1D6
 92
       16
 93
        3
 72
     1
 10
52.1277408558315
 20
94.6834300549244
 11
52.7719957781077
 21
95.6745914738109
 72
     1
 10
52.7719957781077
 20
95.6745914738109
 11
53.3666926294396
 21
94.6834300549244
 72
     1
 10
53.3666926294396
 20
94.6834300549244
 11
52.1277408558315
 21
94.6834300549244
 97
        3
330
1DD
330
1DB
330
1DC
 75
     1
 76
     0
 52
90.00000000000001
 41
0.1
 77
     0
 78
     1
 53
90.00000000000001
 43
0.0
 44
0.0
 45
-0.1
 46
0.0
 79
     0
 98
        1
 10
0.0
 20
0.0
  0
HATCH
  5
372
330
1F
100
AcDbEntity
  8
1
  6
Continuous
 62
     4
100
AcDbHatch
 10
0.0
 20
0.0
 30
0.0
210
0.0
220
0.0
230
1.0
  2
_USER
 70
     0
 71
     1
 91
        2
 92
        1
 93
        8
 72
     1
 10
63.1130751638909
 20
94.0000000000124
 11
62.839816885798
 21
94.4554304635004
 72
     1
 10
62.839816885798
 20
94.4554304635004
 11
61.3158656229099
 21
94.4554304635004
 72
     1
 10
61.3158656229099
 20
94.4554304635004
 11
61.0198358216426
 21
94.0000000000124
 72
     1
 10
61.0198358216426
 20
94.0000000000124
 11
60.4481267165323
 21
94.0000000000124
 72
     1
 10
60.4481267165323
 20
94.0000000000124
 11
61.7434419308683
 21
95.9927926374524
 72
     1
 10
61.7434419308683
 20
95.9927926374524
 11
62.952073448908
 21
95.9927926374524
 72
     1
 10
62.952073448908
 20
95.9927926374524
 11
64.147749031372
 21
94.0000000000124
 72
     1
 10
64.147749031372
 20
94.0000000000124
 11
63.1130751638909
 21
94.0000000000124
 97
        8
330
1E8
330
1E7
330
1E6
330
198
330
1EB
330
1EA
330
1E9
330
199
 92
       16
 93
        3
 72
     1
 10
62.7030171309437
 20
94.6834300549244
 11
61.4640653573354
 21
94.6834300549244
 72
     1
 10
61.4640653573354
 20
94.6834300549244
 11
62.1083202796119
 21
95.6745914738109
 72
     1
 10
62.1083202796119
 20
95.6745914738109
 11
62.7030171309437
 21
94.6834300549244
 97
        3
330
1EE
330
1EC
330
1ED
 75
     1
 76
     0
 52
90.00000000000001
 41
0.1
 77
     0
 78
     1
 53
90.00000000000001
 43
0.0
 44
0.0
 45
-0.1
 46
0.0
 79
     0
 98
        1
 10
0.0
 20
0.0
  0
HATCH
  5
373
330
1F
100
AcDbEntity
  8
1
  6
Continuous
 62
     4
100
AcDbHatch
 10
0.0
 20
0.0
 30
0.0
210
0.0
220
0.0
230
1.0
  2
_USER
 70
     0
 71
     1
 91
        1
 92
        1
 93
        1
 72
     2
 10
65.3097266238395
 20
96.8465825766524
 40
0.6263590671360078
 50
0.0
 51
360.0
 73
     1
 97
        1
330
35D
 75
     1
 76
     0
 52
90.00000000000001
 41
0.1
 77
     0
 78
     1
 53
90.00000000000001
 43
0.0
 44
0.0
 45
-0.1
 46
0.0
 79
     0
 98
        1
 10
0.0
 20
0.0
  0
ENDSEC
  0
SECTION
  2
OBJECTS
  0
DICTIONARY
  5
C
330
0
100
AcDbDictionary
281
     1
  3
ACAD_GROUP
350
D
  3
ACAD_LAYOUT
350
1A
  3
ACAD_MATERIAL
350
43
  3
ACAD_MLEADERSTYLE
350
376
  3
ACAD_MLINESTYLE
350
17
  3
ACAD_PLOTSETTINGS
350
19
  3
ACAD_PLOTSTYLENAME
350
E
  3
ACAD_SCALELIST
350
47
  3
ACAD_VISUALSTYLE
350
2A
  3
AcDbVariableDictionary
350
374
  0
DICTIONARY
  5
D
102
{ACAD_REACTORS
330
C
102
}
330
C
100
AcDbDictionary
281
     1
  0
DICTIONARY
  5
1A
102
{ACAD_REACTORS
330
C
102
}
330
C
100
AcDbDictionary
281
     1
  3
Layout1
350
1E
  3
Layout2
350
26
  3
Model
350
22
  0
DICTIONARY
  5
43
102
{ACAD_REACTORS
330
C
102
}
330
C
100
AcDbDictionary
281
     1
  3
ByBlock
350
45
  3
ByLayer
350
44
  3
Global
350
46
  0
DICTIONARY
  5
376
102
{ACAD_REACTORS
330
C
102
}
330
C
100
AcDbDictionary
281
     1
  0
DICTIONARY
  5
17
102
{ACAD_REACTORS
330
C
102
}
330
C
100
AcDbDictionary
281
     1
  3
Standard
350
18
  0
DICTIONARY
  5
19
102
{ACAD_REACTORS
330
C
102
}
330
C
100
AcDbDictionary
281
     1
  0
ACDBDICTIONARYWDFLT
  5
E
102
{ACAD_REACTORS
330
C
102
}
330
C
100
AcDbDictionary
281
     1
  3
Normal
350
F
100
AcDbDictionaryWithDefault
340
F
  0
DICTIONARY
  5
47
102
{ACAD_REACTORS
330
C
102
}
330
C
100
AcDbDictionary
281
     1
  3
A0
350
48
  3
A1
350
49
  3
A2
350
4A
  3
A3
350
4B
  3
A4
350
4C
  3
A5
350
4D
  3
A6
350
4E
  3
A7
350
4F
  3
A8
350
50
  3
A9
350
51
  3
B0
350
52
  3
B1
350
53
  3
B2
350
54
  3
B3
350
55
  3
B4
350
56
  3
B5
350
57
  3
B6
350
58
  3
B7
350
59
  3
B8
350
5A
  3
B9
350
5B
  3
C0
350
5C
  3
C1
350
5D
  3
C2
350
5E
  3
C3
350
5F
  3
C4
350
60
  3
C5
350
61
  3
C6
350
62
  3
C7
350
63
  3
C8
350
64
  3
C9
350
65
  3
D0
350
66
  3
D1
350
67
  3
D2
350
68
  0
DICTIONARY
  5
2A
102
{ACAD_REACTORS
330
C
102
}
330
C
100
AcDbDictionary
281
     1
  3
2dWireframe
350
2F
  3
Basic
350
32
  3
Brighten
350
36
  3
ColorChange
350
3A
  3
Conceptual
350
34
  3
Dim
350
35
  3
EdgeColorOff
350
3D
  3
Facepattern
350
39
  3
Flat
350
2B
  3
FlatWithEdges
350
2C
  3
Gouraud
350
2D
  3
GouraudWithEdges
350
2E
  3
Hidden
350
31
  3
JitterOff
350
3B
  3
Linepattern
350
38
  3
OverhangOff
350
3C
  3
Realistic
350
33
  3
Shaded
350
42
  3
Shaded with edges
350
41
  3
Shades of Gray
350
3E
  3
Sketchy
350
3F
  3
Thicken
350
37
  3
Wireframe
350
30
  3
X-Ray
350
40
  0
DICTIONARY
  5
374
102
{ACAD_REACTORS
330
C
102
}
330
C
100
AcDbDictionary
281
     1
  3
CANNOSCALE
350
37B
  3
DIMASSOC
350
379
  3
HIDETEXT
350
37A
  3
MSLTSCALE
350
37C
  0
LAYOUT
  5
1E
102
{ACAD_REACTORS
330
1A
102
}
330
1A
100
AcDbPlotSettings
  1

  2
none_device
  4

  6

 40
0.0
 41
0.0
 42
0.0
 43
0.0
 44
0.0
 45
0.0
 46
0.0
 47
0.0
 48
0.0
 49
0.0
140
0.0
141
0.0
142
1.0
143
1.0
 70
   688
 72
     0
 73
     0
 74
     5
  7

 75
    16
147
1.0
148
0.0
149
0.0
100
AcDbLayout
  1
Layout1
 70
     1
 71
     1
 10
0.0
 20
0.0
 11
12.0
 21
9.0
 12
0.0
 22
0.0
 32
0.0
 14
1.00000000000000E+20
 24
1.00000000000000E+20
 34
1.00000000000000E+20
 15
-1.00000000000000E+20
 25
-1.00000000000000E+20
 35
-1.00000000000000E+20
146
0.0
 13
0.0
 23
0.0
 33
0.0
 16
1.0
 26
0.0
 36
0.0
 17
0.0
 27
1.0
 37
0.0
 76
     0
330
1B
  0
LAYOUT
  5
26
102
{ACAD_REACTORS
330
1A
102
}
330
1A
100
AcDbPlotSettings
  1

  2
none_device
  4

  6

 40
0.0
 41
0.0
 42
0.0
 43
0.0
 44
0.0
 45
0.0
 46
0.0
 47
0.0
 48
0.0
 49
0.0
140
0.0
141
0.0
142
1.0
143
1.0
 70
   688
 72
     0
 73
     0
 74
     5
  7

 75
    16
147
1.0
148
0.0
149
0.0
100
AcDbLayout
  1
Layout2
 70
     1
 71
     2
 10
0.0
 20
0.0
 11
0.0
 21
0.0
 12
0.0
 22
0.0
 32
0.0
 14
0.0
 24
0.0
 34
0.0
 15
0.0
 25
0.0
 35
0.0
146
0.0
 13
0.0
 23
0.0
 33
0.0
 16
1.0
 26
0.0
 36
0.0
 17
0.0
 27
1.0
 37
0.0
 76
     0
330
23
  0
LAYOUT
  5
22
102
{ACAD_REACTORS
330
1A
102
}
330
1A
100
AcDbPlotSettings
  1

  2
none_device
  4
Letter_(8.50_x_11.00_Inches)
  6

 40
6.35
 41
6.35
 42
6.35000508
 43
6.35000508
 44
215.9
 45
279.4
 46
0.0
 47
0.0
 48
0.0
 49
0.0
140
0.0
141
0.0
142
1.0
143
1.0
 70
  1712
 72
     0
 73
     0
 74
     0
  7

 75
     0
147
1.0
148
0.0
149
0.0
100
AcDbLayout
  1
Model
 70
     1
 71
     0
 10
0.0
 20
0.0
 11
12.0
 21
9.0
 12
0.0
 22
0.0
 32
0.0
 14
-127.000000000012
 24
-39.2654620608523
 34
0.0
 15
81.1545475859283
 25
140.74302255828
 35
0.0
146
0.0
 13
0.0
 23
0.0
 33
0.0
 16
1.0
 26
0.0
 36
0.0
 17
0.0
 27
1.0
 37
0.0
 76
     0
330
1F
331
29
  0
MATERIAL
  5
45
102
{ACAD_REACTORS
330
43
102
}
102
{ACAD_XDICTIONARY
360
3AF
102
}
330
43
100
AcDbMaterial
  1
ByBlock
  0
MATERIAL
  5
44
102
{ACAD_REACTORS
330
43
102
}
102
{ACAD_XDICTIONARY
360
3AD
102
}
330
43
100
AcDbMaterial
  1
ByLayer
  0
MATERIAL
  5
46
102
{ACAD_REACTORS
330
43
102
}
102
{ACAD_XDICTIONARY
360
3B1
102
}
330
43
100
AcDbMaterial
  1
Global
  0
MLINESTYLE
  5
18
102
{ACAD_REACTORS
330
17
102
}
330
17
100
AcDbMlineStyle
  2
Standard
 70
     0
  3

 62
   256
 51
90.0
 52
90.0
 71
     2
 49
0.5
 62
   256
  6
BYLAYER
 49
-0.5
 62
   256
  6
BYLAYER
  0
ACDBPLACEHOLDER
  5
F
102
{ACAD_REACTORS
330
E
102
}
330
E
  0
SCALE
  5
48
102
{ACAD_REACTORS
330
47
102
}
330
47
100
AcDbScale
 70
     0
300
1:1
140
1.0
141
1.0
290
     1
  0
SCALE
  5
49
102
{ACAD_REACTORS
330
47
102
}
330
47
100
AcDbScale
 70
     0
300
1:2
140
1.0
141
2.0
290
     0
  0
SCALE
  5
4A
102
{ACAD_REACTORS
330
47
102
}
330
47
100
AcDbScale
 70
     0
300
1:4
140
1.0
141
4.0
290
     0
  0
SCALE
  5
4B
102
{ACAD_REACTORS
330
47
102
}
330
47
100
AcDbScale
 70
     0
300
1:5
140
1.0
141
5.0
290
     0
  0
SCALE
  5
4C
102
{ACAD_REACTORS
330
47
102
}
330
47
100
AcDbScale
 70
     0
300
1:8
140
1.0
141
8.0
290
     0
  0
SCALE
  5
4D
102
{ACAD_REACTORS
330
47
102
}
330
47
100
AcDbScale
 70
     0
300
1:10
140
1.0
141
10.0
290
     0
  0
SCALE
  5
4E
102
{ACAD_REACTORS
330
47
102
}
330
47
100
AcDbScale
 70
     0
300
1:16
140
1.0
141
16.0
290
     0
  0
SCALE
  5
4F
102
{ACAD_REACTORS
330
47
102
}
330
47
100
AcDbScale
 70
     0
300
1:20
140
1.0
141
20.0
290
     0
  0
SCALE
  5
50
102
{ACAD_REACTORS
330
47
102
}
330
47
100
AcDbScale
 70
     0
300
1:30
140
1.0
141
30.0
290
     0
  0
SCALE
  5
51
102
{ACAD_REACTORS
330
47
102
}
330
47
100
AcDbScale
 70
     0
300
1:40
140
1.0
141
40.0
290
     0
  0
SCALE
  5
52
102
{ACAD_REACTORS
330
47
102
}
330
47
100
AcDbScale
 70
     0
300
1:50
140
1.0
141
50.0
290
     0
  0
SCALE
  5
53
102
{ACAD_REACTORS
330
47
102
}
330
47
100
AcDbScale
 70
     0
300
1:100
140
1.0
141
100.0
290
     0
  0
SCALE
  5
54
102
{ACAD_REACTORS
330
47
102
}
330
47
100
AcDbScale
 70
     0
300
2:1
140
2.0
141
1.0
290
     0
  0
SCALE
  5
55
102
{ACAD_REACTORS
330
47
102
}
330
47
100
AcDbScale
 70
     0
300
4:1
140
4.0
141
1.0
290
     0
  0
SCALE
  5
56
102
{ACAD_REACTORS
330
47
102
}
330
47
100
AcDbScale
 70
     0
300
8:1
140
8.0
141
1.0
290
     0
  0
SCALE
  5
57
102
{ACAD_REACTORS
330
47
102
}
330
47
100
AcDbScale
 70
     0
300
10:1
140
10.0
141
1.0
290
     0
  0
SCALE
  5
58
102
{ACAD_REACTORS
330
47
102
}
330
47
100
AcDbScale
 70
     0
300
100:1
140
100.0
141
1.0
290
     0
  0
SCALE
  5
59
102
{ACAD_REACTORS
330
47
102
}
330
47
100
AcDbScale
 70
     0
300
1/128" = 1'-0"
140
0.0078125
141
12.0
290
     0
  0
SCALE
  5
5A
102
{ACAD_REACTORS
330
47
102
}
330
47
100
AcDbScale
 70
     0
300
1/64" = 1'-0"
140
0.015625
141
12.0
290
     0
  0
SCALE
  5
5B
102
{ACAD_REACTORS
330
47
102
}
330
47
100
AcDbScale
 70
     0
300
1/32" = 1'-0"
140
0.03125
141
12.0
290
     0
  0
SCALE
  5
5C
102
{ACAD_REACTORS
330
47
102
}
330
47
100
AcDbScale
 70
     0
300
1/16" = 1'-0"
140
0.0625
141
12.0
290
     0
  0
SCALE
  5
5D
102
{ACAD_REACTORS
330
47
102
}
330
47
100
AcDbScale
 70
     0
300
3/32" = 1'-0"
140
0.09375
141
12.0
290
     0
  0
SCALE
  5
5E
102
{ACAD_REACTORS
330
47
102
}
330
47
100
AcDbScale
 70
     0
300
1/8" = 1'-0"
140
0.125
141
12.0
290
     0
  0
SCALE
  5
5F
102
{ACAD_REACTORS
330
47
102
}
330
47
100
AcDbScale
 70
     0
300
3/16" = 1'-0"
140
0.1875
141
12.0
290
     0
  0
SCALE
  5
60
102
{ACAD_REACTORS
330
47
102
}
330
47
100
AcDbScale
 70
     0
300
1/4" = 1'-0"
140
0.25
141
12.0
290
     0
  0
SCALE
  5
61
102
{ACAD_REACTORS
330
47
102
}
330
47
100
AcDbScale
 70
     0
300
3/8" = 1'-0"
140
0.375
141
12.0
290
     0
  0
SCALE
  5
62
102
{ACAD_REACTORS
330
47
102
}
330
47
100
AcDbScale
 70
     0
300
1/2" = 1'-0"
140
0.5
141
12.0
290
     0
  0
SCALE
  5
63
102
{ACAD_REACTORS
330
47
102
}
330
47
100
AcDbScale
 70
     0
300
3/4" = 1'-0"
140
0.75
141
12.0
290
     0
  0
SCALE
  5
64
102
{ACAD_REACTORS
330
47
102
}
330
47
100
AcDbScale
 70
     0
300
1" = 1'-0"
140
1.0
141
12.0
290
     0
  0
SCALE
  5
65
102
{ACAD_REACTORS
330
47
102
}
330
47
100
AcDbScale
 70
     0
300
1-1/2" = 1'-0"
140
1.5
141
12.0
290
     0
  0
SCALE
  5
66
102
{ACAD_REACTORS
330
47
102
}
330
47
100
AcDbScale
 70
     0
300
3" = 1'-0"
140
3.0
141
12.0
290
     0
  0
SCALE
  5
67
102
{ACAD_REACTORS
330
47
102
}
330
47
100
AcDbScale
 70
     0
300
6" = 1'-0"
140
6.0
141
12.0
290
     0
  0
SCALE
  5
68
102
{ACAD_REACTORS
330
47
102
}
330
47
100
AcDbScale
 70
     0
300
1'-0" = 1'-0"
140
12.0
141
12.0
290
     0
  0
VISUALSTYLE
  5
2F
102
{ACAD_REACTORS
330
2A
102
}
102
{ACAD_XDICTIONARY
360
385
102
}
330
2A
100
AcDbVisualStyle
  2
2dWireframe
 70
     4
 71
     0
 72
     2
 73
     0
 90
        0
 40
0.6
 41
30.0
 62
     5
 63
     7
 74
     1
 91
        4
 64
     7
 65
   257
 75
     1
175
     1
 42
1.0
 92
        0
 66
   257
 43
1.0
 76
     1
 77
     6
 78
     2
 67
     7
 79
     5
170
     0
171
     0
290
     0
174
     0
 93
        1
 44
0.0
173
     0
291
     0
 45
0.0
1001
ACAD
1000
AcDbSavedByObjectVersion
1070
     0
  0
VISUALSTYLE
  5
32
102
{ACAD_REACTORS
330
2A
102
}
102
{ACAD_XDICTIONARY
360
38B
102
}
330
2A
100
AcDbVisualStyle
  2
Basic
 70
     7
 71
     1
 72
     0
 73
     1
 90
        0
 40
0.6
 41
30.0
 62
     5
 63
     7
 74
     0
 91
        4
 64
     7
 65
   257
 75
     1
175
     1
 42
1.0
 92
        8
 66
     7
 43
1.0
 76
     1
 77
     6
 78
     2
 67
     7
 79
     5
170
     0
171
     0
290
     0
174
     0
 93
        1
 44
0.0
173
     0
291
     1
 45
0.0
1001
ACAD
1000
AcDbSavedByObjectVersion
1070
     0
  0
VISUALSTYLE
  5
36
102
{ACAD_REACTORS
330
2A
102
}
102
{ACAD_XDICTIONARY
360
393
102
}
330
2A
100
AcDbVisualStyle
  2
Brighten
 70
    12
 71
     2
 72
     2
 73
     0
 90
        0
 40
0.6
 41
30.0
 62
     5
 63
     7
 74
     1
 91
        4
 64
     7
 65
   257
 75
     1
175
     1
 42
1.0
 92
        8
 66
     7
 43
1.0
 76
     1
 77
     6
 78
     2
 67
     7
 79
     5
170
     0
171
     0
290
     0
174
     0
 93
        1
 44
50.0
173
     0
291
     1
 45
0.0
1001
ACAD
1000
AcDbSavedByObjectVersion
1070
     0
  0
VISUALSTYLE
  5
3A
102
{ACAD_REACTORS
330
2A
102
}
102
{ACAD_XDICTIONARY
360
39B
102
}
330
2A
100
AcDbVisualStyle
  2
ColorChange
 70
    16
 71
     2
 72
     2
 73
     3
 90
        0
 40
0.6
 41
30.0
 62
     5
 63
     8
 74
     1
 91
        4
 64
     7
 65
   257
 75
     1
175
     1
 42
1.0
 92
        8
 66
     8
 43
1.0
 76
     1
 77
     6
 78
     2
 67
     7
 79
     5
170
     0
171
     0
290
     0
174
     0
 93
        1
 44
0.0
173
     0
291
     1
 45
0.0
1001
ACAD
1000
AcDbSavedByObjectVersion
1070
     0
  0
VISUALSTYLE
  5
34
102
{ACAD_REACTORS
330
2A
102
}
102
{ACAD_XDICTIONARY
360
38F
102
}
330
2A
100
AcDbVisualStyle
  2
Conceptual
 70
     9
 71
     3
 72
     2
 73
     0
 90
        0
 40
0.6
 41
30.0
 62
     5
 63
     7
 74
     2
 91
        2
 64
     7
 65
   257
 75
     1
175
     1
 42
179.0
 92
        8
 66
     7
 43
1.0
 76
     1
 77
     6
 78
     2
 67
     7
 79
     3
170
     0
171
     0
290
     0
174
     0
 93
        1
 44
0.0
173
     0
291
     0
 45
0.0
1001
ACAD
1000
AcDbSavedByObjectVersion
1070
     0
  0
VISUALSTYLE
  5
35
102
{ACAD_REACTORS
330
2A
102
}
102
{ACAD_XDICTIONARY
360
391
102
}
330
2A
100
AcDbVisualStyle
  2
Dim
 70
    11
 71
     2
 72
     2
 73
     0
 90
        0
 40
0.6
 41
30.0
 62
     5
 63
     7
 74
     1
 91
        4
 64
     7
 65
   257
 75
     1
175
     1
 42
1.0
 92
        8
 66
     7
 43
1.0
 76
     1
 77
     6
 78
     2
 67
     7
 79
     5
170
     0
171
     0
290
     0
174
     0
 93
        1
 44
-50.0
173
     0
291
     1
 45
0.0
1001
ACAD
1000
AcDbSavedByObjectVersion
1070
     0
  0
VISUALSTYLE
  5
3D
102
{ACAD_REACTORS
330
2A
102
}
102
{ACAD_XDICTIONARY
360
3A1
102
}
330
2A
100
AcDbVisualStyle
  2
EdgeColorOff
 70
    22
 71
     2
 72
     2
 73
     0
 90
        0
 40
0.6
 41
30.0
 62
     5
 63
     7
 74
     1
 91
        4
 64
     7
 65
   257
 75
     1
175
     1
 42
1.0
 92
        8
 66
     7
 43
1.0
 76
     1
 77
     6
 78
     2
 67
     7
 79
     5
170
     0
171
     0
290
     0
174
     0
 93
        1
 44
0.0
173
     0
291
     1
 45
0.0
1001
ACAD
1000
AcDbSavedByObjectVersion
1070
     0
  0
VISUALSTYLE
  5
39
102
{ACAD_REACTORS
330
2A
102
}
102
{ACAD_XDICTIONARY
360
399
102
}
330
2A
100
AcDbVisualStyle
  2
Facepattern
 70
    15
 71
     2
 72
     2
 73
     0
 90
        0
 40
0.6
 41
30.0
 62
     5
 63
     7
 74
     1
 91
        4
 64
     7
 65
   257
 75
     1
175
     1
 42
1.0
 92
        8
 66
     7
 43
1.0
 76
     1
 77
     6
 78
     2
 67
     7
 79
     5
170
     0
171
     0
290
     0
174
     0
 93
        1
 44
0.0
173
     0
291
     1
 45
0.0
1001
ACAD
1000
AcDbSavedByObjectVersion
1070
     0
  0
VISUALSTYLE
  5
2B
102
{ACAD_REACTORS
330
2A
102
}
102
{ACAD_XDICTIONARY
360
37D
102
}
330
2A
100
AcDbVisualStyle
  2
Flat
 70
     0
 71
     2
 72
     1
 73
     1
 90
        2
 40
0.6
 41
30.0
 62
     5
 63
     7
 74
     0
 91
        0
 64
     7
 65
   257
 75
     1
175
     1
 42
1.0
 92
        8
 66
     7
 43
1.0
 76
     1
 77
     6
 78
     2
 67
     7
 79
     5
170
     0
171
     0
290
     0
174
     0
 93
       13
 44
0.0
173
     0
291
     1
 45
0.0
1001
ACAD
1000
AcDbSavedByObjectVersion
1070
     0
  0
VISUALSTYLE
  5
2C
102
{ACAD_REACTORS
330
2A
102
}
102
{ACAD_XDICTIONARY
360
37F
102
}
330
2A
100
AcDbVisualStyle
  2
FlatWithEdges
 70
     1
 71
     2
 72
     1
 73
     1
 90
        2
 40
0.6
 41
30.0
 62
     5
 63
     7
 74
     1
 91
        0
 64
     7
 65
   257
 75
     1
175
     1
 42
1.0
 92
        0
 66
   257
 43
1.0
 76
     1
 77
     6
 78
     2
 67
     7
 79
     5
170
     0
171
     0
290
     0
174
     0
 93
       13
 44
0.0
173
     0
291
     1
 45
0.0
1001
ACAD
1000
AcDbSavedByObjectVersion
1070
     0
  0
VISUALSTYLE
  5
2D
102
{ACAD_REACTORS
330
2A
102
}
102
{ACAD_XDICTIONARY
360
381
102
}
330
2A
100
AcDbVisualStyle
  2
Gouraud
 70
     2
 71
     2
 72
     2
 73
     1
 90
        2
 40
0.6
 41
30.0
 62
     5
 63
     7
 74
     0
 91
        0
 64
     7
 65
   257
 75
     1
175
     1
 42
1.0
 92
        0
 66
     7
 43
1.0
 76
     1
 77
     6
 78
     2
 67
     7
 79
     5
170
     0
171
     0
290
     0
174
     0
 93
       13
 44
0.0
173
     0
291
     1
 45
0.0
1001
ACAD
1000
AcDbSavedByObjectVersion
1070
     0
  0
VISUALSTYLE
  5
2E
102
{ACAD_REACTORS
330
2A
102
}
102
{ACAD_XDICTIONARY
360
383
102
}
330
2A
100
AcDbVisualStyle
  2
GouraudWithEdges
 70
     3
 71
     2
 72
     2
 73
     1
 90
        2
 40
0.6
 41
30.0
 62
     5
 63
     7
 74
     1
 91
        0
 64
     7
 65
   257
 75
     1
175
     1
 42
1.0
 92
        0
 66
   257
 43
1.0
 76
     1
 77
     6
 78
     2
 67
     7
 79
     5
170
     0
171
     0
290
     0
174
     0
 93
       13
 44
0.0
173
     0
291
     1
 45
0.0
1001
ACAD
1000
AcDbSavedByObjectVersion
1070
     0
  0
VISUALSTYLE
  5
31
102
{ACAD_REACTORS
330
2A
102
}
102
{ACAD_XDICTIONARY
360
389
102
}
330
2A
100
AcDbVisualStyle
  2
Hidden
 70
     6
 71
     1
 72
     2
 73
     2
 90
        0
 40
0.6
 41
30.0
 62
     5
 63
     7
 74
     2
 91
        2
 64
     7
 65
   257
 75
     2
175
     1
 42
40.0
 92
        0
 66
   257
 43
1.0
 76
     1
 77
     6
 78
     2
 67
     7
 79
     3
170
     0
171
     0
290
     0
174
     0
 93
        1
 44
0.0
173
     0
291
     0
 45
0.0
1001
ACAD
1000
AcDbSavedByObjectVersion
1070
     0
  0
VISUALSTYLE
  5
3B
102
{ACAD_REACTORS
330
2A
102
}
102
{ACAD_XDICTIONARY
360
39D
102
}
330
2A
100
AcDbVisualStyle
  2
JitterOff
 70
    20
 71
     2
 72
     2
 73
     0
 90
        0
 40
0.6
 41
30.0
 62
     5
 63
     7
 74
     1
 91
        4
 64
     7
 65
   257
 75
     1
175
     1
 42
1.0
 92
       10
 66
     7
 43
1.0
 76
     1
 77
     6
 78
     2
 67
     7
 79
     5
170
     0
171
     0
290
     0
174
     0
 93
        1
 44
0.0
173
     0
291
     1
 45
0.0
1001
ACAD
1000
AcDbSavedByObjectVersion
1070
     0
  0
VISUALSTYLE
  5
38
102
{ACAD_REACTORS
330
2A
102
}
102
{ACAD_XDICTIONARY
360
397
102
}
330
2A
100
AcDbVisualStyle
  2
Linepattern
 70
    14
 71
     2
 72
     2
 73
     0
 90
        0
 40
0.6
 41
30.0
 62
     5
 63
     7
 74
     1
 91
        4
 64
     7
 65
   257
 75
     7
175
     7
 42
1.0
 92
        8
 66
     7
 43
1.0
 76
     1
 77
     6
 78
     2
 67
     7
 79
     5
170
     0
171
     0
290
     0
174
     0
 93
        1
 44
0.0
173
     0
291
     1
 45
0.0
1001
ACAD
1000
AcDbSavedByObjectVersion
1070
     0
  0
VISUALSTYLE
  5
3C
102
{ACAD_REACTORS
330
2A
102
}
102
{ACAD_XDICTIONARY
360
39F
102
}
330
2A
100
AcDbVisualStyle
  2
OverhangOff
 70
    21
 71
     2
 72
     2
 73
     0
 90
        0
 40
0.6
 41
30.0
 62
     5
 63
     7
 74
     1
 91
        4
 64
     7
 65
   257
 75
     1
175
     1
 42
1.0
 92
        9
 66
     7
 43
1.0
 76
     1
 77
     6
 78
     2
 67
     7
 79
     5
170
     0
171
     0
290
     0
174
     0
 93
        1
 44
0.0
173
     0
291
     1
 45
0.0
1001
ACAD
1000
AcDbSavedByObjectVersion
1070
     0
  0
VISUALSTYLE
  5
33
102
{ACAD_REACTORS
330
2A
102
}
102
{ACAD_XDICTIONARY
360
38D
102
}
330
2A
100
AcDbVisualStyle
  2
Realistic
 70
     8
 71
     2
 72
     3
 73
     0
 90
        2
 40
0.6
 41
30.0
 62
     5
 63
     7
 74
     0
 91
        0
 64
     7
 65
   257
 75
     1
175
     1
 42
1.0
 92
        8
 66
   257
 43
1.0
 76
     1
 77
     6
 78
     2
 67
     7
 79
     3
170
     0
171
     0
290
     0
174
     0
 93
       13
 44
0.0
173
     0
291
     0
 45
0.0
1001
ACAD
1000
AcDbSavedByObjectVersion
1070
     0
  0
VISUALSTYLE
  5
42
102
{ACAD_REACTORS
330
2A
102
}
102
{ACAD_XDICTIONARY
360
3AB
102
}
330
2A
100
AcDbVisualStyle
  2
Shaded
 70
    27
 71
     2
 72
     2
 73
     1
 90
        2
 40
0.6
 41
30.0
 62
     5
 63
     7
 74
     0
 91
        4
 64
     7
 65
   257
 75
     1
175
     1
 42
1.0
 92
        8
 66
   257
 43
1.0
 76
     1
 77
     6
 78
     2
 67
     8
 79
     3
170
     0
171
     0
290
     0
174
     0
 93
        5
 44
0.0
173
     0
291
     0
 45
0.0
1001
ACAD
1000
AcDbSavedByObjectVersion
1070
     0
  0
VISUALSTYLE
  5
41
102
{ACAD_REACTORS
330
2A
102
}
102
{ACAD_XDICTIONARY
360
3A9
102
}
330
2A
100
AcDbVisualStyle
  2
Shaded with edges
 70
    26
 71
     2
 72
     2
 73
     1
 90
        2
 40
0.6
 41
30.0
 62
     5
 63
     7
 74
     1
 91
       10
 64
     7
 65
   257
 75
     2
175
     1
 42
1.0
 92
        8
 66
   257
 43
1.0
 76
     1
 77
     6
 78
     2
 67
     7
 79
     3
170
     0
171
     0
290
     0
174
     0
 93
        5
 44
0.0
173
     0
291
     0
 45
0.0
1001
ACAD
1000
AcDbSavedByObjectVersion
1070
     0
  0
VISUALSTYLE
  5
3E
102
{ACAD_REACTORS
330
2A
102
}
102
{ACAD_XDICTIONARY
360
3A3
102
}
330
2A
100
AcDbVisualStyle
  2
Shades of Gray
 70
    23
 71
     2
 72
     2
 73
     3
 90
        0
 40
0.6
 41
30.0
 62
     5
 63
     7
 74
     2
 91
        2
 64
     7
 65
     7
 75
     1
175
     1
 42
40.0
 92
        8
 66
     7
 43
1.0
 76
     1
 77
     6
 78
     2
 67
     7
 79
     3
170
     0
171
     0
290
     0
174
     0
 93
        1
 44
0.0
173
     0
291
     0
 45
0.0
1001
ACAD
1000
AcDbSavedByObjectVersion
1070
     0
  0
VISUALSTYLE
  5
3F
102
{ACAD_REACTORS
330
2A
102
}
102
{ACAD_XDICTIONARY
360
3A5
102
}
330
2A
100
AcDbVisualStyle
  2
Sketchy
 70
    24
 71
     1
 72
     2
 73
     2
 90
        0
 40
0.6
 41
30.0
 62
     5
 63
     7
 74
     2
 91
        2
 64
     7
 65
     7
 75
     1
175
     1
 42
40.0
 92
       11
 66
     7
 43
1.0
 76
     1
 77
     6
 78
     2
 67
     7
 79
     6
170
     0
171
     0
290
     0
174
     0
 93
        1
 44
0.0
173
     0
291
     0
 45
0.0
1001
ACAD
1000
AcDbSavedByObjectVersion
1070
     0
  0
VISUALSTYLE
  5
37
102
{ACAD_REACTORS
330
2A
102
}
102
{ACAD_XDICTIONARY
360
395
102
}
330
2A
100
AcDbVisualStyle
  2
Thicken
 70
    13
 71
     2
 72
     2
 73
     0
 90
        0
 40
0.6
 41
30.0
 62
     5
 63
     7
 74
     1
 91
        4
 64
     7
 65
   257
 75
     1
175
     1
 42
1.0
 92
       12
 66
     7
 43
1.0
 76
     1
 77
     6
 78
     2
 67
     7
 79
     5
170
     0
171
     0
290
     0
174
     0
 93
        1
 44
0.0
173
     0
291
     1
 45
0.0
1001
ACAD
1000
AcDbSavedByObjectVersion
1070
     0
  0
VISUALSTYLE
  5
30
102
{ACAD_REACTORS
330
2A
102
}
102
{ACAD_XDICTIONARY
360
387
102
}
330
2A
100
AcDbVisualStyle
  2
Wireframe
 70
     5
 71
     0
 72
     2
 73
     0
 90
        0
 40
0.6
 41
30.0
 62
     5
 63
     7
 74
     1
 91
        4
 64
     7
 65
   257
 75
     1
175
     1
 42
1.0
 92
        0
 66
   257
 43
1.0
 76
     1
 77
     6
 78
     2
 67
     7
 79
     3
170
     0
171
     0
290
     0
174
     0
 93
        1
 44
0.0
173
     0
291
     0
 45
0.0
1001
ACAD
1000
AcDbSavedByObjectVersion
1070
     0
  0
VISUALSTYLE
  5
40
102
{ACAD_REACTORS
330
2A
102
}
102
{ACAD_XDICTIONARY
360
3A7
102
}
330
2A
100
AcDbVisualStyle
  2
X-Ray
 70
    25
 71
     2
 72
     2
 73
     1
 90
        1
 40
0.5
 41
30.0
 62
     5
 63
     7
 74
     1
 91
        0
 64
     7
 65
   257
 75
     1
175
     1
 42
1.0
 92
        8
 66
     7
 43
1.0
 76
     1
 77
     6
 78
     2
 67
     7
 79
     3
170
     0
171
     0
290
     0
174
     0
 93
       13
 44
0.0
173
     0
291
     0
 45
0.0
1001
ACAD
1000
AcDbSavedByObjectVersion
1070
     0
  0
DICTIONARYVAR
  5
37B
102
{ACAD_REACTORS
330
374
102
}
330
374
100
DictionaryVariables
280
     0
  1
1:1
  0
DICTIONARYVAR
  5
379
102
{ACAD_REACTORS
330
374
102
}
330
374
100
DictionaryVariables
280
     0
  1
2
  0
DICTIONARYVAR
  5
37A
102
{ACAD_REACTORS
330
374
102
}
330
374
100
DictionaryVariables
280
     0
  1
1
  0
DICTIONARYVAR
  5
37C
102
{ACAD_REACTORS
330
374
102
}
330
374
100
DictionaryVariables
280
     0
  1
1
  0
DICTIONARY
  5
3AF
330
45
100
AcDbDictionary
280
     1
281
     1
  3
ACAD_XREC_ROUNDTRIP
360
3B0
  0
DICTIONARY
  5
3AD
330
44
100
AcDbDictionary
280
     1
281
     1
  3
ACAD_XREC_ROUNDTRIP
360
3AE
  0
DICTIONARY
  5
3B1
330
46
100
AcDbDictionary
280
     1
281
     1
  3
ACAD_XREC_ROUNDTRIP
360
3B2
  0
DICTIONARY
  5
385
330
2F
100
AcDbDictionary
280
     1
281
     1
  3
ACAD_XREC_ROUNDTRIP
360
386
  0
DICTIONARY
  5
38B
330
32
100
AcDbDictionary
280
     1
281
     1
  3
ACAD_XREC_ROUNDTRIP
360
38C
  0
DICTIONARY
  5
393
330
36
100
AcDbDictionary
280
     1
281
     1
  3
ACAD_XREC_ROUNDTRIP
360
394
  0
DICTIONARY
  5
39B
330
3A
100
AcDbDictionary
280
     1
281
     1
  3
ACAD_XREC_ROUNDTRIP
360
39C
  0
DICTIONARY
  5
38F
330
34
100
AcDbDictionary
280
     1
281
     1
  3
ACAD_XREC_ROUNDTRIP
360
390
  0
DICTIONARY
  5
391
330
35
100
AcDbDictionary
280
     1
281
     1
  3
ACAD_XREC_ROUNDTRIP
360
392
  0
DICTIONARY
  5
3A1
330
3D
100
AcDbDictionary
280
     1
281
     1
  3
ACAD_XREC_ROUNDTRIP
360
3A2
  0
DICTIONARY
  5
399
330
39
100
AcDbDictionary
280
     1
281
     1
  3
ACAD_XREC_ROUNDTRIP
360
39A
  0
DICTIONARY
  5
37D
330
2B
100
AcDbDictionary
280
     1
281
     1
  3
ACAD_XREC_ROUNDTRIP
360
37E
  0
DICTIONARY
  5
37F
330
2C
100
AcDbDictionary
280
     1
281
     1
  3
ACAD_XREC_ROUNDTRIP
360
380
  0
DICTIONARY
  5
381
330
2D
100
AcDbDictionary
280
     1
281
     1
  3
ACAD_XREC_ROUNDTRIP
360
382
  0
DICTIONARY
  5
383
330
2E
100
AcDbDictionary
280
     1
281
     1
  3
ACAD_XREC_ROUNDTRIP
360
384
  0
DICTIONARY
  5
389
330
31
100
AcDbDictionary
280
     1
281
     1
  3
ACAD_XREC_ROUNDTRIP
360
38A
  0
DICTIONARY
  5
39D
330
3B
100
AcDbDictionary
280
     1
281
     1
  3
ACAD_XREC_ROUNDTRIP
360
39E
  0
DICTIONARY
  5
397
330
38
100
AcDbDictionary
280
     1
281
     1
  3
ACAD_XREC_ROUNDTRIP
360
398
  0
DICTIONARY
  5
39F
330
3C
100
AcDbDictionary
280
     1
281
     1
  3
ACAD_XREC_ROUNDTRIP
360
3A0
  0
DICTIONARY
  5
38D
330
33
100
AcDbDictionary
280
     1
281
     1
  3
ACAD_XREC_ROUNDTRIP
360
38E
  0
DICTIONARY
  5
3AB
330
42
100
AcDbDictionary
280
     1
281
     1
  3
ACAD_XREC_ROUNDTRIP
360
3AC
  0
DICTIONARY
  5
3A9
330
41
100
AcDbDictionary
280
     1
281
     1
  3
ACAD_XREC_ROUNDTRIP
360
3AA
  0
DICTIONARY
  5
3A3
330
3E
100
AcDbDictionary
280
     1
281
     1
  3
ACAD_XREC_ROUNDTRIP
360
3A4
  0
DICTIONARY
  5
3A5
330
3F
100
AcDbDictionary
280
     1
281
     1
  3
ACAD_XREC_ROUNDTRIP
360
3A6
  0
DICTIONARY
  5
395
330
37
100
AcDbDictionary
280
     1
281
     1
  3
ACAD_XREC_ROUNDTRIP
360
396
  0
DICTIONARY
  5
387
330
30
100
AcDbDictionary
280
     1
281
     1
  3
ACAD_XREC_ROUNDTRIP
360
388
  0
DICTIONARY
  5
3A7
330
40
100
AcDbDictionary
280
     1
281
     1
  3
ACAD_XREC_ROUNDTRIP
360
3A8
  0
XRECORD
  5
3B0
102
{ACAD_REACTORS
330
3AF
102
}
330
3AF
100
AcDbXrecord
280
     1
102
MATERIAL
148
0.0
149
0.0
149
0.0
 93
        0
 94
      127
282
     0
 72
     1
 77
     1
171
     1
175
     1
179
     1
273
     0
  0
XRECORD
  5
3AE
102
{ACAD_REACTORS
330
3AD
102
}
330
3AD
100
AcDbXrecord
280
     1
102
MATERIAL
148
0.0
149
0.0
149
0.0
 93
        0
 94
      127
282
     0
 72
     1
 77
     1
171
     1
175
     1
179
     1
273
     0
  0
XRECORD
  5
3B2
102
{ACAD_REACTORS
330
3B1
102
}
330
3B1
100
AcDbXrecord
280
     1
102
MATERIAL
148
0.0
149
0.0
149
0.0
 93
        0
 94
      127
282
     0
 72
     1
 77
     1
171
     1
175
     1
179
     1
273
     0
  0
XRECORD
  5
386
102
{ACAD_REACTORS
330
385
102
}
330
385
100
AcDbXrecord
280
     1
102
RTVSPropertyOp0
 70
     1
102
RTVSPropertyOp1
 70
     1
102
RTVSPropertyOp2
 70
     1
102
RTVSPropertyOp3
 70
     1
102
RTVSPropertyOp4
 70
     1
102
RTVSPropertyOp5
 70
     1
102
RTVSPropertyOp6
 70
     1
102
RTVSPropertyOp7
 70
     1
102
RTVSPropertyOp8
 70
     1
102
RTVSPropertyOp9
 70
     1
102
RTVSPropertyOp10
 70
     1
102
RTVSPropertyOp11
 70
     1
102
RTVSPropertyOp12
 70
     1
102
RTVSPropertyOp13
 70
     1
102
RTVSPropertyOp14
 70
     1
102
RTVSPropertyOp15
 70
     1
102
RTVSPropertyOp16
 70
     1
102
RTVSPropertyOp17
 70
     1
102
RTVSPropertyOp18
 70
     1
102
RTVSPropertyOp19
 70
     1
102
RTVSPropertyOp20
 70
     1
102
RTVSPropertyOp21
 70
     1
102
RTVSPropertyOp22
 70
     1
102
RTVSPropertyOp23
 70
     1
102
RTVSPropertyOp24
 70
     1
102
RTVSPropertyOp25
 70
     1
102
RTVSPropertyOp26
 70
     1
102
RTVSPropertyOp27
 70
     1
102
RTVSPropertyOp28
 70
     1
102
RTVSPropertyOp29
 70
     1
102
RTVSPropertyOp30
 70
     1
102
RTVSPropertyOp31
 70
     1
102
RTVSPropertyOp32
 70
     1
102
RTVSPropertyOp33
 70
     1
102
RTVSPropertyOp34
 70
     1
102
RTVSPropertyOp35
 70
     1
102
RTVSPropertyOp36
 70
     1
102
RTVSPropertyOp37
 70
     1
102
RTVSPropertyOp38
 70
     1
102
RTVSPropertyOp39
 70
     1
102
RTVSPropertyOp40
 70
     1
102
RTVSPropertyOp41
 70
     1
102
RTVSPropertyOp42
 70
     1
102
RTVSPropertyOp43
 70
     1
102
RTVSPropertyOp44
 70
     1
102
RTVSPropertyOp45
 70
     1
102
RTVSPropertyOp46
 70
     1
102
RTVSPropertyOp47
 70
     1
102
RTVSPropertyOp48
 70
     1
102
RTVSPropertyOp49
 70
     1
102
RTVSPropertyOp50
 70
     1
102
RTVSPropertyOp51
 70
     0
102
RTVSPropertyOp52
 70
     0
102
RTVSPropertyOp53
 70
     1
102
RTVSPropertyOp54
 70
     1
102
RTVSPropertyOp55
 70
     1
102
RTVSPropertyOp56
 70
     1
102
RTVSPropertyOp57
 70
     1
102
RTVSPost2010Prop28
280
     1
102
RTVSPost2010PropOp28
 70
     1
102
RTVSPost2010Prop29
280
     1
102
RTVSPost2010PropOp29
 70
     1
102
RTVSPost2010Prop30
280
     0
102
RTVSPost2010PropOp30
 70
     1
102
RTVSPost2010Prop31
280
     0
102
RTVSPost2010PropOp31
 70
     1
102
RTVSPost2010Prop32
280
     0
102
RTVSPost2010PropOp32
 70
     1
102
RTVSPost2010Prop33
280
     0
102
RTVSPost2010PropOp33
 70
     1
102
RTVSPost2010Prop34
280
     0
102
RTVSPost2010PropOp34
 70
     1
102
RTVSPost2010Prop35
280
     0
102
RTVSPost2010PropOp35
 70
     1
102
RTVSPost2010Prop36
280
     0
102
RTVSPost2010PropOp36
 70
     1
102
RTVSPost2010Prop37
 90
       50
102
RTVSPost2010PropOp37
 70
     1
102
RTVSPost2010Prop38
140
0.0
102
RTVSPost2010PropOp38
 70
     1
102
RTVSPost2010Prop39
140
1.0
102
RTVSPost2010PropOp39
 70
     1
102
RTVSPost2010Prop40
 90
        0
102
RTVSPost2010PropOp40
 70
     1
102
RTVSPost2010Prop41ColorIndex
 90
       18
102
RTVSPost2010Prop41ColorRGB
 90
        0
102
RTVSPost2010PropOp41
 70
     1
102
RTVSPost2010Prop42
 90
       50
102
RTVSPost2010PropOp42
 70
     1
102
RTVSPost2010Prop43
 90
        3
102
RTVSPost2010PropOp43
 70
     1
102
RTVSPost2010Prop44ColorIndex
 90
        5
102
RTVSPost2010Prop44ColorRGB
 90
      255
102
RTVSPost2010PropOp44
 70
     1
102
RTVSPost2010Prop45
280
     0
102
RTVSPost2010PropOp45
 70
     1
102
RTVSPost2010Prop46
 90
       50
102
RTVSPost2010PropOp46
 70
     1
102
RTVSPost2010Prop47
 90
       50
102
RTVSPost2010PropOp47
 70
     1
102
RTVSPost2010Prop48
 90
       50
102
RTVSPost2010PropOp48
 70
     1
102
RTVSPost2010Prop49
280
     0
102
RTVSPost2010PropOp49
 70
     1
102
RTVSPost2010Prop50
 90
       50
102
RTVSPost2010PropOp50
 70
     1
102
RTVSPost2010Prop51ColorIndex
 90
      256
102
RTVSPost2010Prop51ColorRGB
 90
-16777216
102
RTVSPost2010PropOp51
 70
     0
102
RTVSPost2010Prop52
140
1.0
102
RTVSPost2010PropOp52
 70
     0
102
RTVSPost2010Prop53
 90
        2
102
RTVSPost2010PropOp53
 70
     1
102
RTVSPost2010Prop54
  1
strokes_ogs.tif
102
RTVSPost2010PropOp54
 70
     1
102
RTVSPost2010Prop55
280
     0
102
RTVSPost2010PropOp55
 70
     1
102
RTVSPost2010Prop56
140
1.0
102
RTVSPost2010PropOp56
 70
     1
102
RTVSPost2010Prop57
140
1.0
102
RTVSPost2010PropOp57
 70
     1
  0
XRECORD
  5
38C
102
{ACAD_REACTORS
330
38B
102
}
330
38B
100
AcDbXrecord
280
     1
102
RTVSPropertyOp0
 70
     1
102
RTVSPropertyOp1
 70
     1
102
RTVSPropertyOp2
 70
     1
102
RTVSPropertyOp3
 70
     1
102
RTVSPropertyOp4
 70
     1
102
RTVSPropertyOp5
 70
     1
102
RTVSPropertyOp6
 70
     1
102
RTVSPropertyOp7
 70
     1
102
RTVSPropertyOp8
 70
     1
102
RTVSPropertyOp9
 70
     1
102
RTVSPropertyOp10
 70
     1
102
RTVSPropertyOp11
 70
     1
102
RTVSPropertyOp12
 70
     1
102
RTVSPropertyOp13
 70
     1
102
RTVSPropertyOp14
 70
     1
102
RTVSPropertyOp15
 70
     1
102
RTVSPropertyOp16
 70
     1
102
RTVSPropertyOp17
 70
     1
102
RTVSPropertyOp18
 70
     1
102
RTVSPropertyOp19
 70
     1
102
RTVSPropertyOp20
 70
     1
102
RTVSPropertyOp21
 70
     1
102
RTVSPropertyOp22
 70
     1
102
RTVSPropertyOp23
 70
     1
102
RTVSPropertyOp24
 70
     1
102
RTVSPropertyOp25
 70
     1
102
RTVSPropertyOp26
 70
     1
102
RTVSPropertyOp27
 70
     1
102
RTVSPropertyOp28
 70
     1
102
RTVSPropertyOp29
 70
     1
102
RTVSPropertyOp30
 70
     1
102
RTVSPropertyOp31
 70
     1
102
RTVSPropertyOp32
 70
     1
102
RTVSPropertyOp33
 70
     1
102
RTVSPropertyOp34
 70
     1
102
RTVSPropertyOp35
 70
     1
102
RTVSPropertyOp36
 70
     1
102
RTVSPropertyOp37
 70
     1
102
RTVSPropertyOp38
 70
     1
102
RTVSPropertyOp39
 70
     1
102
RTVSPropertyOp40
 70
     1
102
RTVSPropertyOp41
 70
     1
102
RTVSPropertyOp42
 70
     1
102
RTVSPropertyOp43
 70
     1
102
RTVSPropertyOp44
 70
     1
102
RTVSPropertyOp45
 70
     1
102
RTVSPropertyOp46
 70
     1
102
RTVSPropertyOp47
 70
     1
102
RTVSPropertyOp48
 70
     1
102
RTVSPropertyOp49
 70
     1
102
RTVSPropertyOp50
 70
     1
102
RTVSPropertyOp51
 70
     0
102
RTVSPropertyOp52
 70
     0
102
RTVSPropertyOp53
 70
     1
102
RTVSPropertyOp54
 70
     1
102
RTVSPropertyOp55
 70
     1
102
RTVSPropertyOp56
 70
     1
102
RTVSPropertyOp57
 70
     1
102
RTVSPost2010Prop28
280
     0
102
RTVSPost2010PropOp28
 70
     1
102
RTVSPost2010Prop29
280
     1
102
RTVSPost2010PropOp29
 70
     1
102
RTVSPost2010Prop30
280
     1
102
RTVSPost2010PropOp30
 70
     1
102
RTVSPost2010Prop31
280
     0
102
RTVSPost2010PropOp31
 70
     1
102
RTVSPost2010Prop32
280
     0
102
RTVSPost2010PropOp32
 70
     1
102
RTVSPost2010Prop33
280
     0
102
RTVSPost2010PropOp33
 70
     1
102
RTVSPost2010Prop34
280
     0
102
RTVSPost2010PropOp34
 70
     1
102
RTVSPost2010Prop35
280
     0
102
RTVSPost2010PropOp35
 70
     1
102
RTVSPost2010Prop36
280
     0
102
RTVSPost2010PropOp36
 70
     1
102
RTVSPost2010Prop37
 90
       50
102
RTVSPost2010PropOp37
 70
     1
102
RTVSPost2010Prop38
140
0.0
102
RTVSPost2010PropOp38
 70
     1
102
RTVSPost2010Prop39
140
1.0
102
RTVSPost2010PropOp39
 70
     1
102
RTVSPost2010Prop40
 90
        0
102
RTVSPost2010PropOp40
 70
     1
102
RTVSPost2010Prop41ColorIndex
 90
       18
102
RTVSPost2010Prop41ColorRGB
 90
        0
102
RTVSPost2010PropOp41
 70
     1
102
RTVSPost2010Prop42
 90
       50
102
RTVSPost2010PropOp42
 70
     1
102
RTVSPost2010Prop43
 90
        3
102
RTVSPost2010PropOp43
 70
     1
102
RTVSPost2010Prop44ColorIndex
 90
        5
102
RTVSPost2010Prop44ColorRGB
 90
      255
102
RTVSPost2010PropOp44
 70
     1
102
RTVSPost2010Prop45
280
     0
102
RTVSPost2010PropOp45
 70
     1
102
RTVSPost2010Prop46
 90
       50
102
RTVSPost2010PropOp46
 70
     1
102
RTVSPost2010Prop47
 90
       50
102
RTVSPost2010PropOp47
 70
     1
102
RTVSPost2010Prop48
 90
       50
102
RTVSPost2010PropOp48
 70
     1
102
RTVSPost2010Prop49
280
     0
102
RTVSPost2010PropOp49
 70
     1
102
RTVSPost2010Prop50
 90
       50
102
RTVSPost2010PropOp50
 70
     1
102
RTVSPost2010Prop51ColorIndex
 90
      256
102
RTVSPost2010Prop51ColorRGB
 90
-16777216
102
RTVSPost2010PropOp51
 70
     0
102
RTVSPost2010Prop52
140
1.0
102
RTVSPost2010PropOp52
 70
     0
102
RTVSPost2010Prop53
 90
        2
102
RTVSPost2010PropOp53
 70
     1
102
RTVSPost2010Prop54
  1
strokes_ogs.tif
102
RTVSPost2010PropOp54
 70
     1
102
RTVSPost2010Prop55
280
     0
102
RTVSPost2010PropOp55
 70
     1
102
RTVSPost2010Prop56
140
1.0
102
RTVSPost2010PropOp56
 70
     1
102
RTVSPost2010Prop57
140
1.0
102
RTVSPost2010PropOp57
 70
     1
  0
XRECORD
  5
394
102
{ACAD_REACTORS
330
393
102
}
330
393
100
AcDbXrecord
280
     1
102
RTVSPropertyOp0
 70
     1
102
RTVSPropertyOp1
 70
     1
102
RTVSPropertyOp2
 70
     1
102
RTVSPropertyOp3
 70
     1
102
RTVSPropertyOp4
 70
     1
102
RTVSPropertyOp5
 70
     1
102
RTVSPropertyOp6
 70
     1
102
RTVSPropertyOp7
 70
     1
102
RTVSPropertyOp8
 70
     1
102
RTVSPropertyOp9
 70
     1
102
RTVSPropertyOp10
 70
     1
102
RTVSPropertyOp11
 70
     1
102
RTVSPropertyOp12
 70
     1
102
RTVSPropertyOp13
 70
     1
102
RTVSPropertyOp14
 70
     1
102
RTVSPropertyOp15
 70
     1
102
RTVSPropertyOp16
 70
     1
102
RTVSPropertyOp17
 70
     1
102
RTVSPropertyOp18
 70
     1
102
RTVSPropertyOp19
 70
     1
102
RTVSPropertyOp20
 70
     1
102
RTVSPropertyOp21
 70
     1
102
RTVSPropertyOp22
 70
     1
102
RTVSPropertyOp23
 70
     1
102
RTVSPropertyOp24
 70
     1
102
RTVSPropertyOp25
 70
     1
102
RTVSPropertyOp26
 70
     1
102
RTVSPropertyOp27
 70
     1
102
RTVSPropertyOp28
 70
     1
102
RTVSPropertyOp29
 70
     1
102
RTVSPropertyOp30
 70
     1
102
RTVSPropertyOp31
 70
     1
102
RTVSPropertyOp32
 70
     1
102
RTVSPropertyOp33
 70
     1
102
RTVSPropertyOp34
 70
     1
102
RTVSPropertyOp35
 70
     1
102
RTVSPropertyOp36
 70
     1
102
RTVSPropertyOp37
 70
     1
102
RTVSPropertyOp38
 70
     1
102
RTVSPropertyOp39
 70
     1
102
RTVSPropertyOp40
 70
     1
102
RTVSPropertyOp41
 70
     1
102
RTVSPropertyOp42
 70
     1
102
RTVSPropertyOp43
 70
     1
102
RTVSPropertyOp44
 70
     1
102
RTVSPropertyOp45
 70
     1
102
RTVSPropertyOp46
 70
     1
102
RTVSPropertyOp47
 70
     1
102
RTVSPropertyOp48
 70
     1
102
RTVSPropertyOp49
 70
     1
102
RTVSPropertyOp50
 70
     1
102
RTVSPropertyOp51
 70
     0
102
RTVSPropertyOp52
 70
     0
102
RTVSPropertyOp53
 70
     1
102
RTVSPropertyOp54
 70
     1
102
RTVSPropertyOp55
 70
     1
102
RTVSPropertyOp56
 70
     1
102
RTVSPropertyOp57
 70
     1
102
RTVSPost2010Prop28
280
     0
102
RTVSPost2010PropOp28
 70
     1
102
RTVSPost2010Prop29
280
     1
102
RTVSPost2010PropOp29
 70
     1
102
RTVSPost2010Prop30
280
     1
102
RTVSPost2010PropOp30
 70
     1
102
RTVSPost2010Prop31
280
     0
102
RTVSPost2010PropOp31
 70
     1
102
RTVSPost2010Prop32
280
     0
102
RTVSPost2010PropOp32
 70
     1
102
RTVSPost2010Prop33
280
     0
102
RTVSPost2010PropOp33
 70
     1
102
RTVSPost2010Prop34
280
     0
102
RTVSPost2010PropOp34
 70
     1
102
RTVSPost2010Prop35
280
     0
102
RTVSPost2010PropOp35
 70
     1
102
RTVSPost2010Prop36
280
     0
102
RTVSPost2010PropOp36
 70
     1
102
RTVSPost2010Prop37
 90
       50
102
RTVSPost2010PropOp37
 70
     1
102
RTVSPost2010Prop38
140
0.0
102
RTVSPost2010PropOp38
 70
     1
102
RTVSPost2010Prop39
140
1.0
102
RTVSPost2010PropOp39
 70
     1
102
RTVSPost2010Prop40
 90
        0
102
RTVSPost2010PropOp40
 70
     1
102
RTVSPost2010Prop41ColorIndex
 90
       18
102
RTVSPost2010Prop41ColorRGB
 90
        0
102
RTVSPost2010PropOp41
 70
     1
102
RTVSPost2010Prop42
 90
       50
102
RTVSPost2010PropOp42
 70
     1
102
RTVSPost2010Prop43
 90
        3
102
RTVSPost2010PropOp43
 70
     1
102
RTVSPost2010Prop44ColorIndex
 90
        5
102
RTVSPost2010Prop44ColorRGB
 90
      255
102
RTVSPost2010PropOp44
 70
     1
102
RTVSPost2010Prop45
280
     0
102
RTVSPost2010PropOp45
 70
     1
102
RTVSPost2010Prop46
 90
       50
102
RTVSPost2010PropOp46
 70
     1
102
RTVSPost2010Prop47
 90
       50
102
RTVSPost2010PropOp47
 70
     1
102
RTVSPost2010Prop48
 90
       50
102
RTVSPost2010PropOp48
 70
     1
102
RTVSPost2010Prop49
280
     0
102
RTVSPost2010PropOp49
 70
     1
102
RTVSPost2010Prop50
 90
       50
102
RTVSPost2010PropOp50
 70
     1
102
RTVSPost2010Prop51ColorIndex
 90
      256
102
RTVSPost2010Prop51ColorRGB
 90
-16777216
102
RTVSPost2010PropOp51
 70
     0
102
RTVSPost2010Prop52
140
1.0
102
RTVSPost2010PropOp52
 70
     0
102
RTVSPost2010Prop53
 90
        2
102
RTVSPost2010PropOp53
 70
     1
102
RTVSPost2010Prop54
  1
strokes_ogs.tif
102
RTVSPost2010PropOp54
 70
     1
102
RTVSPost2010Prop55
280
     0
102
RTVSPost2010PropOp55
 70
     1
102
RTVSPost2010Prop56
140
1.0
102
RTVSPost2010PropOp56
 70
     1
102
RTVSPost2010Prop57
140
1.0
102
RTVSPost2010PropOp57
 70
     1
  0
XRECORD
  5
39C
102
{ACAD_REACTORS
330
39B
102
}
330
39B
100
AcDbXrecord
280
     1
102
RTVSPropertyOp0
 70
     1
102
RTVSPropertyOp1
 70
     1
102
RTVSPropertyOp2
 70
     1
102
RTVSPropertyOp3
 70
     1
102
RTVSPropertyOp4
 70
     1
102
RTVSPropertyOp5
 70
     1
102
RTVSPropertyOp6
 70
     1
102
RTVSPropertyOp7
 70
     1
102
RTVSPropertyOp8
 70
     1
102
RTVSPropertyOp9
 70
     1
102
RTVSPropertyOp10
 70
     1
102
RTVSPropertyOp11
 70
     1
102
RTVSPropertyOp12
 70
     1
102
RTVSPropertyOp13
 70
     1
102
RTVSPropertyOp14
 70
     1
102
RTVSPropertyOp15
 70
     1
102
RTVSPropertyOp16
 70
     1
102
RTVSPropertyOp17
 70
     1
102
RTVSPropertyOp18
 70
     1
102
RTVSPropertyOp19
 70
     1
102
RTVSPropertyOp20
 70
     1
102
RTVSPropertyOp21
 70
     1
102
RTVSPropertyOp22
 70
     1
102
RTVSPropertyOp23
 70
     1
102
RTVSPropertyOp24
 70
     1
102
RTVSPropertyOp25
 70
     1
102
RTVSPropertyOp26
 70
     1
102
RTVSPropertyOp27
 70
     1
102
RTVSPropertyOp28
 70
     1
102
RTVSPropertyOp29
 70
     1
102
RTVSPropertyOp30
 70
     1
102
RTVSPropertyOp31
 70
     1
102
RTVSPropertyOp32
 70
     1
102
RTVSPropertyOp33
 70
     1
102
RTVSPropertyOp34
 70
     1
102
RTVSPropertyOp35
 70
     1
102
RTVSPropertyOp36
 70
     1
102
RTVSPropertyOp37
 70
     1
102
RTVSPropertyOp38
 70
     1
102
RTVSPropertyOp39
 70
     1
102
RTVSPropertyOp40
 70
     1
102
RTVSPropertyOp41
 70
     1
102
RTVSPropertyOp42
 70
     1
102
RTVSPropertyOp43
 70
     1
102
RTVSPropertyOp44
 70
     1
102
RTVSPropertyOp45
 70
     1
102
RTVSPropertyOp46
 70
     1
102
RTVSPropertyOp47
 70
     1
102
RTVSPropertyOp48
 70
     1
102
RTVSPropertyOp49
 70
     1
102
RTVSPropertyOp50
 70
     1
102
RTVSPropertyOp51
 70
     0
102
RTVSPropertyOp52
 70
     0
102
RTVSPropertyOp53
 70
     1
102
RTVSPropertyOp54
 70
     1
102
RTVSPropertyOp55
 70
     1
102
RTVSPropertyOp56
 70
     1
102
RTVSPropertyOp57
 70
     1
102
RTVSPost2010Prop28
280
     0
102
RTVSPost2010PropOp28
 70
     1
102
RTVSPost2010Prop29
280
     1
102
RTVSPost2010PropOp29
 70
     1
102
RTVSPost2010Prop30
280
     1
102
RTVSPost2010PropOp30
 70
     1
102
RTVSPost2010Prop31
280
     0
102
RTVSPost2010PropOp31
 70
     1
102
RTVSPost2010Prop32
280
     0
102
RTVSPost2010PropOp32
 70
     1
102
RTVSPost2010Prop33
280
     0
102
RTVSPost2010PropOp33
 70
     1
102
RTVSPost2010Prop34
280
     0
102
RTVSPost2010PropOp34
 70
     1
102
RTVSPost2010Prop35
280
     0
102
RTVSPost2010PropOp35
 70
     1
102
RTVSPost2010Prop36
280
     0
102
RTVSPost2010PropOp36
 70
     1
102
RTVSPost2010Prop37
 90
       50
102
RTVSPost2010PropOp37
 70
     1
102
RTVSPost2010Prop38
140
0.0
102
RTVSPost2010PropOp38
 70
     1
102
RTVSPost2010Prop39
140
1.0
102
RTVSPost2010PropOp39
 70
     1
102
RTVSPost2010Prop40
 90
        0
102
RTVSPost2010PropOp40
 70
     1
102
RTVSPost2010Prop41ColorIndex
 90
       18
102
RTVSPost2010Prop41ColorRGB
 90
        0
102
RTVSPost2010PropOp41
 70
     1
102
RTVSPost2010Prop42
 90
       50
102
RTVSPost2010PropOp42
 70
     1
102
RTVSPost2010Prop43
 90
        3
102
RTVSPost2010PropOp43
 70
     1
102
RTVSPost2010Prop44ColorIndex
 90
        5
102
RTVSPost2010Prop44ColorRGB
 90
      255
102
RTVSPost2010PropOp44
 70
     1
102
RTVSPost2010Prop45
280
     0
102
RTVSPost2010PropOp45
 70
     1
102
RTVSPost2010Prop46
 90
       50
102
RTVSPost2010PropOp46
 70
     1
102
RTVSPost2010Prop47
 90
       50
102
RTVSPost2010PropOp47
 70
     1
102
RTVSPost2010Prop48
 90
       50
102
RTVSPost2010PropOp48
 70
     1
102
RTVSPost2010Prop49
280
     0
102
RTVSPost2010PropOp49
 70
     1
102
RTVSPost2010Prop50
 90
       50
102
RTVSPost2010PropOp50
 70
     1
102
RTVSPost2010Prop51ColorIndex
 90
      256
102
RTVSPost2010Prop51ColorRGB
 90
-16777216
102
RTVSPost2010PropOp51
 70
     0
102
RTVSPost2010Prop52
140
1.0
102
RTVSPost2010PropOp52
 70
     0
102
RTVSPost2010Prop53
 90
        2
102
RTVSPost2010PropOp53
 70
     1
102
RTVSPost2010Prop54
  1
strokes_ogs.tif
102
RTVSPost2010PropOp54
 70
     1
102
RTVSPost2010Prop55
280
     0
102
RTVSPost2010PropOp55
 70
     1
102
RTVSPost2010Prop56
140
1.0
102
RTVSPost2010PropOp56
 70
     1
102
RTVSPost2010Prop57
140
1.0
102
RTVSPost2010PropOp57
 70
     1
  0
XRECORD
  5
390
102
{ACAD_REACTORS
330
38F
102
}
330
38F
100
AcDbXrecord
280
     1
102
RTVSPropertyOp0
 70
     1
102
RTVSPropertyOp1
 70
     1
102
RTVSPropertyOp2
 70
     1
102
RTVSPropertyOp3
 70
     1
102
RTVSPropertyOp4
 70
     1
102
RTVSPropertyOp5
 70
     1
102
RTVSPropertyOp6
 70
     1
102
RTVSPropertyOp7
 70
     1
102
RTVSPropertyOp8
 70
     1
102
RTVSPropertyOp9
 70
     1
102
RTVSPropertyOp10
 70
     1
102
RTVSPropertyOp11
 70
     1
102
RTVSPropertyOp12
 70
     1
102
RTVSPropertyOp13
 70
     1
102
RTVSPropertyOp14
 70
     1
102
RTVSPropertyOp15
 70
     1
102
RTVSPropertyOp16
 70
     1
102
RTVSPropertyOp17
 70
     1
102
RTVSPropertyOp18
 70
     1
102
RTVSPropertyOp19
 70
     1
102
RTVSPropertyOp20
 70
     1
102
RTVSPropertyOp21
 70
     1
102
RTVSPropertyOp22
 70
     1
102
RTVSPropertyOp23
 70
     1
102
RTVSPropertyOp24
 70
     1
102
RTVSPropertyOp25
 70
     1
102
RTVSPropertyOp26
 70
     1
102
RTVSPropertyOp27
 70
     1
102
RTVSPropertyOp28
 70
     1
102
RTVSPropertyOp29
 70
     1
102
RTVSPropertyOp30
 70
     1
102
RTVSPropertyOp31
 70
     1
102
RTVSPropertyOp32
 70
     1
102
RTVSPropertyOp33
 70
     1
102
RTVSPropertyOp34
 70
     1
102
RTVSPropertyOp35
 70
     1
102
RTVSPropertyOp36
 70
     1
102
RTVSPropertyOp37
 70
     1
102
RTVSPropertyOp38
 70
     1
102
RTVSPropertyOp39
 70
     1
102
RTVSPropertyOp40
 70
     1
102
RTVSPropertyOp41
 70
     1
102
RTVSPropertyOp42
 70
     1
102
RTVSPropertyOp43
 70
     1
102
RTVSPropertyOp44
 70
     1
102
RTVSPropertyOp45
 70
     1
102
RTVSPropertyOp46
 70
     1
102
RTVSPropertyOp47
 70
     1
102
RTVSPropertyOp48
 70
     1
102
RTVSPropertyOp49
 70
     1
102
RTVSPropertyOp50
 70
     1
102
RTVSPropertyOp51
 70
     0
102
RTVSPropertyOp52
 70
     0
102
RTVSPropertyOp53
 70
     1
102
RTVSPropertyOp54
 70
     1
102
RTVSPropertyOp55
 70
     1
102
RTVSPropertyOp56
 70
     1
102
RTVSPropertyOp57
 70
     1
102
RTVSPost2010Prop28
280
     0
102
RTVSPost2010PropOp28
 70
     1
102
RTVSPost2010Prop29
280
     1
102
RTVSPost2010PropOp29
 70
     1
102
RTVSPost2010Prop30
280
     1
102
RTVSPost2010PropOp30
 70
     1
102
RTVSPost2010Prop31
280
     0
102
RTVSPost2010PropOp31
 70
     1
102
RTVSPost2010Prop32
280
     0
102
RTVSPost2010PropOp32
 70
     1
102
RTVSPost2010Prop33
280
     0
102
RTVSPost2010PropOp33
 70
     1
102
RTVSPost2010Prop34
280
     0
102
RTVSPost2010PropOp34
 70
     1
102
RTVSPost2010Prop35
280
     0
102
RTVSPost2010PropOp35
 70
     1
102
RTVSPost2010Prop36
280
     0
102
RTVSPost2010PropOp36
 70
     1
102
RTVSPost2010Prop37
 90
       50
102
RTVSPost2010PropOp37
 70
     1
102
RTVSPost2010Prop38
140
0.0
102
RTVSPost2010PropOp38
 70
     1
102
RTVSPost2010Prop39
140
1.0
102
RTVSPost2010PropOp39
 70
     1
102
RTVSPost2010Prop40
 90
        0
102
RTVSPost2010PropOp40
 70
     1
102
RTVSPost2010Prop41ColorIndex
 90
       18
102
RTVSPost2010Prop41ColorRGB
 90
        0
102
RTVSPost2010PropOp41
 70
     1
102
RTVSPost2010Prop42
 90
       50
102
RTVSPost2010PropOp42
 70
     1
102
RTVSPost2010Prop43
 90
        3
102
RTVSPost2010PropOp43
 70
     1
102
RTVSPost2010Prop44ColorIndex
 90
        5
102
RTVSPost2010Prop44ColorRGB
 90
      255
102
RTVSPost2010PropOp44
 70
     1
102
RTVSPost2010Prop45
280
     0
102
RTVSPost2010PropOp45
 70
     1
102
RTVSPost2010Prop46
 90
       50
102
RTVSPost2010PropOp46
 70
     1
102
RTVSPost2010Prop47
 90
       50
102
RTVSPost2010PropOp47
 70
     1
102
RTVSPost2010Prop48
 90
       50
102
RTVSPost2010PropOp48
 70
     1
102
RTVSPost2010Prop49
280
     0
102
RTVSPost2010PropOp49
 70
     1
102
RTVSPost2010Prop50
 90
       50
102
RTVSPost2010PropOp50
 70
     1
102
RTVSPost2010Prop51ColorIndex
 90
      256
102
RTVSPost2010Prop51ColorRGB
 90
-16777216
102
RTVSPost2010PropOp51
 70
     0
102
RTVSPost2010Prop52
140
1.0
102
RTVSPost2010PropOp52
 70
     0
102
RTVSPost2010Prop53
 90
        2
102
RTVSPost2010PropOp53
 70
     1
102
RTVSPost2010Prop54
  1
strokes_ogs.tif
102
RTVSPost2010PropOp54
 70
     1
102
RTVSPost2010Prop55
280
     0
102
RTVSPost2010PropOp55
 70
     1
102
RTVSPost2010Prop56
140
1.0
102
RTVSPost2010PropOp56
 70
     1
102
RTVSPost2010Prop57
140
1.0
102
RTVSPost2010PropOp57
 70
     1
  0
XRECORD
  5
392
102
{ACAD_REACTORS
330
391
102
}
330
391
100
AcDbXrecord
280
     1
102
RTVSPropertyOp0
 70
     1
102
RTVSPropertyOp1
 70
     1
102
RTVSPropertyOp2
 70
     1
102
RTVSPropertyOp3
 70
     1
102
RTVSPropertyOp4
 70
     1
102
RTVSPropertyOp5
 70
     1
102
RTVSPropertyOp6
 70
     1
102
RTVSPropertyOp7
 70
     1
102
RTVSPropertyOp8
 70
     1
102
RTVSPropertyOp9
 70
     1
102
RTVSPropertyOp10
 70
     1
102
RTVSPropertyOp11
 70
     1
102
RTVSPropertyOp12
 70
     1
102
RTVSPropertyOp13
 70
     1
102
RTVSPropertyOp14
 70
     1
102
RTVSPropertyOp15
 70
     1
102
RTVSPropertyOp16
 70
     1
102
RTVSPropertyOp17
 70
     1
102
RTVSPropertyOp18
 70
     1
102
RTVSPropertyOp19
 70
     1
102
RTVSPropertyOp20
 70
     1
102
RTVSPropertyOp21
 70
     1
102
RTVSPropertyOp22
 70
     1
102
RTVSPropertyOp23
 70
     1
102
RTVSPropertyOp24
 70
     1
102
RTVSPropertyOp25
 70
     1
102
RTVSPropertyOp26
 70
     1
102
RTVSPropertyOp27
 70
     1
102
RTVSPropertyOp28
 70
     1
102
RTVSPropertyOp29
 70
     1
102
RTVSPropertyOp30
 70
     1
102
RTVSPropertyOp31
 70
     1
102
RTVSPropertyOp32
 70
     1
102
RTVSPropertyOp33
 70
     1
102
RTVSPropertyOp34
 70
     1
102
RTVSPropertyOp35
 70
     1
102
RTVSPropertyOp36
 70
     1
102
RTVSPropertyOp37
 70
     1
102
RTVSPropertyOp38
 70
     1
102
RTVSPropertyOp39
 70
     1
102
RTVSPropertyOp40
 70
     1
102
RTVSPropertyOp41
 70
     1
102
RTVSPropertyOp42
 70
     1
102
RTVSPropertyOp43
 70
     1
102
RTVSPropertyOp44
 70
     1
102
RTVSPropertyOp45
 70
     1
102
RTVSPropertyOp46
 70
     1
102
RTVSPropertyOp47
 70
     1
102
RTVSPropertyOp48
 70
     1
102
RTVSPropertyOp49
 70
     1
102
RTVSPropertyOp50
 70
     1
102
RTVSPropertyOp51
 70
     0
102
RTVSPropertyOp52
 70
     0
102
RTVSPropertyOp53
 70
     1
102
RTVSPropertyOp54
 70
     1
102
RTVSPropertyOp55
 70
     1
102
RTVSPropertyOp56
 70
     1
102
RTVSPropertyOp57
 70
     1
102
RTVSPost2010Prop28
280
     0
102
RTVSPost2010PropOp28
 70
     1
102
RTVSPost2010Prop29
280
     1
102
RTVSPost2010PropOp29
 70
     1
102
RTVSPost2010Prop30
280
     1
102
RTVSPost2010PropOp30
 70
     1
102
RTVSPost2010Prop31
280
     0
102
RTVSPost2010PropOp31
 70
     1
102
RTVSPost2010Prop32
280
     0
102
RTVSPost2010PropOp32
 70
     1
102
RTVSPost2010Prop33
280
     0
102
RTVSPost2010PropOp33
 70
     1
102
RTVSPost2010Prop34
280
     0
102
RTVSPost2010PropOp34
 70
     1
102
RTVSPost2010Prop35
280
     0
102
RTVSPost2010PropOp35
 70
     1
102
RTVSPost2010Prop36
280
     0
102
RTVSPost2010PropOp36
 70
     1
102
RTVSPost2010Prop37
 90
       50
102
RTVSPost2010PropOp37
 70
     1
102
RTVSPost2010Prop38
140
0.0
102
RTVSPost2010PropOp38
 70
     1
102
RTVSPost2010Prop39
140
1.0
102
RTVSPost2010PropOp39
 70
     1
102
RTVSPost2010Prop40
 90
        0
102
RTVSPost2010PropOp40
 70
     1
102
RTVSPost2010Prop41ColorIndex
 90
       18
102
RTVSPost2010Prop41ColorRGB
 90
        0
102
RTVSPost2010PropOp41
 70
     1
102
RTVSPost2010Prop42
 90
       50
102
RTVSPost2010PropOp42
 70
     1
102
RTVSPost2010Prop43
 90
        3
102
RTVSPost2010PropOp43
 70
     1
102
RTVSPost2010Prop44ColorIndex
 90
        5
102
RTVSPost2010Prop44ColorRGB
 90
      255
102
RTVSPost2010PropOp44
 70
     1
102
RTVSPost2010Prop45
280
     0
102
RTVSPost2010PropOp45
 70
     1
102
RTVSPost2010Prop46
 90
       50
102
RTVSPost2010PropOp46
 70
     1
102
RTVSPost2010Prop47
 90
       50
102
RTVSPost2010PropOp47
 70
     1
102
RTVSPost2010Prop48
 90
       50
102
RTVSPost2010PropOp48
 70
     1
102
RTVSPost2010Prop49
280
     0
102
RTVSPost2010PropOp49
 70
     1
102
RTVSPost2010Prop50
 90
       50
102
RTVSPost2010PropOp50
 70
     1
102
RTVSPost2010Prop51ColorIndex
 90
      256
102
RTVSPost2010Prop51ColorRGB
 90
-16777216
102
RTVSPost2010PropOp51
 70
     0
102
RTVSPost2010Prop52
140
1.0
102
RTVSPost2010PropOp52
 70
     0
102
RTVSPost2010Prop53
 90
        2
102
RTVSPost2010PropOp53
 70
     1
102
RTVSPost2010Prop54
  1
strokes_ogs.tif
102
RTVSPost2010PropOp54
 70
     1
102
RTVSPost2010Prop55
280
     0
102
RTVSPost2010PropOp55
 70
     1
102
RTVSPost2010Prop56
140
1.0
102
RTVSPost2010PropOp56
 70
     1
102
RTVSPost2010Prop57
140
1.0
102
RTVSPost2010PropOp57
 70
     1
  0
XRECORD
  5
3A2
102
{ACAD_REACTORS
330
3A1
102
}
330
3A1
100
AcDbXrecord
280
     1
102
RTVSPropertyOp0
 70
     0
102
RTVSPropertyOp1
 70
     0
102
RTVSPropertyOp2
 70
     0
102
RTVSPropertyOp3
 70
     0
102
RTVSPropertyOp4
 70
     0
102
RTVSPropertyOp5
 70
     0
102
RTVSPropertyOp6
 70
     0
102
RTVSPropertyOp7
 70
     0
102
RTVSPropertyOp8
 70
     0
102
RTVSPropertyOp9
 70
     0
102
RTVSPropertyOp10
 70
     0
102
RTVSPropertyOp11
 70
     0
102
RTVSPropertyOp12
 70
     0
102
RTVSPropertyOp13
 70
     0
102
RTVSPropertyOp14
 70
     2
102
RTVSPropertyOp15
 70
     0
102
RTVSPropertyOp16
 70
     0
102
RTVSPropertyOp17
 70
     0
102
RTVSPropertyOp18
 70
     0
102
RTVSPropertyOp19
 70
     0
102
RTVSPropertyOp20
 70
     0
102
RTVSPropertyOp21
 70
     0
102
RTVSPropertyOp22
 70
     0
102
RTVSPropertyOp23
 70
     0
102
RTVSPropertyOp24
 70
     0
102
RTVSPropertyOp25
 70
     0
102
RTVSPropertyOp26
 70
     0
102
RTVSPropertyOp27
 70
     0
102
RTVSPropertyOp28
 70
     0
102
RTVSPropertyOp29
 70
     0
102
RTVSPropertyOp30
 70
     0
102
RTVSPropertyOp31
 70
     0
102
RTVSPropertyOp32
 70
     0
102
RTVSPropertyOp33
 70
     0
102
RTVSPropertyOp34
 70
     0
102
RTVSPropertyOp35
 70
     0
102
RTVSPropertyOp36
 70
     0
102
RTVSPropertyOp37
 70
     0
102
RTVSPropertyOp38
 70
     0
102
RTVSPropertyOp39
 70
     0
102
RTVSPropertyOp40
 70
     0
102
RTVSPropertyOp41
 70
     0
102
RTVSPropertyOp42
 70
     0
102
RTVSPropertyOp43
 70
     0
102
RTVSPropertyOp44
 70
     0
102
RTVSPropertyOp45
 70
     0
102
RTVSPropertyOp46
 70
     0
102
RTVSPropertyOp47
 70
     0
102
RTVSPropertyOp48
 70
     0
102
RTVSPropertyOp49
 70
     0
102
RTVSPropertyOp50
 70
     0
102
RTVSPropertyOp51
 70
     0
102
RTVSPropertyOp52
 70
     0
102
RTVSPropertyOp53
 70
     0
102
RTVSPropertyOp54
 70
     0
102
RTVSPropertyOp55
 70
     0
102
RTVSPropertyOp56
 70
     0
102
RTVSPropertyOp57
 70
     0
102
RTVSPost2010Prop28
280
     0
102
RTVSPost2010PropOp28
 70
     0
102
RTVSPost2010Prop29
280
     1
102
RTVSPost2010PropOp29
 70
     0
102
RTVSPost2010Prop30
280
     1
102
RTVSPost2010PropOp30
 70
     0
102
RTVSPost2010Prop31
280
     0
102
RTVSPost2010PropOp31
 70
     0
102
RTVSPost2010Prop32
280
     0
102
RTVSPost2010PropOp32
 70
     0
102
RTVSPost2010Prop33
280
     0
102
RTVSPost2010PropOp33
 70
     0
102
RTVSPost2010Prop34
280
     0
102
RTVSPost2010PropOp34
 70
     0
102
RTVSPost2010Prop35
280
     0
102
RTVSPost2010PropOp35
 70
     0
102
RTVSPost2010Prop36
280
     0
102
RTVSPost2010PropOp36
 70
     0
102
RTVSPost2010Prop37
 90
       50
102
RTVSPost2010PropOp37
 70
     0
102
RTVSPost2010Prop38
140
0.0
102
RTVSPost2010PropOp38
 70
     0
102
RTVSPost2010Prop39
140
1.0
102
RTVSPost2010PropOp39
 70
     0
102
RTVSPost2010Prop40
 90
        0
102
RTVSPost2010PropOp40
 70
     0
102
RTVSPost2010Prop41ColorIndex
 90
       18
102
RTVSPost2010Prop41ColorRGB
 90
        0
102
RTVSPost2010PropOp41
 70
     0
102
RTVSPost2010Prop42
 90
       50
102
RTVSPost2010PropOp42
 70
     0
102
RTVSPost2010Prop43
 90
        3
102
RTVSPost2010PropOp43
 70
     0
102
RTVSPost2010Prop44ColorIndex
 90
        5
102
RTVSPost2010Prop44ColorRGB
 90
      255
102
RTVSPost2010PropOp44
 70
     0
102
RTVSPost2010Prop45
280
     0
102
RTVSPost2010PropOp45
 70
     0
102
RTVSPost2010Prop46
 90
       50
102
RTVSPost2010PropOp46
 70
     0
102
RTVSPost2010Prop47
 90
       50
102
RTVSPost2010PropOp47
 70
     0
102
RTVSPost2010Prop48
 90
       50
102
RTVSPost2010PropOp48
 70
     0
102
RTVSPost2010Prop49
280
     0
102
RTVSPost2010PropOp49
 70
     0
102
RTVSPost2010Prop50
 90
       50
102
RTVSPost2010PropOp50
 70
     0
102
RTVSPost2010Prop51ColorIndex
 90
      256
102
RTVSPost2010Prop51ColorRGB
 90
-16777216
102
RTVSPost2010PropOp51
 70
     0
102
RTVSPost2010Prop52
140
1.0
102
RTVSPost2010PropOp52
 70
     0
102
RTVSPost2010Prop53
 90
        2
102
RTVSPost2010PropOp53
 70
     0
102
RTVSPost2010Prop54
  1
strokes_ogs.tif
102
RTVSPost2010PropOp54
 70
     0
102
RTVSPost2010Prop55
280
     0
102
RTVSPost2010PropOp55
 70
     0
102
RTVSPost2010Prop56
140
1.0
102
RTVSPost2010PropOp56
 70
     0
102
RTVSPost2010Prop57
140
1.0
102
RTVSPost2010PropOp57
 70
     0
  0
XRECORD
  5
39A
102
{ACAD_REACTORS
330
399
102
}
330
399
100
AcDbXrecord
280
     1
102
RTVSPropertyOp0
 70
     1
102
RTVSPropertyOp1
 70
     1
102
RTVSPropertyOp2
 70
     1
102
RTVSPropertyOp3
 70
     1
102
RTVSPropertyOp4
 70
     1
102
RTVSPropertyOp5
 70
     1
102
RTVSPropertyOp6
 70
     1
102
RTVSPropertyOp7
 70
     1
102
RTVSPropertyOp8
 70
     1
102
RTVSPropertyOp9
 70
     1
102
RTVSPropertyOp10
 70
     1
102
RTVSPropertyOp11
 70
     1
102
RTVSPropertyOp12
 70
     1
102
RTVSPropertyOp13
 70
     1
102
RTVSPropertyOp14
 70
     1
102
RTVSPropertyOp15
 70
     1
102
RTVSPropertyOp16
 70
     1
102
RTVSPropertyOp17
 70
     1
102
RTVSPropertyOp18
 70
     1
102
RTVSPropertyOp19
 70
     1
102
RTVSPropertyOp20
 70
     1
102
RTVSPropertyOp21
 70
     1
102
RTVSPropertyOp22
 70
     1
102
RTVSPropertyOp23
 70
     1
102
RTVSPropertyOp24
 70
     1
102
RTVSPropertyOp25
 70
     1
102
RTVSPropertyOp26
 70
     1
102
RTVSPropertyOp27
 70
     1
102
RTVSPropertyOp28
 70
     1
102
RTVSPropertyOp29
 70
     1
102
RTVSPropertyOp30
 70
     1
102
RTVSPropertyOp31
 70
     1
102
RTVSPropertyOp32
 70
     1
102
RTVSPropertyOp33
 70
     1
102
RTVSPropertyOp34
 70
     1
102
RTVSPropertyOp35
 70
     1
102
RTVSPropertyOp36
 70
     1
102
RTVSPropertyOp37
 70
     1
102
RTVSPropertyOp38
 70
     1
102
RTVSPropertyOp39
 70
     1
102
RTVSPropertyOp40
 70
     1
102
RTVSPropertyOp41
 70
     1
102
RTVSPropertyOp42
 70
     1
102
RTVSPropertyOp43
 70
     1
102
RTVSPropertyOp44
 70
     1
102
RTVSPropertyOp45
 70
     1
102
RTVSPropertyOp46
 70
     1
102
RTVSPropertyOp47
 70
     1
102
RTVSPropertyOp48
 70
     1
102
RTVSPropertyOp49
 70
     1
102
RTVSPropertyOp50
 70
     1
102
RTVSPropertyOp51
 70
     0
102
RTVSPropertyOp52
 70
     0
102
RTVSPropertyOp53
 70
     1
102
RTVSPropertyOp54
 70
     1
102
RTVSPropertyOp55
 70
     1
102
RTVSPropertyOp56
 70
     1
102
RTVSPropertyOp57
 70
     1
102
RTVSPost2010Prop28
280
     0
102
RTVSPost2010PropOp28
 70
     1
102
RTVSPost2010Prop29
280
     1
102
RTVSPost2010PropOp29
 70
     1
102
RTVSPost2010Prop30
280
     1
102
RTVSPost2010PropOp30
 70
     1
102
RTVSPost2010Prop31
280
     0
102
RTVSPost2010PropOp31
 70
     1
102
RTVSPost2010Prop32
280
     0
102
RTVSPost2010PropOp32
 70
     1
102
RTVSPost2010Prop33
280
     0
102
RTVSPost2010PropOp33
 70
     1
102
RTVSPost2010Prop34
280
     0
102
RTVSPost2010PropOp34
 70
     1
102
RTVSPost2010Prop35
280
     0
102
RTVSPost2010PropOp35
 70
     1
102
RTVSPost2010Prop36
280
     0
102
RTVSPost2010PropOp36
 70
     1
102
RTVSPost2010Prop37
 90
       50
102
RTVSPost2010PropOp37
 70
     1
102
RTVSPost2010Prop38
140
0.0
102
RTVSPost2010PropOp38
 70
     1
102
RTVSPost2010Prop39
140
1.0
102
RTVSPost2010PropOp39
 70
     1
102
RTVSPost2010Prop40
 90
        0
102
RTVSPost2010PropOp40
 70
     1
102
RTVSPost2010Prop41ColorIndex
 90
       18
102
RTVSPost2010Prop41ColorRGB
 90
        0
102
RTVSPost2010PropOp41
 70
     1
102
RTVSPost2010Prop42
 90
       50
102
RTVSPost2010PropOp42
 70
     1
102
RTVSPost2010Prop43
 90
        3
102
RTVSPost2010PropOp43
 70
     1
102
RTVSPost2010Prop44ColorIndex
 90
        5
102
RTVSPost2010Prop44ColorRGB
 90
      255
102
RTVSPost2010PropOp44
 70
     1
102
RTVSPost2010Prop45
280
     0
102
RTVSPost2010PropOp45
 70
     1
102
RTVSPost2010Prop46
 90
       50
102
RTVSPost2010PropOp46
 70
     1
102
RTVSPost2010Prop47
 90
       50
102
RTVSPost2010PropOp47
 70
     1
102
RTVSPost2010Prop48
 90
       50
102
RTVSPost2010PropOp48
 70
     1
102
RTVSPost2010Prop49
280
     0
102
RTVSPost2010PropOp49
 70
     1
102
RTVSPost2010Prop50
 90
       50
102
RTVSPost2010PropOp50
 70
     1
102
RTVSPost2010Prop51ColorIndex
 90
      256
102
RTVSPost2010Prop51ColorRGB
 90
-16777216
102
RTVSPost2010PropOp51
 70
     0
102
RTVSPost2010Prop52
140
1.0
102
RTVSPost2010PropOp52
 70
     0
102
RTVSPost2010Prop53
 90
        2
102
RTVSPost2010PropOp53
 70
     1
102
RTVSPost2010Prop54
  1
strokes_ogs.tif
102
RTVSPost2010PropOp54
 70
     1
102
RTVSPost2010Prop55
280
     0
102
RTVSPost2010PropOp55
 70
     1
102
RTVSPost2010Prop56
140
1.0
102
RTVSPost2010PropOp56
 70
     1
102
RTVSPost2010Prop57
140
1.0
102
RTVSPost2010PropOp57
 70
     1
  0
XRECORD
  5
37E
102
{ACAD_REACTORS
330
37D
102
}
330
37D
100
AcDbXrecord
280
     1
102
RTVSPropertyOp0
 70
     1
102
RTVSPropertyOp1
 70
     1
102
RTVSPropertyOp2
 70
     1
102
RTVSPropertyOp3
 70
     1
102
RTVSPropertyOp4
 70
     1
102
RTVSPropertyOp5
 70
     1
102
RTVSPropertyOp6
 70
     1
102
RTVSPropertyOp7
 70
     1
102
RTVSPropertyOp8
 70
     1
102
RTVSPropertyOp9
 70
     1
102
RTVSPropertyOp10
 70
     1
102
RTVSPropertyOp11
 70
     1
102
RTVSPropertyOp12
 70
     1
102
RTVSPropertyOp13
 70
     1
102
RTVSPropertyOp14
 70
     1
102
RTVSPropertyOp15
 70
     1
102
RTVSPropertyOp16
 70
     1
102
RTVSPropertyOp17
 70
     1
102
RTVSPropertyOp18
 70
     1
102
RTVSPropertyOp19
 70
     1
102
RTVSPropertyOp20
 70
     1
102
RTVSPropertyOp21
 70
     1
102
RTVSPropertyOp22
 70
     1
102
RTVSPropertyOp23
 70
     1
102
RTVSPropertyOp24
 70
     1
102
RTVSPropertyOp25
 70
     1
102
RTVSPropertyOp26
 70
     1
102
RTVSPropertyOp27
 70
     1
102
RTVSPropertyOp28
 70
     1
102
RTVSPropertyOp29
 70
     1
102
RTVSPropertyOp30
 70
     1
102
RTVSPropertyOp31
 70
     1
102
RTVSPropertyOp32
 70
     1
102
RTVSPropertyOp33
 70
     1
102
RTVSPropertyOp34
 70
     1
102
RTVSPropertyOp35
 70
     1
102
RTVSPropertyOp36
 70
     1
102
RTVSPropertyOp37
 70
     1
102
RTVSPropertyOp38
 70
     1
102
RTVSPropertyOp39
 70
     1
102
RTVSPropertyOp40
 70
     1
102
RTVSPropertyOp41
 70
     1
102
RTVSPropertyOp42
 70
     1
102
RTVSPropertyOp43
 70
     1
102
RTVSPropertyOp44
 70
     1
102
RTVSPropertyOp45
 70
     1
102
RTVSPropertyOp46
 70
     1
102
RTVSPropertyOp47
 70
     1
102
RTVSPropertyOp48
 70
     1
102
RTVSPropertyOp49
 70
     1
102
RTVSPropertyOp50
 70
     1
102
RTVSPropertyOp51
 70
     0
102
RTVSPropertyOp52
 70
     0
102
RTVSPropertyOp53
 70
     1
102
RTVSPropertyOp54
 70
     1
102
RTVSPropertyOp55
 70
     1
102
RTVSPropertyOp56
 70
     1
102
RTVSPropertyOp57
 70
     1
102
RTVSPost2010Prop28
280
     0
102
RTVSPost2010PropOp28
 70
     1
102
RTVSPost2010Prop29
280
     1
102
RTVSPost2010PropOp29
 70
     1
102
RTVSPost2010Prop30
280
     1
102
RTVSPost2010PropOp30
 70
     1
102
RTVSPost2010Prop31
280
     0
102
RTVSPost2010PropOp31
 70
     1
102
RTVSPost2010Prop32
280
     0
102
RTVSPost2010PropOp32
 70
     1
102
RTVSPost2010Prop33
280
     0
102
RTVSPost2010PropOp33
 70
     1
102
RTVSPost2010Prop34
280
     0
102
RTVSPost2010PropOp34
 70
     1
102
RTVSPost2010Prop35
280
     0
102
RTVSPost2010PropOp35
 70
     1
102
RTVSPost2010Prop36
280
     0
102
RTVSPost2010PropOp36
 70
     1
102
RTVSPost2010Prop37
 90
       50
102
RTVSPost2010PropOp37
 70
     1
102
RTVSPost2010Prop38
140
0.0
102
RTVSPost2010PropOp38
 70
     1
102
RTVSPost2010Prop39
140
1.0
102
RTVSPost2010PropOp39
 70
     1
102
RTVSPost2010Prop40
 90
        0
102
RTVSPost2010PropOp40
 70
     1
102
RTVSPost2010Prop41ColorIndex
 90
       18
102
RTVSPost2010Prop41ColorRGB
 90
        0
102
RTVSPost2010PropOp41
 70
     1
102
RTVSPost2010Prop42
 90
       50
102
RTVSPost2010PropOp42
 70
     1
102
RTVSPost2010Prop43
 90
        3
102
RTVSPost2010PropOp43
 70
     1
102
RTVSPost2010Prop44ColorIndex
 90
        5
102
RTVSPost2010Prop44ColorRGB
 90
      255
102
RTVSPost2010PropOp44
 70
     1
102
RTVSPost2010Prop45
280
     0
102
RTVSPost2010PropOp45
 70
     1
102
RTVSPost2010Prop46
 90
       50
102
RTVSPost2010PropOp46
 70
     1
102
RTVSPost2010Prop47
 90
       50
102
RTVSPost2010PropOp47
 70
     1
102
RTVSPost2010Prop48
 90
       50
102
RTVSPost2010PropOp48
 70
     1
102
RTVSPost2010Prop49
280
     0
102
RTVSPost2010PropOp49
 70
     1
102
RTVSPost2010Prop50
 90
       50
102
RTVSPost2010PropOp50
 70
     1
102
RTVSPost2010Prop51ColorIndex
 90
      256
102
RTVSPost2010Prop51ColorRGB
 90
-16777216
102
RTVSPost2010PropOp51
 70
     0
102
RTVSPost2010Prop52
140
1.0
102
RTVSPost2010PropOp52
 70
     0
102
RTVSPost2010Prop53
 90
        2
102
RTVSPost2010PropOp53
 70
     1
102
RTVSPost2010Prop54
  1
strokes_ogs.tif
102
RTVSPost2010PropOp54
 70
     1
102
RTVSPost2010Prop55
280
     0
102
RTVSPost2010PropOp55
 70
     1
102
RTVSPost2010Prop56
140
1.0
102
RTVSPost2010PropOp56
 70
     1
102
RTVSPost2010Prop57
140
1.0
102
RTVSPost2010PropOp57
 70
     1
  0
XRECORD
  5
380
102
{ACAD_REACTORS
330
37F
102
}
330
37F
100
AcDbXrecord
280
     1
102
RTVSPropertyOp0
 70
     1
102
RTVSPropertyOp1
 70
     1
102
RTVSPropertyOp2
 70
     1
102
RTVSPropertyOp3
 70
     1
102
RTVSPropertyOp4
 70
     1
102
RTVSPropertyOp5
 70
     1
102
RTVSPropertyOp6
 70
     1
102
RTVSPropertyOp7
 70
     1
102
RTVSPropertyOp8
 70
     1
102
RTVSPropertyOp9
 70
     1
102
RTVSPropertyOp10
 70
     1
102
RTVSPropertyOp11
 70
     1
102
RTVSPropertyOp12
 70
     1
102
RTVSPropertyOp13
 70
     1
102
RTVSPropertyOp14
 70
     1
102
RTVSPropertyOp15
 70
     1
102
RTVSPropertyOp16
 70
     1
102
RTVSPropertyOp17
 70
     1
102
RTVSPropertyOp18
 70
     1
102
RTVSPropertyOp19
 70
     1
102
RTVSPropertyOp20
 70
     1
102
RTVSPropertyOp21
 70
     1
102
RTVSPropertyOp22
 70
     1
102
RTVSPropertyOp23
 70
     1
102
RTVSPropertyOp24
 70
     1
102
RTVSPropertyOp25
 70
     1
102
RTVSPropertyOp26
 70
     1
102
RTVSPropertyOp27
 70
     1
102
RTVSPropertyOp28
 70
     1
102
RTVSPropertyOp29
 70
     1
102
RTVSPropertyOp30
 70
     1
102
RTVSPropertyOp31
 70
     1
102
RTVSPropertyOp32
 70
     1
102
RTVSPropertyOp33
 70
     1
102
RTVSPropertyOp34
 70
     1
102
RTVSPropertyOp35
 70
     1
102
RTVSPropertyOp36
 70
     1
102
RTVSPropertyOp37
 70
     1
102
RTVSPropertyOp38
 70
     1
102
RTVSPropertyOp39
 70
     1
102
RTVSPropertyOp40
 70
     1
102
RTVSPropertyOp41
 70
     1
102
RTVSPropertyOp42
 70
     1
102
RTVSPropertyOp43
 70
     1
102
RTVSPropertyOp44
 70
     1
102
RTVSPropertyOp45
 70
     1
102
RTVSPropertyOp46
 70
     1
102
RTVSPropertyOp47
 70
     1
102
RTVSPropertyOp48
 70
     1
102
RTVSPropertyOp49
 70
     1
102
RTVSPropertyOp50
 70
     1
102
RTVSPropertyOp51
 70
     0
102
RTVSPropertyOp52
 70
     0
102
RTVSPropertyOp53
 70
     1
102
RTVSPropertyOp54
 70
     1
102
RTVSPropertyOp55
 70
     1
102
RTVSPropertyOp56
 70
     1
102
RTVSPropertyOp57
 70
     1
102
RTVSPost2010Prop28
280
     0
102
RTVSPost2010PropOp28
 70
     1
102
RTVSPost2010Prop29
280
     1
102
RTVSPost2010PropOp29
 70
     1
102
RTVSPost2010Prop30
280
     1
102
RTVSPost2010PropOp30
 70
     1
102
RTVSPost2010Prop31
280
     0
102
RTVSPost2010PropOp31
 70
     1
102
RTVSPost2010Prop32
280
     0
102
RTVSPost2010PropOp32
 70
     1
102
RTVSPost2010Prop33
280
     0
102
RTVSPost2010PropOp33
 70
     1
102
RTVSPost2010Prop34
280
     0
102
RTVSPost2010PropOp34
 70
     1
102
RTVSPost2010Prop35
280
     0
102
RTVSPost2010PropOp35
 70
     1
102
RTVSPost2010Prop36
280
     0
102
RTVSPost2010PropOp36
 70
     1
102
RTVSPost2010Prop37
 90
       50
102
RTVSPost2010PropOp37
 70
     1
102
RTVSPost2010Prop38
140
0.0
102
RTVSPost2010PropOp38
 70
     1
102
RTVSPost2010Prop39
140
1.0
102
RTVSPost2010PropOp39
 70
     1
102
RTVSPost2010Prop40
 90
        0
102
RTVSPost2010PropOp40
 70
     1
102
RTVSPost2010Prop41ColorIndex
 90
       18
102
RTVSPost2010Prop41ColorRGB
 90
        0
102
RTVSPost2010PropOp41
 70
     1
102
RTVSPost2010Prop42
 90
       50
102
RTVSPost2010PropOp42
 70
     1
102
RTVSPost2010Prop43
 90
        3
102
RTVSPost2010PropOp43
 70
     1
102
RTVSPost2010Prop44ColorIndex
 90
        5
102
RTVSPost2010Prop44ColorRGB
 90
      255
102
RTVSPost2010PropOp44
 70
     1
102
RTVSPost2010Prop45
280
     0
102
RTVSPost2010PropOp45
 70
     1
102
RTVSPost2010Prop46
 90
       50
102
RTVSPost2010PropOp46
 70
     1
102
RTVSPost2010Prop47
 90
       50
102
RTVSPost2010PropOp47
 70
     1
102
RTVSPost2010Prop48
 90
       50
102
RTVSPost2010PropOp48
 70
     1
102
RTVSPost2010Prop49
280
     0
102
RTVSPost2010PropOp49
 70
     1
102
RTVSPost2010Prop50
 90
       50
102
RTVSPost2010PropOp50
 70
     1
102
RTVSPost2010Prop51ColorIndex
 90
      256
102
RTVSPost2010Prop51ColorRGB
 90
-16777216
102
RTVSPost2010PropOp51
 70
     0
102
RTVSPost2010Prop52
140
1.0
102
RTVSPost2010PropOp52
 70
     0
102
RTVSPost2010Prop53
 90
        2
102
RTVSPost2010PropOp53
 70
     1
102
RTVSPost2010Prop54
  1
strokes_ogs.tif
102
RTVSPost2010PropOp54
 70
     1
102
RTVSPost2010Prop55
280
     0
102
RTVSPost2010PropOp55
 70
     1
102
RTVSPost2010Prop56
140
1.0
102
RTVSPost2010PropOp56
 70
     1
102
RTVSPost2010Prop57
140
1.0
102
RTVSPost2010PropOp57
 70
     1
  0
XRECORD
  5
382
102
{ACAD_REACTORS
330
381
102
}
330
381
100
AcDbXrecord
280
     1
102
RTVSPropertyOp0
 70
     1
102
RTVSPropertyOp1
 70
     1
102
RTVSPropertyOp2
 70
     1
102
RTVSPropertyOp3
 70
     1
102
RTVSPropertyOp4
 70
     1
102
RTVSPropertyOp5
 70
     1
102
RTVSPropertyOp6
 70
     1
102
RTVSPropertyOp7
 70
     1
102
RTVSPropertyOp8
 70
     1
102
RTVSPropertyOp9
 70
     1
102
RTVSPropertyOp10
 70
     1
102
RTVSPropertyOp11
 70
     1
102
RTVSPropertyOp12
 70
     1
102
RTVSPropertyOp13
 70
     1
102
RTVSPropertyOp14
 70
     1
102
RTVSPropertyOp15
 70
     1
102
RTVSPropertyOp16
 70
     1
102
RTVSPropertyOp17
 70
     1
102
RTVSPropertyOp18
 70
     1
102
RTVSPropertyOp19
 70
     1
102
RTVSPropertyOp20
 70
     1
102
RTVSPropertyOp21
 70
     1
102
RTVSPropertyOp22
 70
     1
102
RTVSPropertyOp23
 70
     1
102
RTVSPropertyOp24
 70
     1
102
RTVSPropertyOp25
 70
     1
102
RTVSPropertyOp26
 70
     1
102
RTVSPropertyOp27
 70
     1
102
RTVSPropertyOp28
 70
     1
102
RTVSPropertyOp29
 70
     1
102
RTVSPropertyOp30
 70
     1
102
RTVSPropertyOp31
 70
     1
102
RTVSPropertyOp32
 70
     1
102
RTVSPropertyOp33
 70
     1
102
RTVSPropertyOp34
 70
     1
102
RTVSPropertyOp35
 70
     1
102
RTVSPropertyOp36
 70
     1
102
RTVSPropertyOp37
 70
     1
102
RTVSPropertyOp38
 70
     1
102
RTVSPropertyOp39
 70
     1
102
RTVSPropertyOp40
 70
     1
102
RTVSPropertyOp41
 70
     1
102
RTVSPropertyOp42
 70
     1
102
RTVSPropertyOp43
 70
     1
102
RTVSPropertyOp44
 70
     1
102
RTVSPropertyOp45
 70
     1
102
RTVSPropertyOp46
 70
     1
102
RTVSPropertyOp47
 70
     1
102
RTVSPropertyOp48
 70
     1
102
RTVSPropertyOp49
 70
     1
102
RTVSPropertyOp50
 70
     1
102
RTVSPropertyOp51
 70
     0
102
RTVSPropertyOp52
 70
     0
102
RTVSPropertyOp53
 70
     1
102
RTVSPropertyOp54
 70
     1
102
RTVSPropertyOp55
 70
     1
102
RTVSPropertyOp56
 70
     1
102
RTVSPropertyOp57
 70
     1
102
RTVSPost2010Prop28
280
     0
102
RTVSPost2010PropOp28
 70
     1
102
RTVSPost2010Prop29
280
     1
102
RTVSPost2010PropOp29
 70
     1
102
RTVSPost2010Prop30
280
     1
102
RTVSPost2010PropOp30
 70
     1
102
RTVSPost2010Prop31
280
     0
102
RTVSPost2010PropOp31
 70
     1
102
RTVSPost2010Prop32
280
     0
102
RTVSPost2010PropOp32
 70
     1
102
RTVSPost2010Prop33
280
     0
102
RTVSPost2010PropOp33
 70
     1
102
RTVSPost2010Prop34
280
     0
102
RTVSPost2010PropOp34
 70
     1
102
RTVSPost2010Prop35
280
     0
102
RTVSPost2010PropOp35
 70
     1
102
RTVSPost2010Prop36
280
     0
102
RTVSPost2010PropOp36
 70
     1
102
RTVSPost2010Prop37
 90
       50
102
RTVSPost2010PropOp37
 70
     1
102
RTVSPost2010Prop38
140
0.0
102
RTVSPost2010PropOp38
 70
     1
102
RTVSPost2010Prop39
140
1.0
102
RTVSPost2010PropOp39
 70
     1
102
RTVSPost2010Prop40
 90
        0
102
RTVSPost2010PropOp40
 70
     1
102
RTVSPost2010Prop41ColorIndex
 90
       18
102
RTVSPost2010Prop41ColorRGB
 90
        0
102
RTVSPost2010PropOp41
 70
     1
102
RTVSPost2010Prop42
 90
       50
102
RTVSPost2010PropOp42
 70
     1
102
RTVSPost2010Prop43
 90
        3
102
RTVSPost2010PropOp43
 70
     1
102
RTVSPost2010Prop44ColorIndex
 90
        5
102
RTVSPost2010Prop44ColorRGB
 90
      255
102
RTVSPost2010PropOp44
 70
     1
102
RTVSPost2010Prop45
280
     0
102
RTVSPost2010PropOp45
 70
     1
102
RTVSPost2010Prop46
 90
       50
102
RTVSPost2010PropOp46
 70
     1
102
RTVSPost2010Prop47
 90
       50
102
RTVSPost2010PropOp47
 70
     1
102
RTVSPost2010Prop48
 90
       50
102
RTVSPost2010PropOp48
 70
     1
102
RTVSPost2010Prop49
280
     0
102
RTVSPost2010PropOp49
 70
     1
102
RTVSPost2010Prop50
 90
       50
102
RTVSPost2010PropOp50
 70
     1
102
RTVSPost2010Prop51ColorIndex
 90
      256
102
RTVSPost2010Prop51ColorRGB
 90
-16777216
102
RTVSPost2010PropOp51
 70
     0
102
RTVSPost2010Prop52
140
1.0
102
RTVSPost2010PropOp52
 70
     0
102
RTVSPost2010Prop53
 90
        2
102
RTVSPost2010PropOp53
 70
     1
102
RTVSPost2010Prop54
  1
strokes_ogs.tif
102
RTVSPost2010PropOp54
 70
     1
102
RTVSPost2010Prop55
280
     0
102
RTVSPost2010PropOp55
 70
     1
102
RTVSPost2010Prop56
140
1.0
102
RTVSPost2010PropOp56
 70
     1
102
RTVSPost2010Prop57
140
1.0
102
RTVSPost2010PropOp57
 70
     1
  0
XRECORD
  5
384
102
{ACAD_REACTORS
330
383
102
}
330
383
100
AcDbXrecord
280
     1
102
RTVSPropertyOp0
 70
     1
102
RTVSPropertyOp1
 70
     1
102
RTVSPropertyOp2
 70
     1
102
RTVSPropertyOp3
 70
     1
102
RTVSPropertyOp4
 70
     1
102
RTVSPropertyOp5
 70
     1
102
RTVSPropertyOp6
 70
     1
102
RTVSPropertyOp7
 70
     1
102
RTVSPropertyOp8
 70
     1
102
RTVSPropertyOp9
 70
     1
102
RTVSPropertyOp10
 70
     1
102
RTVSPropertyOp11
 70
     1
102
RTVSPropertyOp12
 70
     1
102
RTVSPropertyOp13
 70
     1
102
RTVSPropertyOp14
 70
     1
102
RTVSPropertyOp15
 70
     1
102
RTVSPropertyOp16
 70
     1
102
RTVSPropertyOp17
 70
     1
102
RTVSPropertyOp18
 70
     1
102
RTVSPropertyOp19
 70
     1
102
RTVSPropertyOp20
 70
     1
102
RTVSPropertyOp21
 70
     1
102
RTVSPropertyOp22
 70
     1
102
RTVSPropertyOp23
 70
     1
102
RTVSPropertyOp24
 70
     1
102
RTVSPropertyOp25
 70
     1
102
RTVSPropertyOp26
 70
     1
102
RTVSPropertyOp27
 70
     1
102
RTVSPropertyOp28
 70
     1
102
RTVSPropertyOp29
 70
     1
102
RTVSPropertyOp30
 70
     1
102
RTVSPropertyOp31
 70
     1
102
RTVSPropertyOp32
 70
     1
102
RTVSPropertyOp33
 70
     1
102
RTVSPropertyOp34
 70
     1
102
RTVSPropertyOp35
 70
     1
102
RTVSPropertyOp36
 70
     1
102
RTVSPropertyOp37
 70
     1
102
RTVSPropertyOp38
 70
     1
102
RTVSPropertyOp39
 70
     1
102
RTVSPropertyOp40
 70
     1
102
RTVSPropertyOp41
 70
     1
102
RTVSPropertyOp42
 70
     1
102
RTVSPropertyOp43
 70
     1
102
RTVSPropertyOp44
 70
     1
102
RTVSPropertyOp45
 70
     1
102
RTVSPropertyOp46
 70
     1
102
RTVSPropertyOp47
 70
     1
102
RTVSPropertyOp48
 70
     1
102
RTVSPropertyOp49
 70
     1
102
RTVSPropertyOp50
 70
     1
102
RTVSPropertyOp51
 70
     0
102
RTVSPropertyOp52
 70
     0
102
RTVSPropertyOp53
 70
     1
102
RTVSPropertyOp54
 70
     1
102
RTVSPropertyOp55
 70
     1
102
RTVSPropertyOp56
 70
     1
102
RTVSPropertyOp57
 70
     1
102
RTVSPost2010Prop28
280
     0
102
RTVSPost2010PropOp28
 70
     1
102
RTVSPost2010Prop29
280
     1
102
RTVSPost2010PropOp29
 70
     1
102
RTVSPost2010Prop30
280
     1
102
RTVSPost2010PropOp30
 70
     1
102
RTVSPost2010Prop31
280
     0
102
RTVSPost2010PropOp31
 70
     1
102
RTVSPost2010Prop32
280
     0
102
RTVSPost2010PropOp32
 70
     1
102
RTVSPost2010Prop33
280
     0
102
RTVSPost2010PropOp33
 70
     1
102
RTVSPost2010Prop34
280
     0
102
RTVSPost2010PropOp34
 70
     1
102
RTVSPost2010Prop35
280
     0
102
RTVSPost2010PropOp35
 70
     1
102
RTVSPost2010Prop36
280
     0
102
RTVSPost2010PropOp36
 70
     1
102
RTVSPost2010Prop37
 90
       50
102
RTVSPost2010PropOp37
 70
     1
102
RTVSPost2010Prop38
140
0.0
102
RTVSPost2010PropOp38
 70
     1
102
RTVSPost2010Prop39
140
1.0
102
RTVSPost2010PropOp39
 70
     1
102
RTVSPost2010Prop40
 90
        0
102
RTVSPost2010PropOp40
 70
     1
102
RTVSPost2010Prop41ColorIndex
 90
       18
102
RTVSPost2010Prop41ColorRGB
 90
        0
102
RTVSPost2010PropOp41
 70
     1
102
RTVSPost2010Prop42
 90
       50
102
RTVSPost2010PropOp42
 70
     1
102
RTVSPost2010Prop43
 90
        3
102
RTVSPost2010PropOp43
 70
     1
102
RTVSPost2010Prop44ColorIndex
 90
        5
102
RTVSPost2010Prop44ColorRGB
 90
      255
102
RTVSPost2010PropOp44
 70
     1
102
RTVSPost2010Prop45
280
     0
102
RTVSPost2010PropOp45
 70
     1
102
RTVSPost2010Prop46
 90
       50
102
RTVSPost2010PropOp46
 70
     1
102
RTVSPost2010Prop47
 90
       50
102
RTVSPost2010PropOp47
 70
     1
102
RTVSPost2010Prop48
 90
       50
102
RTVSPost2010PropOp48
 70
     1
102
RTVSPost2010Prop49
280
     0
102
RTVSPost2010PropOp49
 70
     1
102
RTVSPost2010Prop50
 90
       50
102
RTVSPost2010PropOp50
 70
     1
102
RTVSPost2010Prop51ColorIndex
 90
      256
102
RTVSPost2010Prop51ColorRGB
 90
-16777216
102
RTVSPost2010PropOp51
 70
     0
102
RTVSPost2010Prop52
140
1.0
102
RTVSPost2010PropOp52
 70
     0
102
RTVSPost2010Prop53
 90
        2
102
RTVSPost2010PropOp53
 70
     1
102
RTVSPost2010Prop54
  1
strokes_ogs.tif
102
RTVSPost2010PropOp54
 70
     1
102
RTVSPost2010Prop55
280
     0
102
RTVSPost2010PropOp55
 70
     1
102
RTVSPost2010Prop56
140
1.0
102
RTVSPost2010PropOp56
 70
     1
102
RTVSPost2010Prop57
140
1.0
102
RTVSPost2010PropOp57
 70
     1
  0
XRECORD
  5
38A
102
{ACAD_REACTORS
330
389
102
}
330
389
100
AcDbXrecord
280
     1
102
RTVSPropertyOp0
 70
     1
102
RTVSPropertyOp1
 70
     1
102
RTVSPropertyOp2
 70
     1
102
RTVSPropertyOp3
 70
     1
102
RTVSPropertyOp4
 70
     1
102
RTVSPropertyOp5
 70
     1
102
RTVSPropertyOp6
 70
     1
102
RTVSPropertyOp7
 70
     1
102
RTVSPropertyOp8
 70
     1
102
RTVSPropertyOp9
 70
     1
102
RTVSPropertyOp10
 70
     1
102
RTVSPropertyOp11
 70
     1
102
RTVSPropertyOp12
 70
     1
102
RTVSPropertyOp13
 70
     1
102
RTVSPropertyOp14
 70
     1
102
RTVSPropertyOp15
 70
     1
102
RTVSPropertyOp16
 70
     1
102
RTVSPropertyOp17
 70
     1
102
RTVSPropertyOp18
 70
     1
102
RTVSPropertyOp19
 70
     1
102
RTVSPropertyOp20
 70
     1
102
RTVSPropertyOp21
 70
     1
102
RTVSPropertyOp22
 70
     1
102
RTVSPropertyOp23
 70
     1
102
RTVSPropertyOp24
 70
     1
102
RTVSPropertyOp25
 70
     1
102
RTVSPropertyOp26
 70
     1
102
RTVSPropertyOp27
 70
     1
102
RTVSPropertyOp28
 70
     1
102
RTVSPropertyOp29
 70
     1
102
RTVSPropertyOp30
 70
     1
102
RTVSPropertyOp31
 70
     1
102
RTVSPropertyOp32
 70
     1
102
RTVSPropertyOp33
 70
     1
102
RTVSPropertyOp34
 70
     1
102
RTVSPropertyOp35
 70
     1
102
RTVSPropertyOp36
 70
     1
102
RTVSPropertyOp37
 70
     1
102
RTVSPropertyOp38
 70
     1
102
RTVSPropertyOp39
 70
     1
102
RTVSPropertyOp40
 70
     1
102
RTVSPropertyOp41
 70
     1
102
RTVSPropertyOp42
 70
     1
102
RTVSPropertyOp43
 70
     1
102
RTVSPropertyOp44
 70
     1
102
RTVSPropertyOp45
 70
     1
102
RTVSPropertyOp46
 70
     1
102
RTVSPropertyOp47
 70
     1
102
RTVSPropertyOp48
 70
     1
102
RTVSPropertyOp49
 70
     1
102
RTVSPropertyOp50
 70
     1
102
RTVSPropertyOp51
 70
     0
102
RTVSPropertyOp52
 70
     0
102
RTVSPropertyOp53
 70
     1
102
RTVSPropertyOp54
 70
     1
102
RTVSPropertyOp55
 70
     1
102
RTVSPropertyOp56
 70
     1
102
RTVSPropertyOp57
 70
     1
102
RTVSPost2010Prop28
280
     0
102
RTVSPost2010PropOp28
 70
     1
102
RTVSPost2010Prop29
280
     1
102
RTVSPost2010PropOp29
 70
     1
102
RTVSPost2010Prop30
280
     1
102
RTVSPost2010PropOp30
 70
     1
102
RTVSPost2010Prop31
280
     0
102
RTVSPost2010PropOp31
 70
     1
102
RTVSPost2010Prop32
280
     0
102
RTVSPost2010PropOp32
 70
     1
102
RTVSPost2010Prop33
280
     0
102
RTVSPost2010PropOp33
 70
     1
102
RTVSPost2010Prop34
280
     0
102
RTVSPost2010PropOp34
 70
     1
102
RTVSPost2010Prop35
280
     0
102
RTVSPost2010PropOp35
 70
     1
102
RTVSPost2010Prop36
280
     0
102
RTVSPost2010PropOp36
 70
     1
102
RTVSPost2010Prop37
 90
       50
102
RTVSPost2010PropOp37
 70
     1
102
RTVSPost2010Prop38
140
0.0
102
RTVSPost2010PropOp38
 70
     1
102
RTVSPost2010Prop39
140
1.0
102
RTVSPost2010PropOp39
 70
     1
102
RTVSPost2010Prop40
 90
        0
102
RTVSPost2010PropOp40
 70
     1
102
RTVSPost2010Prop41ColorIndex
 90
       18
102
RTVSPost2010Prop41ColorRGB
 90
        0
102
RTVSPost2010PropOp41
 70
     1
102
RTVSPost2010Prop42
 90
       50
102
RTVSPost2010PropOp42
 70
     1
102
RTVSPost2010Prop43
 90
        3
102
RTVSPost2010PropOp43
 70
     1
102
RTVSPost2010Prop44ColorIndex
 90
        5
102
RTVSPost2010Prop44ColorRGB
 90
      255
102
RTVSPost2010PropOp44
 70
     1
102
RTVSPost2010Prop45
280
     0
102
RTVSPost2010PropOp45
 70
     1
102
RTVSPost2010Prop46
 90
       50
102
RTVSPost2010PropOp46
 70
     1
102
RTVSPost2010Prop47
 90
       50
102
RTVSPost2010PropOp47
 70
     1
102
RTVSPost2010Prop48
 90
       50
102
RTVSPost2010PropOp48
 70
     1
102
RTVSPost2010Prop49
280
     0
102
RTVSPost2010PropOp49
 70
     1
102
RTVSPost2010Prop50
 90
       50
102
RTVSPost2010PropOp50
 70
     1
102
RTVSPost2010Prop51ColorIndex
 90
      256
102
RTVSPost2010Prop51ColorRGB
 90
-16777216
102
RTVSPost2010PropOp51
 70
     0
102
RTVSPost2010Prop52
140
1.0
102
RTVSPost2010PropOp52
 70
     0
102
RTVSPost2010Prop53
 90
        2
102
RTVSPost2010PropOp53
 70
     1
102
RTVSPost2010Prop54
  1
strokes_ogs.tif
102
RTVSPost2010PropOp54
 70
     1
102
RTVSPost2010Prop55
280
     0
102
RTVSPost2010PropOp55
 70
     1
102
RTVSPost2010Prop56
140
1.0
102
RTVSPost2010PropOp56
 70
     1
102
RTVSPost2010Prop57
140
1.0
102
RTVSPost2010PropOp57
 70
     1
  0
XRECORD
  5
39E
102
{ACAD_REACTORS
330
39D
102
}
330
39D
100
AcDbXrecord
280
     1
102
RTVSPropertyOp0
 70
     0
102
RTVSPropertyOp1
 70
     0
102
RTVSPropertyOp2
 70
     0
102
RTVSPropertyOp3
 70
     0
102
RTVSPropertyOp4
 70
     0
102
RTVSPropertyOp5
 70
     0
102
RTVSPropertyOp6
 70
     0
102
RTVSPropertyOp7
 70
     0
102
RTVSPropertyOp8
 70
     0
102
RTVSPropertyOp9
 70
     0
102
RTVSPropertyOp10
 70
     0
102
RTVSPropertyOp11
 70
     0
102
RTVSPropertyOp12
 70
     0
102
RTVSPropertyOp13
 70
     0
102
RTVSPropertyOp14
 70
     2
102
RTVSPropertyOp15
 70
     0
102
RTVSPropertyOp16
 70
     0
102
RTVSPropertyOp17
 70
     0
102
RTVSPropertyOp18
 70
     0
102
RTVSPropertyOp19
 70
     0
102
RTVSPropertyOp20
 70
     0
102
RTVSPropertyOp21
 70
     0
102
RTVSPropertyOp22
 70
     0
102
RTVSPropertyOp23
 70
     0
102
RTVSPropertyOp24
 70
     0
102
RTVSPropertyOp25
 70
     0
102
RTVSPropertyOp26
 70
     0
102
RTVSPropertyOp27
 70
     0
102
RTVSPropertyOp28
 70
     0
102
RTVSPropertyOp29
 70
     0
102
RTVSPropertyOp30
 70
     0
102
RTVSPropertyOp31
 70
     0
102
RTVSPropertyOp32
 70
     0
102
RTVSPropertyOp33
 70
     0
102
RTVSPropertyOp34
 70
     0
102
RTVSPropertyOp35
 70
     0
102
RTVSPropertyOp36
 70
     0
102
RTVSPropertyOp37
 70
     0
102
RTVSPropertyOp38
 70
     0
102
RTVSPropertyOp39
 70
     0
102
RTVSPropertyOp40
 70
     0
102
RTVSPropertyOp41
 70
     0
102
RTVSPropertyOp42
 70
     0
102
RTVSPropertyOp43
 70
     0
102
RTVSPropertyOp44
 70
     0
102
RTVSPropertyOp45
 70
     0
102
RTVSPropertyOp46
 70
     0
102
RTVSPropertyOp47
 70
     0
102
RTVSPropertyOp48
 70
     0
102
RTVSPropertyOp49
 70
     0
102
RTVSPropertyOp50
 70
     0
102
RTVSPropertyOp51
 70
     0
102
RTVSPropertyOp52
 70
     0
102
RTVSPropertyOp53
 70
     0
102
RTVSPropertyOp54
 70
     0
102
RTVSPropertyOp55
 70
     0
102
RTVSPropertyOp56
 70
     0
102
RTVSPropertyOp57
 70
     0
102
RTVSPost2010Prop28
280
     0
102
RTVSPost2010PropOp28
 70
     0
102
RTVSPost2010Prop29
280
     1
102
RTVSPost2010PropOp29
 70
     0
102
RTVSPost2010Prop30
280
     1
102
RTVSPost2010PropOp30
 70
     0
102
RTVSPost2010Prop31
280
     0
102
RTVSPost2010PropOp31
 70
     0
102
RTVSPost2010Prop32
280
     0
102
RTVSPost2010PropOp32
 70
     0
102
RTVSPost2010Prop33
280
     0
102
RTVSPost2010PropOp33
 70
     0
102
RTVSPost2010Prop34
280
     0
102
RTVSPost2010PropOp34
 70
     0
102
RTVSPost2010Prop35
280
     0
102
RTVSPost2010PropOp35
 70
     0
102
RTVSPost2010Prop36
280
     0
102
RTVSPost2010PropOp36
 70
     0
102
RTVSPost2010Prop37
 90
       50
102
RTVSPost2010PropOp37
 70
     0
102
RTVSPost2010Prop38
140
0.0
102
RTVSPost2010PropOp38
 70
     0
102
RTVSPost2010Prop39
140
1.0
102
RTVSPost2010PropOp39
 70
     0
102
RTVSPost2010Prop40
 90
        0
102
RTVSPost2010PropOp40
 70
     0
102
RTVSPost2010Prop41ColorIndex
 90
       18
102
RTVSPost2010Prop41ColorRGB
 90
        0
102
RTVSPost2010PropOp41
 70
     0
102
RTVSPost2010Prop42
 90
       50
102
RTVSPost2010PropOp42
 70
     0
102
RTVSPost2010Prop43
 90
        3
102
RTVSPost2010PropOp43
 70
     0
102
RTVSPost2010Prop44ColorIndex
 90
        5
102
RTVSPost2010Prop44ColorRGB
 90
      255
102
RTVSPost2010PropOp44
 70
     0
102
RTVSPost2010Prop45
280
     0
102
RTVSPost2010PropOp45
 70
     0
102
RTVSPost2010Prop46
 90
       50
102
RTVSPost2010PropOp46
 70
     0
102
RTVSPost2010Prop47
 90
       50
102
RTVSPost2010PropOp47
 70
     0
102
RTVSPost2010Prop48
 90
       50
102
RTVSPost2010PropOp48
 70
     0
102
RTVSPost2010Prop49
280
     0
102
RTVSPost2010PropOp49
 70
     0
102
RTVSPost2010Prop50
 90
       50
102
RTVSPost2010PropOp50
 70
     0
102
RTVSPost2010Prop51ColorIndex
 90
      256
102
RTVSPost2010Prop51ColorRGB
 90
-16777216
102
RTVSPost2010PropOp51
 70
     0
102
RTVSPost2010Prop52
140
1.0
102
RTVSPost2010PropOp52
 70
     0
102
RTVSPost2010Prop53
 90
        2
102
RTVSPost2010PropOp53
 70
     0
102
RTVSPost2010Prop54
  1
strokes_ogs.tif
102
RTVSPost2010PropOp54
 70
     0
102
RTVSPost2010Prop55
280
     0
102
RTVSPost2010PropOp55
 70
     0
102
RTVSPost2010Prop56
140
1.0
102
RTVSPost2010PropOp56
 70
     0
102
RTVSPost2010Prop57
140
1.0
102
RTVSPost2010PropOp57
 70
     0
  0
XRECORD
  5
398
102
{ACAD_REACTORS
330
397
102
}
330
397
100
AcDbXrecord
280
     1
102
RTVSPropertyOp0
 70
     1
102
RTVSPropertyOp1
 70
     1
102
RTVSPropertyOp2
 70
     1
102
RTVSPropertyOp3
 70
     1
102
RTVSPropertyOp4
 70
     1
102
RTVSPropertyOp5
 70
     1
102
RTVSPropertyOp6
 70
     1
102
RTVSPropertyOp7
 70
     1
102
RTVSPropertyOp8
 70
     1
102
RTVSPropertyOp9
 70
     1
102
RTVSPropertyOp10
 70
     1
102
RTVSPropertyOp11
 70
     1
102
RTVSPropertyOp12
 70
     1
102
RTVSPropertyOp13
 70
     1
102
RTVSPropertyOp14
 70
     1
102
RTVSPropertyOp15
 70
     1
102
RTVSPropertyOp16
 70
     1
102
RTVSPropertyOp17
 70
     1
102
RTVSPropertyOp18
 70
     1
102
RTVSPropertyOp19
 70
     1
102
RTVSPropertyOp20
 70
     1
102
RTVSPropertyOp21
 70
     1
102
RTVSPropertyOp22
 70
     1
102
RTVSPropertyOp23
 70
     1
102
RTVSPropertyOp24
 70
     1
102
RTVSPropertyOp25
 70
     1
102
RTVSPropertyOp26
 70
     1
102
RTVSPropertyOp27
 70
     1
102
RTVSPropertyOp28
 70
     1
102
RTVSPropertyOp29
 70
     1
102
RTVSPropertyOp30
 70
     1
102
RTVSPropertyOp31
 70
     1
102
RTVSPropertyOp32
 70
     1
102
RTVSPropertyOp33
 70
     1
102
RTVSPropertyOp34
 70
     1
102
RTVSPropertyOp35
 70
     1
102
RTVSPropertyOp36
 70
     1
102
RTVSPropertyOp37
 70
     1
102
RTVSPropertyOp38
 70
     1
102
RTVSPropertyOp39
 70
     1
102
RTVSPropertyOp40
 70
     1
102
RTVSPropertyOp41
 70
     1
102
RTVSPropertyOp42
 70
     1
102
RTVSPropertyOp43
 70
     1
102
RTVSPropertyOp44
 70
     1
102
RTVSPropertyOp45
 70
     1
102
RTVSPropertyOp46
 70
     1
102
RTVSPropertyOp47
 70
     1
102
RTVSPropertyOp48
 70
     1
102
RTVSPropertyOp49
 70
     1
102
RTVSPropertyOp50
 70
     1
102
RTVSPropertyOp51
 70
     0
102
RTVSPropertyOp52
 70
     0
102
RTVSPropertyOp53
 70
     1
102
RTVSPropertyOp54
 70
     1
102
RTVSPropertyOp55
 70
     1
102
RTVSPropertyOp56
 70
     1
102
RTVSPropertyOp57
 70
     1
102
RTVSPost2010Prop28
280
     0
102
RTVSPost2010PropOp28
 70
     1
102
RTVSPost2010Prop29
280
     1
102
RTVSPost2010PropOp29
 70
     1
102
RTVSPost2010Prop30
280
     1
102
RTVSPost2010PropOp30
 70
     1
102
RTVSPost2010Prop31
280
     0
102
RTVSPost2010PropOp31
 70
     1
102
RTVSPost2010Prop32
280
     0
102
RTVSPost2010PropOp32
 70
     1
102
RTVSPost2010Prop33
280
     0
102
RTVSPost2010PropOp33
 70
     1
102
RTVSPost2010Prop34
280
     0
102
RTVSPost2010PropOp34
 70
     1
102
RTVSPost2010Prop35
280
     0
102
RTVSPost2010PropOp35
 70
     1
102
RTVSPost2010Prop36
280
     0
102
RTVSPost2010PropOp36
 70
     1
102
RTVSPost2010Prop37
 90
       50
102
RTVSPost2010PropOp37
 70
     1
102
RTVSPost2010Prop38
140
0.0
102
RTVSPost2010PropOp38
 70
     1
102
RTVSPost2010Prop39
140
1.0
102
RTVSPost2010PropOp39
 70
     1
102
RTVSPost2010Prop40
 90
        0
102
RTVSPost2010PropOp40
 70
     1
102
RTVSPost2010Prop41ColorIndex
 90
       18
102
RTVSPost2010Prop41ColorRGB
 90
        0
102
RTVSPost2010PropOp41
 70
     1
102
RTVSPost2010Prop42
 90
       50
102
RTVSPost2010PropOp42
 70
     1
102
RTVSPost2010Prop43
 90
        3
102
RTVSPost2010PropOp43
 70
     1
102
RTVSPost2010Prop44ColorIndex
 90
        5
102
RTVSPost2010Prop44ColorRGB
 90
      255
102
RTVSPost2010PropOp44
 70
     1
102
RTVSPost2010Prop45
280
     0
102
RTVSPost2010PropOp45
 70
     1
102
RTVSPost2010Prop46
 90
       50
102
RTVSPost2010PropOp46
 70
     1
102
RTVSPost2010Prop47
 90
       50
102
RTVSPost2010PropOp47
 70
     1
102
RTVSPost2010Prop48
 90
       50
102
RTVSPost2010PropOp48
 70
     1
102
RTVSPost2010Prop49
280
     0
102
RTVSPost2010PropOp49
 70
     1
102
RTVSPost2010Prop50
 90
       50
102
RTVSPost2010PropOp50
 70
     1
102
RTVSPost2010Prop51ColorIndex
 90
      256
102
RTVSPost2010Prop51ColorRGB
 90
-16777216
102
RTVSPost2010PropOp51
 70
     0
102
RTVSPost2010Prop52
140
1.0
102
RTVSPost2010PropOp52
 70
     0
102
RTVSPost2010Prop53
 90
        2
102
RTVSPost2010PropOp53
 70
     1
102
RTVSPost2010Prop54
  1
strokes_ogs.tif
102
RTVSPost2010PropOp54
 70
     1
102
RTVSPost2010Prop55
280
     0
102
RTVSPost2010PropOp55
 70
     1
102
RTVSPost2010Prop56
140
1.0
102
RTVSPost2010PropOp56
 70
     1
102
RTVSPost2010Prop57
140
1.0
102
RTVSPost2010PropOp57
 70
     1
  0
XRECORD
  5
3A0
102
{ACAD_REACTORS
330
39F
102
}
330
39F
100
AcDbXrecord
280
     1
102
RTVSPropertyOp0
 70
     0
102
RTVSPropertyOp1
 70
     0
102
RTVSPropertyOp2
 70
     0
102
RTVSPropertyOp3
 70
     0
102
RTVSPropertyOp4
 70
     0
102
RTVSPropertyOp5
 70
     0
102
RTVSPropertyOp6
 70
     0
102
RTVSPropertyOp7
 70
     0
102
RTVSPropertyOp8
 70
     0
102
RTVSPropertyOp9
 70
     0
102
RTVSPropertyOp10
 70
     0
102
RTVSPropertyOp11
 70
     0
102
RTVSPropertyOp12
 70
     0
102
RTVSPropertyOp13
 70
     0
102
RTVSPropertyOp14
 70
     2
102
RTVSPropertyOp15
 70
     0
102
RTVSPropertyOp16
 70
     0
102
RTVSPropertyOp17
 70
     0
102
RTVSPropertyOp18
 70
     0
102
RTVSPropertyOp19
 70
     0
102
RTVSPropertyOp20
 70
     0
102
RTVSPropertyOp21
 70
     0
102
RTVSPropertyOp22
 70
     0
102
RTVSPropertyOp23
 70
     0
102
RTVSPropertyOp24
 70
     0
102
RTVSPropertyOp25
 70
     0
102
RTVSPropertyOp26
 70
     0
102
RTVSPropertyOp27
 70
     0
102
RTVSPropertyOp28
 70
     0
102
RTVSPropertyOp29
 70
     0
102
RTVSPropertyOp30
 70
     0
102
RTVSPropertyOp31
 70
     0
102
RTVSPropertyOp32
 70
     0
102
RTVSPropertyOp33
 70
     0
102
RTVSPropertyOp34
 70
     0
102
RTVSPropertyOp35
 70
     0
102
RTVSPropertyOp36
 70
     0
102
RTVSPropertyOp37
 70
     0
102
RTVSPropertyOp38
 70
     0
102
RTVSPropertyOp39
 70
     0
102
RTVSPropertyOp40
 70
     0
102
RTVSPropertyOp41
 70
     0
102
RTVSPropertyOp42
 70
     0
102
RTVSPropertyOp43
 70
     0
102
RTVSPropertyOp44
 70
     0
102
RTVSPropertyOp45
 70
     0
102
RTVSPropertyOp46
 70
     0
102
RTVSPropertyOp47
 70
     0
102
RTVSPropertyOp48
 70
     0
102
RTVSPropertyOp49
 70
     0
102
RTVSPropertyOp50
 70
     0
102
RTVSPropertyOp51
 70
     0
102
RTVSPropertyOp52
 70
     0
102
RTVSPropertyOp53
 70
     0
102
RTVSPropertyOp54
 70
     0
102
RTVSPropertyOp55
 70
     0
102
RTVSPropertyOp56
 70
     0
102
RTVSPropertyOp57
 70
     0
102
RTVSPost2010Prop28
280
     0
102
RTVSPost2010PropOp28
 70
     0
102
RTVSPost2010Prop29
280
     1
102
RTVSPost2010PropOp29
 70
     0
102
RTVSPost2010Prop30
280
     1
102
RTVSPost2010PropOp30
 70
     0
102
RTVSPost2010Prop31
280
     0
102
RTVSPost2010PropOp31
 70
     0
102
RTVSPost2010Prop32
280
     0
102
RTVSPost2010PropOp32
 70
     0
102
RTVSPost2010Prop33
280
     0
102
RTVSPost2010PropOp33
 70
     0
102
RTVSPost2010Prop34
280
     0
102
RTVSPost2010PropOp34
 70
     0
102
RTVSPost2010Prop35
280
     0
102
RTVSPost2010PropOp35
 70
     0
102
RTVSPost2010Prop36
280
     0
102
RTVSPost2010PropOp36
 70
     0
102
RTVSPost2010Prop37
 90
       50
102
RTVSPost2010PropOp37
 70
     0
102
RTVSPost2010Prop38
140
0.0
102
RTVSPost2010PropOp38
 70
     0
102
RTVSPost2010Prop39
140
1.0
102
RTVSPost2010PropOp39
 70
     0
102
RTVSPost2010Prop40
 90
        0
102
RTVSPost2010PropOp40
 70
     0
102
RTVSPost2010Prop41ColorIndex
 90
       18
102
RTVSPost2010Prop41ColorRGB
 90
        0
102
RTVSPost2010PropOp41
 70
     0
102
RTVSPost2010Prop42
 90
       50
102
RTVSPost2010PropOp42
 70
     0
102
RTVSPost2010Prop43
 90
        3
102
RTVSPost2010PropOp43
 70
     0
102
RTVSPost2010Prop44ColorIndex
 90
        5
102
RTVSPost2010Prop44ColorRGB
 90
      255
102
RTVSPost2010PropOp44
 70
     0
102
RTVSPost2010Prop45
280
     0
102
RTVSPost2010PropOp45
 70
     0
102
RTVSPost2010Prop46
 90
       50
102
RTVSPost2010PropOp46
 70
     0
102
RTVSPost2010Prop47
 90
       50
102
RTVSPost2010PropOp47
 70
     0
102
RTVSPost2010Prop48
 90
       50
102
RTVSPost2010PropOp48
 70
     0
102
RTVSPost2010Prop49
280
     0
102
RTVSPost2010PropOp49
 70
     0
102
RTVSPost2010Prop50
 90
       50
102
RTVSPost2010PropOp50
 70
     0
102
RTVSPost2010Prop51ColorIndex
 90
      256
102
RTVSPost2010Prop51ColorRGB
 90
-16777216
102
RTVSPost2010PropOp51
 70
     0
102
RTVSPost2010Prop52
140
1.0
102
RTVSPost2010PropOp52
 70
     0
102
RTVSPost2010Prop53
 90
        2
102
RTVSPost2010PropOp53
 70
     0
102
RTVSPost2010Prop54
  1
strokes_ogs.tif
102
RTVSPost2010PropOp54
 70
     0
102
RTVSPost2010Prop55
280
     0
102
RTVSPost2010PropOp55
 70
     0
102
RTVSPost2010Prop56
140
1.0
102
RTVSPost2010PropOp56
 70
     0
102
RTVSPost2010Prop57
140
1.0
102
RTVSPost2010PropOp57
 70
     0
  0
XRECORD
  5
38E
102
{ACAD_REACTORS
330
38D
102
}
330
38D
100
AcDbXrecord
280
     1
102
RTVSPropertyOp0
 70
     1
102
RTVSPropertyOp1
 70
     1
102
RTVSPropertyOp2
 70
     1
102
RTVSPropertyOp3
 70
     1
102
RTVSPropertyOp4
 70
     1
102
RTVSPropertyOp5
 70
     1
102
RTVSPropertyOp6
 70
     1
102
RTVSPropertyOp7
 70
     1
102
RTVSPropertyOp8
 70
     1
102
RTVSPropertyOp9
 70
     1
102
RTVSPropertyOp10
 70
     1
102
RTVSPropertyOp11
 70
     1
102
RTVSPropertyOp12
 70
     1
102
RTVSPropertyOp13
 70
     1
102
RTVSPropertyOp14
 70
     1
102
RTVSPropertyOp15
 70
     1
102
RTVSPropertyOp16
 70
     1
102
RTVSPropertyOp17
 70
     1
102
RTVSPropertyOp18
 70
     1
102
RTVSPropertyOp19
 70
     1
102
RTVSPropertyOp20
 70
     1
102
RTVSPropertyOp21
 70
     1
102
RTVSPropertyOp22
 70
     1
102
RTVSPropertyOp23
 70
     1
102
RTVSPropertyOp24
 70
     1
102
RTVSPropertyOp25
 70
     1
102
RTVSPropertyOp26
 70
     1
102
RTVSPropertyOp27
 70
     1
102
RTVSPropertyOp28
 70
     1
102
RTVSPropertyOp29
 70
     1
102
RTVSPropertyOp30
 70
     1
102
RTVSPropertyOp31
 70
     1
102
RTVSPropertyOp32
 70
     1
102
RTVSPropertyOp33
 70
     1
102
RTVSPropertyOp34
 70
     1
102
RTVSPropertyOp35
 70
     1
102
RTVSPropertyOp36
 70
     1
102
RTVSPropertyOp37
 70
     1
102
RTVSPropertyOp38
 70
     1
102
RTVSPropertyOp39
 70
     1
102
RTVSPropertyOp40
 70
     1
102
RTVSPropertyOp41
 70
     1
102
RTVSPropertyOp42
 70
     1
102
RTVSPropertyOp43
 70
     1
102
RTVSPropertyOp44
 70
     1
102
RTVSPropertyOp45
 70
     1
102
RTVSPropertyOp46
 70
     1
102
RTVSPropertyOp47
 70
     1
102
RTVSPropertyOp48
 70
     1
102
RTVSPropertyOp49
 70
     1
102
RTVSPropertyOp50
 70
     1
102
RTVSPropertyOp51
 70
     0
102
RTVSPropertyOp52
 70
     0
102
RTVSPropertyOp53
 70
     1
102
RTVSPropertyOp54
 70
     1
102
RTVSPropertyOp55
 70
     1
102
RTVSPropertyOp56
 70
     1
102
RTVSPropertyOp57
 70
     1
102
RTVSPost2010Prop28
280
     0
102
RTVSPost2010PropOp28
 70
     1
102
RTVSPost2010Prop29
280
     1
102
RTVSPost2010PropOp29
 70
     1
102
RTVSPost2010Prop30
280
     1
102
RTVSPost2010PropOp30
 70
     1
102
RTVSPost2010Prop31
280
     0
102
RTVSPost2010PropOp31
 70
     1
102
RTVSPost2010Prop32
280
     0
102
RTVSPost2010PropOp32
 70
     1
102
RTVSPost2010Prop33
280
     0
102
RTVSPost2010PropOp33
 70
     1
102
RTVSPost2010Prop34
280
     0
102
RTVSPost2010PropOp34
 70
     1
102
RTVSPost2010Prop35
280
     0
102
RTVSPost2010PropOp35
 70
     1
102
RTVSPost2010Prop36
280
     0
102
RTVSPost2010PropOp36
 70
     1
102
RTVSPost2010Prop37
 90
       50
102
RTVSPost2010PropOp37
 70
     1
102
RTVSPost2010Prop38
140
0.0
102
RTVSPost2010PropOp38
 70
     1
102
RTVSPost2010Prop39
140
1.0
102
RTVSPost2010PropOp39
 70
     1
102
RTVSPost2010Prop40
 90
        0
102
RTVSPost2010PropOp40
 70
     1
102
RTVSPost2010Prop41ColorIndex
 90
       18
102
RTVSPost2010Prop41ColorRGB
 90
        0
102
RTVSPost2010PropOp41
 70
     1
102
RTVSPost2010Prop42
 90
       50
102
RTVSPost2010PropOp42
 70
     1
102
RTVSPost2010Prop43
 90
        3
102
RTVSPost2010PropOp43
 70
     1
102
RTVSPost2010Prop44ColorIndex
 90
        5
102
RTVSPost2010Prop44ColorRGB
 90
      255
102
RTVSPost2010PropOp44
 70
     1
102
RTVSPost2010Prop45
280
     0
102
RTVSPost2010PropOp45
 70
     1
102
RTVSPost2010Prop46
 90
       50
102
RTVSPost2010PropOp46
 70
     1
102
RTVSPost2010Prop47
 90
       50
102
RTVSPost2010PropOp47
 70
     1
102
RTVSPost2010Prop48
 90
       50
102
RTVSPost2010PropOp48
 70
     1
102
RTVSPost2010Prop49
280
     0
102
RTVSPost2010PropOp49
 70
     1
102
RTVSPost2010Prop50
 90
       50
102
RTVSPost2010PropOp50
 70
     1
102
RTVSPost2010Prop51ColorIndex
 90
      256
102
RTVSPost2010Prop51ColorRGB
 90
-16777216
102
RTVSPost2010PropOp51
 70
     0
102
RTVSPost2010Prop52
140
1.0
102
RTVSPost2010PropOp52
 70
     0
102
RTVSPost2010Prop53
 90
        2
102
RTVSPost2010PropOp53
 70
     1
102
RTVSPost2010Prop54
  1
strokes_ogs.tif
102
RTVSPost2010PropOp54
 70
     1
102
RTVSPost2010Prop55
280
     0
102
RTVSPost2010PropOp55
 70
     1
102
RTVSPost2010Prop56
140
1.0
102
RTVSPost2010PropOp56
 70
     1
102
RTVSPost2010Prop57
140
1.0
102
RTVSPost2010PropOp57
 70
     1
  0
XRECORD
  5
3AC
102
{ACAD_REACTORS
330
3AB
102
}
330
3AB
100
AcDbXrecord
280
     1
102
RTVSPropertyOp0
 70
     1
102
RTVSPropertyOp1
 70
     1
102
RTVSPropertyOp2
 70
     1
102
RTVSPropertyOp3
 70
     1
102
RTVSPropertyOp4
 70
     1
102
RTVSPropertyOp5
 70
     1
102
RTVSPropertyOp6
 70
     1
102
RTVSPropertyOp7
 70
     1
102
RTVSPropertyOp8
 70
     1
102
RTVSPropertyOp9
 70
     1
102
RTVSPropertyOp10
 70
     1
102
RTVSPropertyOp11
 70
     1
102
RTVSPropertyOp12
 70
     1
102
RTVSPropertyOp13
 70
     1
102
RTVSPropertyOp14
 70
     1
102
RTVSPropertyOp15
 70
     1
102
RTVSPropertyOp16
 70
     1
102
RTVSPropertyOp17
 70
     1
102
RTVSPropertyOp18
 70
     1
102
RTVSPropertyOp19
 70
     1
102
RTVSPropertyOp20
 70
     1
102
RTVSPropertyOp21
 70
     1
102
RTVSPropertyOp22
 70
     1
102
RTVSPropertyOp23
 70
     1
102
RTVSPropertyOp24
 70
     1
102
RTVSPropertyOp25
 70
     1
102
RTVSPropertyOp26
 70
     1
102
RTVSPropertyOp27
 70
     1
102
RTVSPropertyOp28
 70
     1
102
RTVSPropertyOp29
 70
     1
102
RTVSPropertyOp30
 70
     1
102
RTVSPropertyOp31
 70
     1
102
RTVSPropertyOp32
 70
     1
102
RTVSPropertyOp33
 70
     1
102
RTVSPropertyOp34
 70
     1
102
RTVSPropertyOp35
 70
     1
102
RTVSPropertyOp36
 70
     1
102
RTVSPropertyOp37
 70
     1
102
RTVSPropertyOp38
 70
     1
102
RTVSPropertyOp39
 70
     1
102
RTVSPropertyOp40
 70
     1
102
RTVSPropertyOp41
 70
     1
102
RTVSPropertyOp42
 70
     1
102
RTVSPropertyOp43
 70
     1
102
RTVSPropertyOp44
 70
     1
102
RTVSPropertyOp45
 70
     1
102
RTVSPropertyOp46
 70
     1
102
RTVSPropertyOp47
 70
     1
102
RTVSPropertyOp48
 70
     1
102
RTVSPropertyOp49
 70
     1
102
RTVSPropertyOp50
 70
     1
102
RTVSPropertyOp51
 70
     0
102
RTVSPropertyOp52
 70
     0
102
RTVSPropertyOp53
 70
     1
102
RTVSPropertyOp54
 70
     1
102
RTVSPropertyOp55
 70
     1
102
RTVSPropertyOp56
 70
     1
102
RTVSPropertyOp57
 70
     1
102
RTVSPost2010Prop28
280
     0
102
RTVSPost2010PropOp28
 70
     1
102
RTVSPost2010Prop29
280
     1
102
RTVSPost2010PropOp29
 70
     1
102
RTVSPost2010Prop30
280
     1
102
RTVSPost2010PropOp30
 70
     1
102
RTVSPost2010Prop31
280
     0
102
RTVSPost2010PropOp31
 70
     1
102
RTVSPost2010Prop32
280
     0
102
RTVSPost2010PropOp32
 70
     1
102
RTVSPost2010Prop33
280
     0
102
RTVSPost2010PropOp33
 70
     1
102
RTVSPost2010Prop34
280
     0
102
RTVSPost2010PropOp34
 70
     1
102
RTVSPost2010Prop35
280
     0
102
RTVSPost2010PropOp35
 70
     1
102
RTVSPost2010Prop36
280
     0
102
RTVSPost2010PropOp36
 70
     1
102
RTVSPost2010Prop37
 90
       50
102
RTVSPost2010PropOp37
 70
     1
102
RTVSPost2010Prop38
140
0.0
102
RTVSPost2010PropOp38
 70
     1
102
RTVSPost2010Prop39
140
1.0
102
RTVSPost2010PropOp39
 70
     1
102
RTVSPost2010Prop40
 90
        0
102
RTVSPost2010PropOp40
 70
     1
102
RTVSPost2010Prop41ColorIndex
 90
       18
102
RTVSPost2010Prop41ColorRGB
 90
        0
102
RTVSPost2010PropOp41
 70
     1
102
RTVSPost2010Prop42
 90
       50
102
RTVSPost2010PropOp42
 70
     1
102
RTVSPost2010Prop43
 90
        3
102
RTVSPost2010PropOp43
 70
     1
102
RTVSPost2010Prop44ColorIndex
 90
        5
102
RTVSPost2010Prop44ColorRGB
 90
      255
102
RTVSPost2010PropOp44
 70
     1
102
RTVSPost2010Prop45
280
     0
102
RTVSPost2010PropOp45
 70
     1
102
RTVSPost2010Prop46
 90
       50
102
RTVSPost2010PropOp46
 70
     1
102
RTVSPost2010Prop47
 90
       50
102
RTVSPost2010PropOp47
 70
     1
102
RTVSPost2010Prop48
 90
       50
102
RTVSPost2010PropOp48
 70
     1
102
RTVSPost2010Prop49
280
     0
102
RTVSPost2010PropOp49
 70
     1
102
RTVSPost2010Prop50
 90
       50
102
RTVSPost2010PropOp50
 70
     1
102
RTVSPost2010Prop51ColorIndex
 90
      256
102
RTVSPost2010Prop51ColorRGB
 90
-16777216
102
RTVSPost2010PropOp51
 70
     0
102
RTVSPost2010Prop52
140
1.0
102
RTVSPost2010PropOp52
 70
     0
102
RTVSPost2010Prop53
 90
        2
102
RTVSPost2010PropOp53
 70
     1
102
RTVSPost2010Prop54
  1
strokes_ogs.tif
102
RTVSPost2010PropOp54
 70
     1
102
RTVSPost2010Prop55
280
     0
102
RTVSPost2010PropOp55
 70
     1
102
RTVSPost2010Prop56
140
1.0
102
RTVSPost2010PropOp56
 70
     1
102
RTVSPost2010Prop57
140
1.0
102
RTVSPost2010PropOp57
 70
     1
  0
XRECORD
  5
3AA
102
{ACAD_REACTORS
330
3A9
102
}
330
3A9
100
AcDbXrecord
280
     1
102
RTVSPropertyOp0
 70
     1
102
RTVSPropertyOp1
 70
     1
102
RTVSPropertyOp2
 70
     1
102
RTVSPropertyOp3
 70
     1
102
RTVSPropertyOp4
 70
     1
102
RTVSPropertyOp5
 70
     1
102
RTVSPropertyOp6
 70
     1
102
RTVSPropertyOp7
 70
     1
102
RTVSPropertyOp8
 70
     1
102
RTVSPropertyOp9
 70
     1
102
RTVSPropertyOp10
 70
     1
102
RTVSPropertyOp11
 70
     1
102
RTVSPropertyOp12
 70
     1
102
RTVSPropertyOp13
 70
     1
102
RTVSPropertyOp14
 70
     1
102
RTVSPropertyOp15
 70
     1
102
RTVSPropertyOp16
 70
     1
102
RTVSPropertyOp17
 70
     1
102
RTVSPropertyOp18
 70
     1
102
RTVSPropertyOp19
 70
     1
102
RTVSPropertyOp20
 70
     1
102
RTVSPropertyOp21
 70
     1
102
RTVSPropertyOp22
 70
     1
102
RTVSPropertyOp23
 70
     1
102
RTVSPropertyOp24
 70
     1
102
RTVSPropertyOp25
 70
     1
102
RTVSPropertyOp26
 70
     1
102
RTVSPropertyOp27
 70
     1
102
RTVSPropertyOp28
 70
     1
102
RTVSPropertyOp29
 70
     1
102
RTVSPropertyOp30
 70
     1
102
RTVSPropertyOp31
 70
     1
102
RTVSPropertyOp32
 70
     1
102
RTVSPropertyOp33
 70
     1
102
RTVSPropertyOp34
 70
     1
102
RTVSPropertyOp35
 70
     1
102
RTVSPropertyOp36
 70
     1
102
RTVSPropertyOp37
 70
     1
102
RTVSPropertyOp38
 70
     1
102
RTVSPropertyOp39
 70
     1
102
RTVSPropertyOp40
 70
     1
102
RTVSPropertyOp41
 70
     1
102
RTVSPropertyOp42
 70
     1
102
RTVSPropertyOp43
 70
     1
102
RTVSPropertyOp44
 70
     1
102
RTVSPropertyOp45
 70
     1
102
RTVSPropertyOp46
 70
     1
102
RTVSPropertyOp47
 70
     1
102
RTVSPropertyOp48
 70
     1
102
RTVSPropertyOp49
 70
     1
102
RTVSPropertyOp50
 70
     1
102
RTVSPropertyOp51
 70
     0
102
RTVSPropertyOp52
 70
     0
102
RTVSPropertyOp53
 70
     1
102
RTVSPropertyOp54
 70
     1
102
RTVSPropertyOp55
 70
     1
102
RTVSPropertyOp56
 70
     1
102
RTVSPropertyOp57
 70
     1
102
RTVSPost2010Prop28
280
     0
102
RTVSPost2010PropOp28
 70
     1
102
RTVSPost2010Prop29
280
     1
102
RTVSPost2010PropOp29
 70
     1
102
RTVSPost2010Prop30
280
     1
102
RTVSPost2010PropOp30
 70
     1
102
RTVSPost2010Prop31
280
     0
102
RTVSPost2010PropOp31
 70
     1
102
RTVSPost2010Prop32
280
     0
102
RTVSPost2010PropOp32
 70
     1
102
RTVSPost2010Prop33
280
     0
102
RTVSPost2010PropOp33
 70
     1
102
RTVSPost2010Prop34
280
     0
102
RTVSPost2010PropOp34
 70
     1
102
RTVSPost2010Prop35
280
     0
102
RTVSPost2010PropOp35
 70
     1
102
RTVSPost2010Prop36
280
     0
102
RTVSPost2010PropOp36
 70
     1
102
RTVSPost2010Prop37
 90
       50
102
RTVSPost2010PropOp37
 70
     1
102
RTVSPost2010Prop38
140
0.0
102
RTVSPost2010PropOp38
 70
     1
102
RTVSPost2010Prop39
140
1.0
102
RTVSPost2010PropOp39
 70
     1
102
RTVSPost2010Prop40
 90
        0
102
RTVSPost2010PropOp40
 70
     1
102
RTVSPost2010Prop41ColorIndex
 90
       18
102
RTVSPost2010Prop41ColorRGB
 90
        0
102
RTVSPost2010PropOp41
 70
     1
102
RTVSPost2010Prop42
 90
       50
102
RTVSPost2010PropOp42
 70
     1
102
RTVSPost2010Prop43
 90
        3
102
RTVSPost2010PropOp43
 70
     1
102
RTVSPost2010Prop44ColorIndex
 90
        5
102
RTVSPost2010Prop44ColorRGB
 90
      255
102
RTVSPost2010PropOp44
 70
     1
102
RTVSPost2010Prop45
280
     0
102
RTVSPost2010PropOp45
 70
     1
102
RTVSPost2010Prop46
 90
       50
102
RTVSPost2010PropOp46
 70
     1
102
RTVSPost2010Prop47
 90
       50
102
RTVSPost2010PropOp47
 70
     1
102
RTVSPost2010Prop48
 90
       50
102
RTVSPost2010PropOp48
 70
     1
102
RTVSPost2010Prop49
280
     0
102
RTVSPost2010PropOp49
 70
     1
102
RTVSPost2010Prop50
 90
       50
102
RTVSPost2010PropOp50
 70
     1
102
RTVSPost2010Prop51ColorIndex
 90
      256
102
RTVSPost2010Prop51ColorRGB
 90
-16777216
102
RTVSPost2010PropOp51
 70
     0
102
RTVSPost2010Prop52
140
1.0
102
RTVSPost2010PropOp52
 70
     0
102
RTVSPost2010Prop53
 90
        2
102
RTVSPost2010PropOp53
 70
     1
102
RTVSPost2010Prop54
  1
strokes_ogs.tif
102
RTVSPost2010PropOp54
 70
     1
102
RTVSPost2010Prop55
280
     0
102
RTVSPost2010PropOp55
 70
     1
102
RTVSPost2010Prop56
140
1.0
102
RTVSPost2010PropOp56
 70
     1
102
RTVSPost2010Prop57
140
1.0
102
RTVSPost2010PropOp57
 70
     1
  0
XRECORD
  5
3A4
102
{ACAD_REACTORS
330
3A3
102
}
330
3A3
100
AcDbXrecord
280
     1
102
RTVSPropertyOp0
 70
     1
102
RTVSPropertyOp1
 70
     1
102
RTVSPropertyOp2
 70
     1
102
RTVSPropertyOp3
 70
     1
102
RTVSPropertyOp4
 70
     1
102
RTVSPropertyOp5
 70
     1
102
RTVSPropertyOp6
 70
     1
102
RTVSPropertyOp7
 70
     1
102
RTVSPropertyOp8
 70
     1
102
RTVSPropertyOp9
 70
     1
102
RTVSPropertyOp10
 70
     1
102
RTVSPropertyOp11
 70
     1
102
RTVSPropertyOp12
 70
     1
102
RTVSPropertyOp13
 70
     1
102
RTVSPropertyOp14
 70
     1
102
RTVSPropertyOp15
 70
     1
102
RTVSPropertyOp16
 70
     1
102
RTVSPropertyOp17
 70
     1
102
RTVSPropertyOp18
 70
     1
102
RTVSPropertyOp19
 70
     1
102
RTVSPropertyOp20
 70
     1
102
RTVSPropertyOp21
 70
     1
102
RTVSPropertyOp22
 70
     1
102
RTVSPropertyOp23
 70
     1
102
RTVSPropertyOp24
 70
     1
102
RTVSPropertyOp25
 70
     1
102
RTVSPropertyOp26
 70
     1
102
RTVSPropertyOp27
 70
     1
102
RTVSPropertyOp28
 70
     1
102
RTVSPropertyOp29
 70
     1
102
RTVSPropertyOp30
 70
     1
102
RTVSPropertyOp31
 70
     1
102
RTVSPropertyOp32
 70
     1
102
RTVSPropertyOp33
 70
     1
102
RTVSPropertyOp34
 70
     1
102
RTVSPropertyOp35
 70
     1
102
RTVSPropertyOp36
 70
     1
102
RTVSPropertyOp37
 70
     1
102
RTVSPropertyOp38
 70
     1
102
RTVSPropertyOp39
 70
     1
102
RTVSPropertyOp40
 70
     1
102
RTVSPropertyOp41
 70
     1
102
RTVSPropertyOp42
 70
     1
102
RTVSPropertyOp43
 70
     1
102
RTVSPropertyOp44
 70
     1
102
RTVSPropertyOp45
 70
     1
102
RTVSPropertyOp46
 70
     1
102
RTVSPropertyOp47
 70
     1
102
RTVSPropertyOp48
 70
     1
102
RTVSPropertyOp49
 70
     1
102
RTVSPropertyOp50
 70
     1
102
RTVSPropertyOp51
 70
     0
102
RTVSPropertyOp52
 70
     0
102
RTVSPropertyOp53
 70
     1
102
RTVSPropertyOp54
 70
     1
102
RTVSPropertyOp55
 70
     1
102
RTVSPropertyOp56
 70
     1
102
RTVSPropertyOp57
 70
     1
102
RTVSPost2010Prop28
280
     0
102
RTVSPost2010PropOp28
 70
     1
102
RTVSPost2010Prop29
280
     1
102
RTVSPost2010PropOp29
 70
     1
102
RTVSPost2010Prop30
280
     1
102
RTVSPost2010PropOp30
 70
     1
102
RTVSPost2010Prop31
280
     0
102
RTVSPost2010PropOp31
 70
     1
102
RTVSPost2010Prop32
280
     0
102
RTVSPost2010PropOp32
 70
     1
102
RTVSPost2010Prop33
280
     0
102
RTVSPost2010PropOp33
 70
     1
102
RTVSPost2010Prop34
280
     0
102
RTVSPost2010PropOp34
 70
     1
102
RTVSPost2010Prop35
280
     0
102
RTVSPost2010PropOp35
 70
     1
102
RTVSPost2010Prop36
280
     0
102
RTVSPost2010PropOp36
 70
     1
102
RTVSPost2010Prop37
 90
       50
102
RTVSPost2010PropOp37
 70
     1
102
RTVSPost2010Prop38
140
0.0
102
RTVSPost2010PropOp38
 70
     1
102
RTVSPost2010Prop39
140
1.0
102
RTVSPost2010PropOp39
 70
     1
102
RTVSPost2010Prop40
 90
        0
102
RTVSPost2010PropOp40
 70
     1
102
RTVSPost2010Prop41ColorIndex
 90
       18
102
RTVSPost2010Prop41ColorRGB
 90
        0
102
RTVSPost2010PropOp41
 70
     1
102
RTVSPost2010Prop42
 90
       50
102
RTVSPost2010PropOp42
 70
     1
102
RTVSPost2010Prop43
 90
        3
102
RTVSPost2010PropOp43
 70
     1
102
RTVSPost2010Prop44ColorIndex
 90
        5
102
RTVSPost2010Prop44ColorRGB
 90
      255
102
RTVSPost2010PropOp44
 70
     1
102
RTVSPost2010Prop45
280
     0
102
RTVSPost2010PropOp45
 70
     1
102
RTVSPost2010Prop46
 90
       50
102
RTVSPost2010PropOp46
 70
     1
102
RTVSPost2010Prop47
 90
       50
102
RTVSPost2010PropOp47
 70
     1
102
RTVSPost2010Prop48
 90
       50
102
RTVSPost2010PropOp48
 70
     1
102
RTVSPost2010Prop49
280
     0
102
RTVSPost2010PropOp49
 70
     1
102
RTVSPost2010Prop50
 90
       50
102
RTVSPost2010PropOp50
 70
     1
102
RTVSPost2010Prop51ColorIndex
 90
      256
102
RTVSPost2010Prop51ColorRGB
 90
-16777216
102
RTVSPost2010PropOp51
 70
     0
102
RTVSPost2010Prop52
140
1.0
102
RTVSPost2010PropOp52
 70
     0
102
RTVSPost2010Prop53
 90
        2
102
RTVSPost2010PropOp53
 70
     1
102
RTVSPost2010Prop54
  1
strokes_ogs.tif
102
RTVSPost2010PropOp54
 70
     1
102
RTVSPost2010Prop55
280
     0
102
RTVSPost2010PropOp55
 70
     1
102
RTVSPost2010Prop56
140
1.0
102
RTVSPost2010PropOp56
 70
     1
102
RTVSPost2010Prop57
140
1.0
102
RTVSPost2010PropOp57
 70
     1
  0
XRECORD
  5
3A6
102
{ACAD_REACTORS
330
3A5
102
}
330
3A5
100
AcDbXrecord
280
     1
102
RTVSPropertyOp0
 70
     1
102
RTVSPropertyOp1
 70
     1
102
RTVSPropertyOp2
 70
     1
102
RTVSPropertyOp3
 70
     1
102
RTVSPropertyOp4
 70
     1
102
RTVSPropertyOp5
 70
     1
102
RTVSPropertyOp6
 70
     1
102
RTVSPropertyOp7
 70
     1
102
RTVSPropertyOp8
 70
     1
102
RTVSPropertyOp9
 70
     1
102
RTVSPropertyOp10
 70
     1
102
RTVSPropertyOp11
 70
     1
102
RTVSPropertyOp12
 70
     1
102
RTVSPropertyOp13
 70
     1
102
RTVSPropertyOp14
 70
     1
102
RTVSPropertyOp15
 70
     1
102
RTVSPropertyOp16
 70
     1
102
RTVSPropertyOp17
 70
     1
102
RTVSPropertyOp18
 70
     1
102
RTVSPropertyOp19
 70
     1
102
RTVSPropertyOp20
 70
     1
102
RTVSPropertyOp21
 70
     1
102
RTVSPropertyOp22
 70
     1
102
RTVSPropertyOp23
 70
     1
102
RTVSPropertyOp24
 70
     1
102
RTVSPropertyOp25
 70
     1
102
RTVSPropertyOp26
 70
     1
102
RTVSPropertyOp27
 70
     1
102
RTVSPropertyOp28
 70
     1
102
RTVSPropertyOp29
 70
     1
102
RTVSPropertyOp30
 70
     1
102
RTVSPropertyOp31
 70
     1
102
RTVSPropertyOp32
 70
     1
102
RTVSPropertyOp33
 70
     1
102
RTVSPropertyOp34
 70
     1
102
RTVSPropertyOp35
 70
     1
102
RTVSPropertyOp36
 70
     1
102
RTVSPropertyOp37
 70
     1
102
RTVSPropertyOp38
 70
     1
102
RTVSPropertyOp39
 70
     1
102
RTVSPropertyOp40
 70
     1
102
RTVSPropertyOp41
 70
     1
102
RTVSPropertyOp42
 70
     1
102
RTVSPropertyOp43
 70
     1
102
RTVSPropertyOp44
 70
     1
102
RTVSPropertyOp45
 70
     1
102
RTVSPropertyOp46
 70
     1
102
RTVSPropertyOp47
 70
     1
102
RTVSPropertyOp48
 70
     1
102
RTVSPropertyOp49
 70
     1
102
RTVSPropertyOp50
 70
     1
102
RTVSPropertyOp51
 70
     0
102
RTVSPropertyOp52
 70
     0
102
RTVSPropertyOp53
 70
     1
102
RTVSPropertyOp54
 70
     1
102
RTVSPropertyOp55
 70
     1
102
RTVSPropertyOp56
 70
     1
102
RTVSPropertyOp57
 70
     1
102
RTVSPost2010Prop28
280
     0
102
RTVSPost2010PropOp28
 70
     1
102
RTVSPost2010Prop29
280
     1
102
RTVSPost2010PropOp29
 70
     1
102
RTVSPost2010Prop30
280
     1
102
RTVSPost2010PropOp30
 70
     1
102
RTVSPost2010Prop31
280
     0
102
RTVSPost2010PropOp31
 70
     1
102
RTVSPost2010Prop32
280
     0
102
RTVSPost2010PropOp32
 70
     1
102
RTVSPost2010Prop33
280
     0
102
RTVSPost2010PropOp33
 70
     1
102
RTVSPost2010Prop34
280
     0
102
RTVSPost2010PropOp34
 70
     1
102
RTVSPost2010Prop35
280
     0
102
RTVSPost2010PropOp35
 70
     1
102
RTVSPost2010Prop36
280
     0
102
RTVSPost2010PropOp36
 70
     1
102
RTVSPost2010Prop37
 90
       50
102
RTVSPost2010PropOp37
 70
     1
102
RTVSPost2010Prop38
140
0.0
102
RTVSPost2010PropOp38
 70
     1
102
RTVSPost2010Prop39
140
1.0
102
RTVSPost2010PropOp39
 70
     1
102
RTVSPost2010Prop40
 90
        0
102
RTVSPost2010PropOp40
 70
     1
102
RTVSPost2010Prop41ColorIndex
 90
       18
102
RTVSPost2010Prop41ColorRGB
 90
        0
102
RTVSPost2010PropOp41
 70
     1
102
RTVSPost2010Prop42
 90
       50
102
RTVSPost2010PropOp42
 70
     1
102
RTVSPost2010Prop43
 90
        3
102
RTVSPost2010PropOp43
 70
     1
102
RTVSPost2010Prop44ColorIndex
 90
        5
102
RTVSPost2010Prop44ColorRGB
 90
      255
102
RTVSPost2010PropOp44
 70
     1
102
RTVSPost2010Prop45
280
     0
102
RTVSPost2010PropOp45
 70
     1
102
RTVSPost2010Prop46
 90
       50
102
RTVSPost2010PropOp46
 70
     1
102
RTVSPost2010Prop47
 90
       50
102
RTVSPost2010PropOp47
 70
     1
102
RTVSPost2010Prop48
 90
       50
102
RTVSPost2010PropOp48
 70
     1
102
RTVSPost2010Prop49
280
     0
102
RTVSPost2010PropOp49
 70
     1
102
RTVSPost2010Prop50
 90
       50
102
RTVSPost2010PropOp50
 70
     1
102
RTVSPost2010Prop51ColorIndex
 90
      256
102
RTVSPost2010Prop51ColorRGB
 90
-16777216
102
RTVSPost2010PropOp51
 70
     0
102
RTVSPost2010Prop52
140
1.0
102
RTVSPost2010PropOp52
 70
     0
102
RTVSPost2010Prop53
 90
        2
102
RTVSPost2010PropOp53
 70
     1
102
RTVSPost2010Prop54
  1
strokes_ogs.tif
102
RTVSPost2010PropOp54
 70
     1
102
RTVSPost2010Prop55
280
     0
102
RTVSPost2010PropOp55
 70
     1
102
RTVSPost2010Prop56
140
1.0
102
RTVSPost2010PropOp56
 70
     1
102
RTVSPost2010Prop57
140
1.0
102
RTVSPost2010PropOp57
 70
     1
  0
XRECORD
  5
396
102
{ACAD_REACTORS
330
395
102
}
330
395
100
AcDbXrecord
280
     1
102
RTVSPropertyOp0
 70
     1
102
RTVSPropertyOp1
 70
     1
102
RTVSPropertyOp2
 70
     1
102
RTVSPropertyOp3
 70
     1
102
RTVSPropertyOp4
 70
     1
102
RTVSPropertyOp5
 70
     1
102
RTVSPropertyOp6
 70
     1
102
RTVSPropertyOp7
 70
     1
102
RTVSPropertyOp8
 70
     1
102
RTVSPropertyOp9
 70
     1
102
RTVSPropertyOp10
 70
     1
102
RTVSPropertyOp11
 70
     1
102
RTVSPropertyOp12
 70
     1
102
RTVSPropertyOp13
 70
     1
102
RTVSPropertyOp14
 70
     1
102
RTVSPropertyOp15
 70
     1
102
RTVSPropertyOp16
 70
     1
102
RTVSPropertyOp17
 70
     1
102
RTVSPropertyOp18
 70
     1
102
RTVSPropertyOp19
 70
     1
102
RTVSPropertyOp20
 70
     1
102
RTVSPropertyOp21
 70
     1
102
RTVSPropertyOp22
 70
     1
102
RTVSPropertyOp23
 70
     1
102
RTVSPropertyOp24
 70
     1
102
RTVSPropertyOp25
 70
     1
102
RTVSPropertyOp26
 70
     1
102
RTVSPropertyOp27
 70
     1
102
RTVSPropertyOp28
 70
     1
102
RTVSPropertyOp29
 70
     1
102
RTVSPropertyOp30
 70
     1
102
RTVSPropertyOp31
 70
     1
102
RTVSPropertyOp32
 70
     1
102
RTVSPropertyOp33
 70
     1
102
RTVSPropertyOp34
 70
     1
102
RTVSPropertyOp35
 70
     1
102
RTVSPropertyOp36
 70
     1
102
RTVSPropertyOp37
 70
     1
102
RTVSPropertyOp38
 70
     1
102
RTVSPropertyOp39
 70
     1
102
RTVSPropertyOp40
 70
     1
102
RTVSPropertyOp41
 70
     1
102
RTVSPropertyOp42
 70
     1
102
RTVSPropertyOp43
 70
     1
102
RTVSPropertyOp44
 70
     1
102
RTVSPropertyOp45
 70
     1
102
RTVSPropertyOp46
 70
     1
102
RTVSPropertyOp47
 70
     1
102
RTVSPropertyOp48
 70
     1
102
RTVSPropertyOp49
 70
     1
102
RTVSPropertyOp50
 70
     1
102
RTVSPropertyOp51
 70
     0
102
RTVSPropertyOp52
 70
     0
102
RTVSPropertyOp53
 70
     1
102
RTVSPropertyOp54
 70
     1
102
RTVSPropertyOp55
 70
     1
102
RTVSPropertyOp56
 70
     1
102
RTVSPropertyOp57
 70
     1
102
RTVSPost2010Prop28
280
     0
102
RTVSPost2010PropOp28
 70
     1
102
RTVSPost2010Prop29
280
     1
102
RTVSPost2010PropOp29
 70
     1
102
RTVSPost2010Prop30
280
     1
102
RTVSPost2010PropOp30
 70
     1
102
RTVSPost2010Prop31
280
     0
102
RTVSPost2010PropOp31
 70
     1
102
RTVSPost2010Prop32
280
     0
102
RTVSPost2010PropOp32
 70
     1
102
RTVSPost2010Prop33
280
     0
102
RTVSPost2010PropOp33
 70
     1
102
RTVSPost2010Prop34
280
     0
102
RTVSPost2010PropOp34
 70
     1
102
RTVSPost2010Prop35
280
     0
102
RTVSPost2010PropOp35
 70
     1
102
RTVSPost2010Prop36
280
     0
102
RTVSPost2010PropOp36
 70
     1
102
RTVSPost2010Prop37
 90
       50
102
RTVSPost2010PropOp37
 70
     1
102
RTVSPost2010Prop38
140
0.0
102
RTVSPost2010PropOp38
 70
     1
102
RTVSPost2010Prop39
140
1.0
102
RTVSPost2010PropOp39
 70
     1
102
RTVSPost2010Prop40
 90
        0
102
RTVSPost2010PropOp40
 70
     1
102
RTVSPost2010Prop41ColorIndex
 90
       18
102
RTVSPost2010Prop41ColorRGB
 90
        0
102
RTVSPost2010PropOp41
 70
     1
102
RTVSPost2010Prop42
 90
       50
102
RTVSPost2010PropOp42
 70
     1
102
RTVSPost2010Prop43
 90
        3
102
RTVSPost2010PropOp43
 70
     1
102
RTVSPost2010Prop44ColorIndex
 90
        5
102
RTVSPost2010Prop44ColorRGB
 90
      255
102
RTVSPost2010PropOp44
 70
     1
102
RTVSPost2010Prop45
280
     0
102
RTVSPost2010PropOp45
 70
     1
102
RTVSPost2010Prop46
 90
       50
102
RTVSPost2010PropOp46
 70
     1
102
RTVSPost2010Prop47
 90
       50
102
RTVSPost2010PropOp47
 70
     1
102
RTVSPost2010Prop48
 90
       50
102
RTVSPost2010PropOp48
 70
     1
102
RTVSPost2010Prop49
280
     0
102
RTVSPost2010PropOp49
 70
     1
102
RTVSPost2010Prop50
 90
       50
102
RTVSPost2010PropOp50
 70
     1
102
RTVSPost2010Prop51ColorIndex
 90
      256
102
RTVSPost2010Prop51ColorRGB
 90
-16777216
102
RTVSPost2010PropOp51
 70
     0
102
RTVSPost2010Prop52
140
1.0
102
RTVSPost2010PropOp52
 70
     0
102
RTVSPost2010Prop53
 90
        2
102
RTVSPost2010PropOp53
 70
     1
102
RTVSPost2010Prop54
  1
strokes_ogs.tif
102
RTVSPost2010PropOp54
 70
     1
102
RTVSPost2010Prop55
280
     0
102
RTVSPost2010PropOp55
 70
     1
102
RTVSPost2010Prop56
140
1.0
102
RTVSPost2010PropOp56
 70
     1
102
RTVSPost2010Prop57
140
1.0
102
RTVSPost2010PropOp57
 70
     1
  0
XRECORD
  5
388
102
{ACAD_REACTORS
330
387
102
}
330
387
100
AcDbXrecord
280
     1
102
RTVSPropertyOp0
 70
     1
102
RTVSPropertyOp1
 70
     1
102
RTVSPropertyOp2
 70
     1
102
RTVSPropertyOp3
 70
     1
102
RTVSPropertyOp4
 70
     1
102
RTVSPropertyOp5
 70
     1
102
RTVSPropertyOp6
 70
     1
102
RTVSPropertyOp7
 70
     1
102
RTVSPropertyOp8
 70
     1
102
RTVSPropertyOp9
 70
     1
102
RTVSPropertyOp10
 70
     1
102
RTVSPropertyOp11
 70
     1
102
RTVSPropertyOp12
 70
     1
102
RTVSPropertyOp13
 70
     1
102
RTVSPropertyOp14
 70
     1
102
RTVSPropertyOp15
 70
     1
102
RTVSPropertyOp16
 70
     1
102
RTVSPropertyOp17
 70
     1
102
RTVSPropertyOp18
 70
     1
102
RTVSPropertyOp19
 70
     1
102
RTVSPropertyOp20
 70
     1
102
RTVSPropertyOp21
 70
     1
102
RTVSPropertyOp22
 70
     1
102
RTVSPropertyOp23
 70
     1
102
RTVSPropertyOp24
 70
     1
102
RTVSPropertyOp25
 70
     1
102
RTVSPropertyOp26
 70
     1
102
RTVSPropertyOp27
 70
     1
102
RTVSPropertyOp28
 70
     1
102
RTVSPropertyOp29
 70
     1
102
RTVSPropertyOp30
 70
     1
102
RTVSPropertyOp31
 70
     1
102
RTVSPropertyOp32
 70
     1
102
RTVSPropertyOp33
 70
     1
102
RTVSPropertyOp34
 70
     1
102
RTVSPropertyOp35
 70
     1
102
RTVSPropertyOp36
 70
     1
102
RTVSPropertyOp37
 70
     1
102
RTVSPropertyOp38
 70
     1
102
RTVSPropertyOp39
 70
     1
102
RTVSPropertyOp40
 70
     1
102
RTVSPropertyOp41
 70
     1
102
RTVSPropertyOp42
 70
     1
102
RTVSPropertyOp43
 70
     1
102
RTVSPropertyOp44
 70
     1
102
RTVSPropertyOp45
 70
     1
102
RTVSPropertyOp46
 70
     1
102
RTVSPropertyOp47
 70
     1
102
RTVSPropertyOp48
 70
     1
102
RTVSPropertyOp49
 70
     1
102
RTVSPropertyOp50
 70
     1
102
RTVSPropertyOp51
 70
     0
102
RTVSPropertyOp52
 70
     0
102
RTVSPropertyOp53
 70
     1
102
RTVSPropertyOp54
 70
     1
102
RTVSPropertyOp55
 70
     1
102
RTVSPropertyOp56
 70
     1
102
RTVSPropertyOp57
 70
     1
102
RTVSPost2010Prop28
280
     0
102
RTVSPost2010PropOp28
 70
     1
102
RTVSPost2010Prop29
280
     1
102
RTVSPost2010PropOp29
 70
     1
102
RTVSPost2010Prop30
280
     1
102
RTVSPost2010PropOp30
 70
     1
102
RTVSPost2010Prop31
280
     0
102
RTVSPost2010PropOp31
 70
     1
102
RTVSPost2010Prop32
280
     0
102
RTVSPost2010PropOp32
 70
     1
102
RTVSPost2010Prop33
280
     0
102
RTVSPost2010PropOp33
 70
     1
102
RTVSPost2010Prop34
280
     0
102
RTVSPost2010PropOp34
 70
     1
102
RTVSPost2010Prop35
280
     0
102
RTVSPost2010PropOp35
 70
     1
102
RTVSPost2010Prop36
280
     0
102
RTVSPost2010PropOp36
 70
     1
102
RTVSPost2010Prop37
 90
       50
102
RTVSPost2010PropOp37
 70
     1
102
RTVSPost2010Prop38
140
0.0
102
RTVSPost2010PropOp38
 70
     1
102
RTVSPost2010Prop39
140
1.0
102
RTVSPost2010PropOp39
 70
     1
102
RTVSPost2010Prop40
 90
        0
102
RTVSPost2010PropOp40
 70
     1
102
RTVSPost2010Prop41ColorIndex
 90
       18
102
RTVSPost2010Prop41ColorRGB
 90
        0
102
RTVSPost2010PropOp41
 70
     1
102
RTVSPost2010Prop42
 90
       50
102
RTVSPost2010PropOp42
 70
     1
102
RTVSPost2010Prop43
 90
        3
102
RTVSPost2010PropOp43
 70
     1
102
RTVSPost2010Prop44ColorIndex
 90
        5
102
RTVSPost2010Prop44ColorRGB
 90
      255
102
RTVSPost2010PropOp44
 70
     1
102
RTVSPost2010Prop45
280
     0
102
RTVSPost2010PropOp45
 70
     1
102
RTVSPost2010Prop46
 90
       50
102
RTVSPost2010PropOp46
 70
     1
102
RTVSPost2010Prop47
 90
       50
102
RTVSPost2010PropOp47
 70
     1
102
RTVSPost2010Prop48
 90
       50
102
RTVSPost2010PropOp48
 70
     1
102
RTVSPost2010Prop49
280
     0
102
RTVSPost2010PropOp49
 70
     1
102
RTVSPost2010Prop50
 90
       50
102
RTVSPost2010PropOp50
 70
     1
102
RTVSPost2010Prop51ColorIndex
 90
      256
102
RTVSPost2010Prop51ColorRGB
 90
-16777216
102
RTVSPost2010PropOp51
 70
     0
102
RTVSPost2010Prop52
140
1.0
102
RTVSPost2010PropOp52
 70
     0
102
RTVSPost2010Prop53
 90
        2
102
RTVSPost2010PropOp53
 70
     1
102
RTVSPost2010Prop54
  1
strokes_ogs.tif
102
RTVSPost2010PropOp54
 70
     1
102
RTVSPost2010Prop55
280
     0
102
RTVSPost2010PropOp55
 70
     1
102
RTVSPost2010Prop56
140
1.0
102
RTVSPost2010PropOp56
 70
     1
102
RTVSPost2010Prop57
140
1.0
102
RTVSPost2010PropOp57
 70
     1
  0
XRECORD
  5
3A8
102
{ACAD_REACTORS
330
3A7
102
}
330
3A7
100
AcDbXrecord
280
     1
102
RTVSPropertyOp0
 70
     1
102
RTVSPropertyOp1
 70
     1
102
RTVSPropertyOp2
 70
     1
102
RTVSPropertyOp3
 70
     1
102
RTVSPropertyOp4
 70
     1
102
RTVSPropertyOp5
 70
     1
102
RTVSPropertyOp6
 70
     1
102
RTVSPropertyOp7
 70
     1
102
RTVSPropertyOp8
 70
     1
102
RTVSPropertyOp9
 70
     1
102
RTVSPropertyOp10
 70
     1
102
RTVSPropertyOp11
 70
     1
102
RTVSPropertyOp12
 70
     1
102
RTVSPropertyOp13
 70
     1
102
RTVSPropertyOp14
 70
     1
102
RTVSPropertyOp15
 70
     1
102
RTVSPropertyOp16
 70
     1
102
RTVSPropertyOp17
 70
     1
102
RTVSPropertyOp18
 70
     1
102
RTVSPropertyOp19
 70
     1
102
RTVSPropertyOp20
 70
     1
102
RTVSPropertyOp21
 70
     1
102
RTVSPropertyOp22
 70
     1
102
RTVSPropertyOp23
 70
     1
102
RTVSPropertyOp24
 70
     1
102
RTVSPropertyOp25
 70
     1
102
RTVSPropertyOp26
 70
     1
102
RTVSPropertyOp27
 70
     1
102
RTVSPropertyOp28
 70
     1
102
RTVSPropertyOp29
 70
     1
102
RTVSPropertyOp30
 70
     1
102
RTVSPropertyOp31
 70
     1
102
RTVSPropertyOp32
 70
     1
102
RTVSPropertyOp33
 70
     1
102
RTVSPropertyOp34
 70
     1
102
RTVSPropertyOp35
 70
     1
102
RTVSPropertyOp36
 70
     1
102
RTVSPropertyOp37
 70
     1
102
RTVSPropertyOp38
 70
     1
102
RTVSPropertyOp39
 70
     1
102
RTVSPropertyOp40
 70
     1
102
RTVSPropertyOp41
 70
     1
102
RTVSPropertyOp42
 70
     1
102
RTVSPropertyOp43
 70
     1
102
RTVSPropertyOp44
 70
     1
102
RTVSPropertyOp45
 70
     1
102
RTVSPropertyOp46
 70
     1
102
RTVSPropertyOp47
 70
     1
102
RTVSPropertyOp48
 70
     1
102
RTVSPropertyOp49
 70
     1
102
RTVSPropertyOp50
 70
     1
102
RTVSPropertyOp51
 70
     0
102
RTVSPropertyOp52
 70
     0
102
RTVSPropertyOp53
 70
     1
102
RTVSPropertyOp54
 70
     1
102
RTVSPropertyOp55
 70
     1
102
RTVSPropertyOp56
 70
     1
102
RTVSPropertyOp57
 70
     1
102
RTVSPost2010Prop28
280
     0
102
RTVSPost2010PropOp28
 70
     1
102
RTVSPost2010Prop29
280
     1
102
RTVSPost2010PropOp29
 70
     1
102
RTVSPost2010Prop30
280
     1
102
RTVSPost2010PropOp30
 70
     1
102
RTVSPost2010Prop31
280
     0
102
RTVSPost2010PropOp31
 70
     1
102
RTVSPost2010Prop32
280
     0
102
RTVSPost2010PropOp32
 70
     1
102
RTVSPost2010Prop33
280
     0
102
RTVSPost2010PropOp33
 70
     1
102
RTVSPost2010Prop34
280
     0
102
RTVSPost2010PropOp34
 70
     1
102
RTVSPost2010Prop35
280
     0
102
RTVSPost2010PropOp35
 70
     1
102
RTVSPost2010Prop36
280
     0
102
RTVSPost2010PropOp36
 70
     1
102
RTVSPost2010Prop37
 90
       50
102
RTVSPost2010PropOp37
 70
     1
102
RTVSPost2010Prop38
140
0.0
102
RTVSPost2010PropOp38
 70
     1
102
RTVSPost2010Prop39
140
1.0
102
RTVSPost2010PropOp39
 70
     1
102
RTVSPost2010Prop40
 90
        0
102
RTVSPost2010PropOp40
 70
     1
102
RTVSPost2010Prop41ColorIndex
 90
       18
102
RTVSPost2010Prop41ColorRGB
 90
        0
102
RTVSPost2010PropOp41
 70
     1
102
RTVSPost2010Prop42
 90
       50
102
RTVSPost2010PropOp42
 70
     1
102
RTVSPost2010Prop43
 90
        3
102
RTVSPost2010PropOp43
 70
     1
102
RTVSPost2010Prop44ColorIndex
 90
        5
102
RTVSPost2010Prop44ColorRGB
 90
      255
102
RTVSPost2010PropOp44
 70
     1
102
RTVSPost2010Prop45
280
     0
102
RTVSPost2010PropOp45
 70
     1
102
RTVSPost2010Prop46
 90
       50
102
RTVSPost2010PropOp46
 70
     1
102
RTVSPost2010Prop47
 90
       50
102
RTVSPost2010PropOp47
 70
     1
102
RTVSPost2010Prop48
 90
       50
102
RTVSPost2010PropOp48
 70
     1
102
RTVSPost2010Prop49
280
     0
102
RTVSPost2010PropOp49
 70
     1
102
RTVSPost2010Prop50
 90
       50
102
RTVSPost2010PropOp50
 70
     1
102
RTVSPost2010Prop51ColorIndex
 90
      256
102
RTVSPost2010Prop51ColorRGB
 90
-16777216
102
RTVSPost2010PropOp51
 70
     0
102
RTVSPost2010Prop52
140
1.0
102
RTVSPost2010PropOp52
 70
     0
102
RTVSPost2010Prop53
 90
        2
102
RTVSPost2010PropOp53
 70
     1
102
RTVSPost2010Prop54
  1
strokes_ogs.tif
102
RTVSPost2010PropOp54
 70
     1
102
RTVSPost2010Prop55
280
     0
102
RTVSPost2010PropOp55
 70
     1
102
RTVSPost2010Prop56
140
1.0
102
RTVSPost2010PropOp56
 70
     1
102
RTVSPost2010Prop57
140
1.0
102
RTVSPost2010PropOp57
 70
     1
  0
ENDSEC
  0
EOF
