  0
SECTION
  2
HEADER
  9
$ACADVER
  1
AC1015
  9
$ACADMAINTVER
 70
     6
  9
$DWGCODEPAGE
  3
ANSI_932
  9
$INSBASE
 10
0.0
 20
0.0
 30
0.0
  9
$EXTMIN
 10
-102.500000000012
 20
-32.1387041432245
 30
0.0
  9
$EXTMAX
 10
82.0027242016933
 20
107.000000000012
 30
0.0
  9
$LIMMIN
 10
0.0
 20
0.0
  9
$LIMMAX
 10
12.0
 20
9.0
  9
$ORTHOMODE
 70
     0
  9
$REGENMODE
 70
     1
  9
$FILLMODE
 70
     1
  9
$QTEXTMODE
 70
     0
  9
$MIRRTEXT
 70
     1
  9
$LTSCALE
 40
1.0
  9
$ATTMODE
 70
     1
  9
$TEXTSIZE
 40
0.2
  9
$TRACEWID
 40
0.05
  9
$TEXTSTYLE
  7
Standard
  9
$CLAYER
  8
0
  9
$CELTYPE
  6
ByLayer
  9
$CECOLOR
 62
   256
  9
$CELTSCALE
 40
1.0
  9
$DISPSILH
 70
     0
  9
$DIMSCALE
 40
1.0
  9
$DIMASZ
 40
0.18
  9
$DIMEXO
 40
0.0625
  9
$DIMDLI
 40
0.38
  9
$DIMRND
 40
0.0
  9
$DIMDLE
 40
0.0
  9
$DIMEXE
 40
0.18
  9
$DIMTP
 40
0.0
  9
$DIMTM
 40
0.0
  9
$DIMTXT
 40
0.18
  9
$DIMCEN
 40
0.09
  9
$DIMTSZ
 40
0.0
  9
$DIMTOL
 70
     0
  9
$DIMLIM
 70
     0
  9
$DIMTIH
 70
     1
  9
$DIMTOH
 70
     1
  9
$DIMSE1
 70
     0
  9
$DIMSE2
 70
     0
  9
$DIMTAD
 70
     0
  9
$DIMZIN
 70
     0
  9
$DIMBLK
  1

  9
$DIMASO
 70
     1
  9
$DIMSHO
 70
     1
  9
$DIMPOST
  1

  9
$DIMAPOST
  1

  9
$DIMALT
 70
     0
  9
$DIMALTD
 70
     2
  9
$DIMALTF
 40
25.4
  9
$DIMLFAC
 40
1.0
  9
$DIMTOFL
 70
     0
  9
$DIMTVP
 40
0.0
  9
$DIMTIX
 70
     0
  9
$DIMSOXD
 70
     0
  9
$DIMSAH
 70
     0
  9
$DIMBLK1
  1

  9
$DIMBLK2
  1

  9
$DIMSTYLE
  2
Standard
  9
$DIMCLRD
 70
     0
  9
$DIMCLRE
 70
     0
  9
$DIMCLRT
 70
     0
  9
$DIMTFAC
 40
1.0
  9
$DIMGAP
 40
0.09
  9
$DIMJUST
 70
     0
  9
$DIMSD1
 70
     0
  9
$DIMSD2
 70
     0
  9
$DIMTOLJ
 70
     1
  9
$DIMTZIN
 70
     0
  9
$DIMALTZ
 70
     0
  9
$DIMALTTZ
 70
     0
  9
$DIMUPT
 70
     0
  9
$DIMDEC
 70
     4
  9
$DIMTDEC
 70
     4
  9
$DIMALTU
 70
     2
  9
$DIMALTTD
 70
     2
  9
$DIMTXSTY
  7
Standard
  9
$DIMAUNIT
 70
     0
  9
$DIMADEC
 70
     0
  9
$DIMALTRND
 40
0.0
  9
$DIMAZIN
 70
     0
  9
$DIMDSEP
 70
    46
  9
$DIMATFIT
 70
     3
  9
$DIMFRAC
 70
     0
  9
$DIMLDRBLK
  1

  9
$DIMLUNIT
 70
     2
  9
$DIMLWD
 70
    -2
  9
$DIMLWE
 70
    -2
  9
$DIMTMOVE
 70
     0
  9
$LUNITS
 70
     2
  9
$LUPREC
 70
     4
  9
$SKETCHINC
 40
0.1
  9
$FILLETRAD
 40
0.5
  9
$AUNITS
 70
     0
  9
$AUPREC
 70
     0
  9
$MENU
  1
.
  9
$ELEVATION
 40
0.0
  9
$PELEVATION
 40
0.0
  9
$THICKNESS
 40
0.0
  9
$LIMCHECK
 70
     0
  9
$CHAMFERA
 40
0.0
  9
$CHAMFERB
 40
0.0
  9
$CHAMFERC
 40
0.0
  9
$CHAMFERD
 40
0.0
  9
$SKPOLY
 70
     0
  9
$TDCREATE
 40
2458080.396135926
  9
$TDUCREATE
 40
2458080.021135926
  9
$TDUPDATE
 40
2458080.396137199
  9
$TDUUPDATE
 40
2458080.021137199
  9
$TDINDWG
 40
0.0000000116
  9
$TDUSRTIMER
 40
0.0000000116
  9
$USRTIMER
 70
     1
  9
$ANGBASE
 50
0.0
  9
$ANGDIR
 70
     0
  9
$PDMODE
 70
     0
  9
$PDSIZE
 40
0.0
  9
$PLINEWID
 40
0.0
  9
$SPLFRAME
 70
     0
  9
$SPLINETYPE
 70
     6
  9
$SPLINESEGS
 70
     8
  9
$HANDSEED
  5
3BD
  9
$SURFTAB1
 70
     6
  9
$SURFTAB2
 70
     6
  9
$SURFTYPE
 70
     6
  9
$SURFU
 70
     6
  9
$SURFV
 70
     6
  9
$UCSBASE
  2

  9
$UCSNAME
  2

  9
$UCSORG
 10
0.0
 20
0.0
 30
0.0
  9
$UCSXDIR
 10
1.0
 20
0.0
 30
0.0
  9
$UCSYDIR
 10
0.0
 20
1.0
 30
0.0
  9
$UCSORTHOREF
  2

  9
$UCSORTHOVIEW
 70
     0
  9
$UCSORGTOP
 10
0.0
 20
0.0
 30
0.0
  9
$UCSORGBOTTOM
 10
0.0
 20
0.0
 30
0.0
  9
$UCSORGLEFT
 10
0.0
 20
0.0
 30
0.0
  9
$UCSORGRIGHT
 10
0.0
 20
0.0
 30
0.0
  9
$UCSORGFRONT
 10
0.0
 20
0.0
 30
0.0
  9
$UCSORGBACK
 10
0.0
 20
0.0
 30
0.0
  9
$PUCSBASE
  2

  9
$PUCSNAME
  2

  9
$PUCSORG
 10
0.0
 20
0.0
 30
0.0
  9
$PUCSXDIR
 10
1.0
 20
0.0
 30
0.0
  9
$PUCSYDIR
 10
0.0
 20
1.0
 30
0.0
  9
$PUCSORTHOREF
  2

  9
$PUCSORTHOVIEW
 70
     0
  9
$PUCSORGTOP
 10
0.0
 20
0.0
 30
0.0
  9
$PUCSORGBOTTOM
 10
0.0
 20
0.0
 30
0.0
  9
$PUCSORGLEFT
 10
0.0
 20
0.0
 30
0.0
  9
$PUCSORGRIGHT
 10
0.0
 20
0.0
 30
0.0
  9
$PUCSORGFRONT
 10
0.0
 20
0.0
 30
0.0
  9
$PUCSORGBACK
 10
0.0
 20
0.0
 30
0.0
  9
$USERI1
 70
     0
  9
$USERI2
 70
     0
  9
$USERI3
 70
     0
  9
$USERI4
 70
     0
  9
$USERI5
 70
     0
  9
$USERR1
 40
19.0
  9
$USERR2
 40
0.0
  9
$USERR3
 40
0.0
  9
$USERR4
 40
0.0
  9
$USERR5
 40
0.0
  9
$WORLDVIEW
 70
     1
  9
$SHADEDGE
 70
     3
  9
$SHADEDIF
 70
    70
  9
$TILEMODE
 70
     1
  9
$MAXACTVP
 70
    64
  9
$PINSBASE
 10
0.0
 20
0.0
 30
0.0
  9
$PLIMCHECK
 70
     0
  9
$PEXTMIN
 10
1.00000000000000E+20
 20
1.00000000000000E+20
 30
1.00000000000000E+20
  9
$PEXTMAX
 10
-1.00000000000000E+20
 20
-1.00000000000000E+20
 30
-1.00000000000000E+20
  9
$PLIMMIN
 10
0.0
 20
0.0
  9
$PLIMMAX
 10
12.0
 20
9.0
  9
$UNITMODE
 70
     0
  9
$VISRETAIN
 70
     1
  9
$PLINEGEN
 70
     0
  9
$PSLTSCALE
 70
     1
  9
$TREEDEPTH
 70
  3020
  9
$CMLSTYLE
  2
Standard
  9
$CMLJUST
 70
     0
  9
$CMLSCALE
 40
1.0
  9
$PROXYGRAPHICS
 70
     1
  9
$MEASUREMENT
 70
     1
  9
$CELWEIGHT
370
    -1
  9
$ENDCAPS
280
     0
  9
$JOINSTYLE
280
     0
  9
$LWDISPLAY
290
     0
  9
$INSUNITS
 70
     4
  9
$HYPERLINKBASE
  1

  9
$STYLESHEET
  1

  9
$XEDIT
290
     1
  9
$CEPSNTYPE
380
     0
  9
$PSTYLEMODE
290
     1
  9
$FINGERPRINTGUID
  2
{4978D841-6B1A-4809-8EC4-1A9592008819}
  9
$VERSIONGUID
  2
{FAEB1C32-E019-11D5-929B-00C0DF256EC4}
  9
$EXTNAMES
290
     1
  9
$PSVPSCALE
 40
0.0
  9
$OLESTARTUP
290
     0
  0
ENDSEC
  0
SECTION
  2
CLASSES
  0
CLASS
  1
ACDBDICTIONARYWDFLT
  2
AcDbDictionaryWithDefault
  3
ObjectDBX Classes
 90
        0
280
     0
281
     0
  0
CLASS
  1
VISUALSTYLE
  2
AcDbVisualStyle
  3
ObjectDBX Classes
 90
     4095
280
     0
281
     0
  0
CLASS
  1
MATERIAL
  2
AcDbMaterial
  3
ObjectDBX Classes
 90
     1153
280
     0
281
     0
  0
CLASS
  1
SCALE
  2
AcDbScale
  3
ObjectDBX Classes
 90
     1153
280
     0
281
     0
  0
CLASS
  1
SUN
  2
AcDbSun
  3
SCENEOE
 90
     1153
280
     0
281
     0
  0
CLASS
  1
DICTIONARYVAR
  2
AcDbDictionaryVar
  3
ObjectDBX Classes
 90
        0
280
     0
281
     0
  0
CLASS
  1
ACDBPLACEHOLDER
  2
AcDbPlaceHolder
  3
ObjectDBX Classes
 90
        0
280
     0
281
     0
  0
CLASS
  1
LAYOUT
  2
AcDbLayout
  3
ObjectDBX Classes
 90
        0
280
     0
281
     0
  0
ENDSEC
  0
SECTION
  2
TABLES
  0
TABLE
  2
VPORT
  5
8
330
0
100
AcDbSymbolTable
 70
     1
  0
VPORT
  5
29
330
8
100
AcDbSymbolTableRecord
100
AcDbViewportTableRecord
  2
*Active
 70
     0
 10
0.0
 20
0.0
 11
1.0
 21
1.0
 12
-10.24863789915935
 22
37.43064792839375
 13
0.0
 23
0.0
 14
0.5
 24
0.5
 15
0.5
 25
0.5
 16
0.0
 26
0.0
 36
1.0
 17
0.0
 27
0.0
 37
0.0
 40
153.0525745575602
 41
1.60267857142857
 42
50.0
 43
0.0
 44
0.0
 50
0.0
 51
0.0
 71
     0
 72
   100
 73
     1
 74
     3
 75
     0
 76
     0
 77
     0
 78
     0
281
     0
 65
     1
110
0.0
120
0.0
130
0.0
111
1.0
121
0.0
131
0.0
112
0.0
122
1.0
132
0.0
 79
     0
146
0.0
  0
ENDTAB
  0
TABLE
  2
LTYPE
  5
5
330
0
100
AcDbSymbolTable
 70
     8
  0
LTYPE
  5
14
330
5
100
AcDbSymbolTableRecord
100
AcDbLinetypeTableRecord
  2
ByBlock
 70
     0
  3

 72
    65
 73
     0
 40
0.0
  0
LTYPE
  5
15
330
5
100
AcDbSymbolTableRecord
100
AcDbLinetypeTableRecord
  2
ByLayer
 70
     0
  3

 72
    65
 73
     0
 40
0.0
  0
LTYPE
  5
16
330
5
100
AcDbSymbolTableRecord
100
AcDbLinetypeTableRecord
  2
Continuous
 70
     0
  3
Solid line
 72
    65
 73
     0
 40
0.0
  0
LTYPE
  5
6A
330
5
100
AcDbSymbolTableRecord
100
AcDbLinetypeTableRecord
  2
DASHED
 70
     0
  3
Dashed
 72
    65
 73
     2
 40
15.0
 49
7.0
 74
     0
 49
-8.0
 74
     0
  0
LTYPE
  5
6B
330
5
100
AcDbSymbolTableRecord
100
AcDbLinetypeTableRecord
  2
DOTTED
 70
     0
  3
Dotted
 72
    65
 73
     2
 40
1.0
 49
0.0
 74
     0
 49
-1.0
 74
     0
  0
LTYPE
  5
6C
330
5
100
AcDbSymbolTableRecord
100
AcDbLinetypeTableRecord
  2
DOT_CENTER
 70
     0
  3
Dot_Center
 72
    65
 73
     4
 40
14.0
 49
12.0
 74
     0
 49
-1.0
 74
     0
 49
0.0
 74
     0
 49
-1.0
 74
     0
  0
LTYPE
  5
6D
330
5
100
AcDbSymbolTableRecord
100
AcDbLinetypeTableRecord
  2
LONG_DASHED
 70
     0
  3
Long_Dashed
 72
    65
 73
     2
 40
15.0
 49
10.0
 74
     0
 49
-5.0
 74
     0
  0
LTYPE
  5
6E
330
5
100
AcDbSymbolTableRecord
100
AcDbLinetypeTableRecord
  2
DASH_CENTER
 70
     0
  3
Dash_Center
 72
    65
 73
     4
 40
14.0
 49
11.0
 74
     0
 49
-1.0
 74
     0
 49
1.0
 74
     0
 49
-1.0
 74
     0
  0
LTYPE
  5
6F
330
5
100
AcDbSymbolTableRecord
100
AcDbLinetypeTableRecord
  2
PHANTOM
 70
     0
  3
Phantom
 72
    65
 73
     6
 40
13.0
 49
10.0
 74
     0
 49
-1.0
 74
     0
 49
0.0
 74
     0
 49
-1.0
 74
     0
 49
0.0
 74
     0
 49
-1.0
 74
     0
  0
LTYPE
  5
70
330
5
100
AcDbSymbolTableRecord
100
AcDbLinetypeTableRecord
  2
CENTER_DASH_DASH
 70
     0
  3
Center_Dash_Dash
 72
    65
 73
     6
 40
14.0
 49
9.0
 74
     0
 49
-1.0
 74
     0
 49
1.0
 74
     0
 49
-1.0
 74
     0
 49
1.0
 74
     0
 49
-1.0
 74
     0
  0
ENDTAB
  0
TABLE
  2
LAYER
  5
2
330
0
100
AcDbSymbolTable
 70
     2
  0
LAYER
  5
10
330
2
100
AcDbSymbolTableRecord
100
AcDbLayerTableRecord
  2
0
 70
     0
 62
     7
  6
Continuous
370
    -3
390
F
  0
LAYER
  5
71
330
2
100
AcDbSymbolTableRecord
100
AcDbLayerTableRecord
  2
1
 70
     0
 62
     7
  6
Continuous
370
    -3
390
F
  0
ENDTAB
  0
TABLE
  2
STYLE
  5
3
330
0
100
AcDbSymbolTable
 70
     1
  0
STYLE
  5
11
330
3
100
AcDbSymbolTableRecord
100
AcDbTextStyleTableRecord
  2
Standard
 70
     0
 40
0.0
 41
1.0
 50
0.0
 71
     0
 42
0.2
  3
txt
  4

  0
ENDTAB
  0
TABLE
  2
VIEW
  5
6
330
0
100
AcDbSymbolTable
 70
     0
  0
ENDTAB
  0
TABLE
  2
UCS
  5
7
330
0
100
AcDbSymbolTable
 70
     0
  0
ENDTAB
  0
TABLE
  2
APPID
  5
9
330
0
100
AcDbSymbolTable
 70
     1
  0
APPID
  5
12
330
9
100
AcDbSymbolTableRecord
100
AcDbRegAppTableRecord
  2
ACAD
 70
     0
  0
ENDTAB
  0
TABLE
  2
DIMSTYLE
  5
A
330
0
100
AcDbSymbolTable
 70
     1
100
AcDbDimStyleTable
  0
DIMSTYLE
105
27
330
A
100
AcDbSymbolTableRecord
100
AcDbDimStyleTableRecord
  2
Standard
 70
     0
178
     0
340
11
  0
ENDTAB
  0
TABLE
  2
BLOCK_RECORD
  5
1
330
0
100
AcDbSymbolTable
 70
     1
  0
BLOCK_RECORD
  5
1F
330
1
100
AcDbSymbolTableRecord
100
AcDbBlockTableRecord
  2
*Model_Space
340
22
  0
BLOCK_RECORD
  5
1B
330
1
100
AcDbSymbolTableRecord
100
AcDbBlockTableRecord
  2
*Paper_Space
340
1E
  0
BLOCK_RECORD
  5
23
330
1
100
AcDbSymbolTableRecord
100
AcDbBlockTableRecord
  2
*Paper_Space0
340
26
  0
ENDTAB
  0
ENDSEC
  0
SECTION
  2
BLOCKS
  0
BLOCK
  5
20
330
1F
100
AcDbEntity
  8
0
100
AcDbBlockBegin
  2
*Model_Space
 70
     0
 10
0.0
 20
0.0
 30
0.0
  3
*Model_Space
  1
*Model_Space
  0
ENDBLK
  5
21
330
1F
100
AcDbEntity
  8
0
100
AcDbBlockEnd
  0
BLOCK
  5
1C
330
1B
100
AcDbEntity
 67
     1
  8
0
100
AcDbBlockBegin
  2
*Paper_Space
 70
     0
 10
0.0
 20
0.0
 30
0.0
  3
*Paper_Space
  1
*Paper_Space
  0
ENDBLK
  5
1D
330
1B
100
AcDbEntity
 67
     1
  8
0
100
AcDbBlockEnd
  0
BLOCK
  5
24
330
23
100
AcDbEntity
  8
0
100
AcDbBlockBegin
  2
*Paper_Space0
 70
     0
 10
0.0
 20
0.0
 30
0.0
  3
*Paper_Space0
  1
*Paper_Space0
  0
ENDBLK
  5
25
330
23
100
AcDbEntity
  8
0
100
AcDbBlockEnd
  0
ENDSEC
  0
SECTION
  2
ENTITIES
  0
POINT
  5
72
330
1F
100
AcDbEntity
  8
1
 62
     3
 60
     1
100
AcDbPoint
 10
-77.5000000000122
 20
22.6000000000124
 30
0.0
  0
POINT
  5
73
330
1F
100
AcDbEntity
  8
1
 62
     3
 60
     1
100
AcDbPoint
 10
-77.5000000000122
 20
25.6000000000124
 30
0.0
  0
LINE
  5
74
330
1F
100
AcDbEntity
  8
1
  6
Continuous
 62
     3
100
AcDbLine
 10
-76.5000000000122
 20
22.6000000000124
 30
0.0
 11
-77.5000000000122
 21
22.6000000000124
 31
0.0
  0
LINE
  5
75
330
1F
100
AcDbEntity
  8
1
  6
Continuous
 62
     3
100
AcDbLine
 10
-76.5000000000122
 20
25.6000000000124
 30
0.0
 11
-77.5000000000122
 21
25.6000000000124
 31
0.0
  0
LINE
  5
76
330
1F
100
AcDbEntity
  8
1
  6
Continuous
 62
     3
100
AcDbLine
 10
-14.0000000000122
 20
25.1000000000124
 30
0.0
 11
-14.0000000000122
 21
22.6000000000124
 31
0.0
  0
LINE
  5
77
330
1F
100
AcDbEntity
  8
1
  6
Continuous
 62
     3
100
AcDbLine
 10
32.2783121635008
 20
-9.64764322547842
 30
0.0
 11
22.9999999999878
 21
-9.64764322547842
 31
0.0
  0
LINE
  5
78
330
1F
100
AcDbEntity
  8
1
  6
Continuous
 62
     3
100
AcDbLine
 10
32.2783121635008
 20
-11.1573061351459
 30
0.0
 11
22.9999999999878
 21
-11.1573061351459
 31
0.0
  0
LINE
  5
79
330
1F
100
AcDbEntity
  8
1
  6
Continuous
 62
     3
100
AcDbLine
 10
32.2783121635008
 20
-9.64764322547842
 30
0.0
 11
32.2783121635008
 21
-11.1573061351459
 31
0.0
  0
LINE
  5
7A
330
1F
100
AcDbEntity
  8
1
  6
Continuous
 62
     3
100
AcDbLine
 10
32.2783121635008
 20
1.0674928807441
 30
0.0
 11
32.2783121635008
 21
-1.06749288071931
 31
0.0
  0
LINE
  5
7B
330
1F
100
AcDbEntity
  8
1
  6
Continuous
 62
     3
100
AcDbLine
 10
32.2783121635008
 20
-1.06749288071931
 30
0.0
 11
22.9999999999878
 21
-1.06749288071931
 31
0.0
  0
LINE
  5
7C
330
1F
100
AcDbEntity
  8
1
  6
Continuous
 62
     3
100
AcDbLine
 10
32.2783121635008
 20
11.1573061351707
 30
0.0
 11
32.2783121635008
 21
9.6476432255032
 31
0.0
  0
LINE
  5
7D
330
1F
100
AcDbEntity
  8
1
  6
Continuous
 62
     3
100
AcDbLine
 10
22.9999999999878
 20
15.7500000000124
 30
0.0
 11
22.9999999999878
 21
-15.7499999999876
 31
0.0
  0
LINE
  5
7E
330
1F
100
AcDbEntity
  8
1
  6
Continuous
 62
     3
100
AcDbLine
 10
22.9999999999878
 20
1.0674928807441
 30
0.0
 11
32.2783121635008
 21
1.0674928807441
 31
0.0
  0
LINE
  5
7F
330
1F
100
AcDbEntity
  8
1
  6
Continuous
 62
     3
100
AcDbLine
 10
22.9999999999878
 20
9.6476432255032
 30
0.0
 11
32.2783121635008
 21
9.6476432255032
 31
0.0
  0
LINE
  5
80
330
1F
100
AcDbEntity
  8
1
  6
Continuous
 62
     3
100
AcDbLine
 10
22.9999999999878
 20
11.1573061351707
 30
0.0
 11
32.2783121635008
 21
11.1573061351707
 31
0.0
  0
LINE
  5
81
330
1F
100
AcDbEntity
  8
1
  6
Continuous
 62
     3
100
AcDbLine
 10
-30.2783121635251
 20
-9.64764322547842
 30
0.0
 11
-30.2783121635251
 21
-11.1573061351459
 31
0.0
  0
LINE
  5
82
330
1F
100
AcDbEntity
  8
1
  6
Continuous
 62
     3
100
AcDbLine
 10
-30.2783121635251
 20
1.0674928807441
 30
0.0
 11
-18.5000000000122
 21
1.0674928807441
 31
0.0
  0
LINE
  5
83
330
1F
100
AcDbEntity
  8
1
  6
Continuous
 62
     3
100
AcDbLine
 10
-30.2783121635251
 20
1.0674928807441
 30
0.0
 11
-30.2783121635251
 21
-1.06749288071931
 31
0.0
  0
LINE
  5
84
330
1F
100
AcDbEntity
  8
1
  6
Continuous
 62
     3
100
AcDbLine
 10
-30.2783121635251
 20
9.6476432255032
 30
0.0
 11
-18.5000000000122
 21
9.6476432255032
 31
0.0
  0
LINE
  5
85
330
1F
100
AcDbEntity
  8
1
  6
Continuous
 62
     3
100
AcDbLine
 10
-30.2783121635251
 20
11.1573061351707
 30
0.0
 11
-18.5000000000122
 21
11.1573061351707
 31
0.0
  0
LINE
  5
86
330
1F
100
AcDbEntity
  8
1
  6
Continuous
 62
     3
100
AcDbLine
 10
-30.2783121635251
 20
11.1573061351707
 30
0.0
 11
-30.2783121635251
 21
9.6476432255032
 31
0.0
  0
LINE
  5
87
330
1F
100
AcDbEntity
  8
1
  6
Continuous
 62
     3
100
AcDbLine
 10
-11.0000000000122
 20
20.5481555856732
 30
0.0
 11
-11.0000000000122
 21
16.4142135623855
 31
0.0
  0
LINE
  5
88
330
1F
100
AcDbEntity
  8
1
  6
Continuous
 62
     3
100
AcDbLine
 10
-11.2928932188256
 20
15.707106781199
 30
0.0
 11
-11.9571067811987
 21
15.0428932188258
 31
0.0
  0
LINE
  5
89
330
1F
100
AcDbEntity
  8
1
  6
Continuous
 62
     3
100
AcDbLine
 10
-6.6604013952407
 20
14.0000000000124
 30
0.0
 11
-6.6604013952407
 21
18.0000000000124
 31
0.0
  0
LINE
  5
8A
330
1F
100
AcDbEntity
  8
1
  6
Continuous
 62
     3
100
AcDbLine
 10
6.66040139521637
 20
18.0000000000124
 30
0.0
 11
6.66040139521637
 21
14.0000000000124
 31
0.0
  0
LINE
  5
8B
330
1F
100
AcDbEntity
  8
1
  6
Continuous
 62
     3
100
AcDbLine
 10
4.99999999998784
 20
11.8659866700659
 30
0.0
 11
8.21969752837097
 21
13.5000000000124
 31
0.0
  0
LINE
  5
8C
330
1F
100
AcDbEntity
  8
1
  6
Continuous
 62
     3
100
AcDbLine
 10
-2.65142612601016
 20
10.0000000000124
 30
0.0
 11
2.65142612598584
 21
10.0000000000124
 31
0.0
  0
LINE
  5
8D
330
1F
100
AcDbEntity
  8
1
  6
Continuous
 62
     3
100
AcDbLine
 10
-1.1243321700327
 20
7.7623821350842
 30
0.0
 11
1.12433217000837
 21
7.7623821350842
 31
0.0
  0
LINE
  5
8E
330
1F
100
AcDbEntity
  8
1
  6
Continuous
 62
     3
100
AcDbLine
 10
-1.1243321700327
 20
7.7623821350842
 30
0.0
 11
-4.50000000001217
 21
9.71132486541759
 31
0.0
  0
LINE
  5
8F
330
1F
100
AcDbEntity
  8
1
  6
Continuous
 62
     3
100
AcDbLine
 10
-5.00000000001217
 20
11.8659866700659
 30
0.0
 11
-5.00000000001217
 21
10.577350269202
 31
0.0
  0
LINE
  5
90
330
1F
100
AcDbEntity
  8
1
  6
Continuous
 62
     3
100
AcDbLine
 10
4.49999999998784
 20
9.71132486541759
 30
0.0
 11
1.12433217000837
 21
7.7623821350842
 31
0.0
  0
LINE
  5
91
330
1F
100
AcDbEntity
  8
1
  6
Continuous
 62
     3
100
AcDbLine
 10
4.99999999998784
 20
10.577350269202
 30
0.0
 11
4.99999999998784
 21
11.8659866700659
 31
0.0
  0
LINE
  5
92
330
1F
100
AcDbEntity
  8
1
  6
Continuous
 62
     3
100
AcDbLine
 10
-5.00000000001217
 20
11.8659866700659
 30
0.0
 11
-10.2627656016086
 21
13.2992248609646
 31
0.0
  0
LINE
  5
93
330
1F
100
AcDbEntity
  8
1
  6
Continuous
 62
     3
100
AcDbLine
 10
-18.5000000000122
 20
11.1573061351707
 30
0.0
 11
-18.5000000000122
 21
14.7500000000124
 31
0.0
  0
LINE
  5
94
330
1F
100
AcDbEntity
  8
1
  6
Continuous
 62
     3
100
AcDbLine
 10
-18.5000000000122
 20
9.6476432255032
 30
0.0
 11
-18.5000000000122
 21
1.0674928807441
 31
0.0
  0
LINE
  5
95
330
1F
100
AcDbEntity
  8
1
  6
Continuous
 62
     3
100
AcDbLine
 10
-18.5000000000122
 20
-14.7499999999876
 30
0.0
 11
-18.5000000000122
 21
-11.1573061351459
 31
0.0
  0
LINE
  5
96
330
1F
100
AcDbEntity
  8
1
  6
Continuous
 62
     3
100
AcDbLine
 10
-18.5000000000122
 20
-1.06749288071931
 30
0.0
 11
-18.5000000000122
 21
-9.64764322547842
 31
0.0
  0
LINE
  5
97
330
1F
100
AcDbEntity
  8
1
  6
Continuous
 62
     3
100
AcDbLine
 10
-18.5000000000122
 20
-11.1573061351459
 30
0.0
 11
-30.2783121635251
 21
-11.1573061351459
 31
0.0
  0
LINE
  5
98
330
1F
100
AcDbEntity
  8
1
  6
Continuous
 62
     3
100
AcDbLine
 10
-18.5000000000122
 20
-9.64764322547842
 30
0.0
 11
-30.2783121635251
 21
-9.64764322547842
 31
0.0
  0
LINE
  5
99
330
1F
100
AcDbEntity
  8
1
  6
Continuous
 62
     3
100
AcDbLine
 10
-18.5000000000122
 20
-1.06749288071931
 30
0.0
 11
-30.2783121635251
 21
-1.06749288071931
 31
0.0
  0
LINE
  5
9A
330
1F
100
AcDbEntity
  8
1
  6
Continuous
 62
     3
100
AcDbLine
 10
-12.2500000000122
 20
-13.2499999999876
 30
0.0
 11
-12.2500000000122
 21
13.2500000000124
 31
0.0
  0
LINE
  5
9B
330
1F
100
AcDbEntity
  8
1
  6
Continuous
 62
     3
100
AcDbLine
 10
-11.0000000000122
 20
12.5000000000124
 30
0.0
 11
-11.0000000000122
 21
-14.2928932188011
 31
0.0
  0
LINE
  5
9C
330
1F
100
AcDbEntity
  8
1
  6
Continuous
 62
     3
100
AcDbLine
 10
4.99999999998784
 20
8.36598667006591
 30
0.0
 11
4.99999999998784
 21
-15.4999999999876
 31
0.0
  0
LINE
  5
9D
330
1F
100
AcDbEntity
  8
1
  6
Continuous
 62
     3
100
AcDbLine
 10
14.9999999999878
 20
-16.9999999999876
 30
0.0
 11
14.9999999999878
 21
17.0000000000124
 31
0.0
  0
LINE
  5
9E
330
1F
100
AcDbEntity
  8
1
  6
Continuous
 62
     3
100
AcDbLine
 10
-7.20000000001218
 20
27.6000000000124
 30
0.0
 11
7.19999999998782
 21
27.6000000000124
 31
0.0
  0
LINE
  5
9F
330
1F
100
AcDbEntity
  8
1
  6
Continuous
 62
     3
100
AcDbLine
 10
-3.75277674974487
 20
32.0226497308228
 30
0.0
 11
-3.75277674974487
 21
28.177350269202
 31
0.0
  0
LINE
  5
A0
330
1F
100
AcDbEntity
  8
1
  6
Continuous
 62
     3
100
AcDbLine
 10
3.7527767497204
 20
32.0226497308228
 30
0.0
 11
3.7527767497204
 21
28.177350269202
 31
0.0
  0
LINE
  5
A1
330
1F
100
AcDbEntity
  8
1
  6
Continuous
 62
     3
100
AcDbLine
 10
-8.00000000001216
 20
20.5481555856732
 30
0.0
 11
-8.00000000001219
 21
22.6000000000124
 31
0.0
  0
LINE
  5
A2
330
1F
100
AcDbEntity
  8
1
  6
Continuous
 62
     3
100
AcDbLine
 10
-2.75000000001216
 20
32.6000000000124
 30
0.0
 11
2.74999999998784
 21
32.6000000000124
 31
0.0
  0
LINE
  5
A3
330
1F
100
AcDbEntity
  8
1
  6
DOT_CENTER
 62
     4
100
AcDbLine
 10
-0.00000000001216
 20
34.6000000000124
 30
0.0
 11
-0.00000000001216
 21
-19.5999999999876
 31
0.0
  0
LINE
  5
A4
330
1F
100
AcDbEntity
  8
1
  6
Continuous
 62
     3
100
AcDbLine
 10
19.9999999999878
 20
-16.9999999999876
 30
0.0
 11
20.9999999999878
 21
-17.9999999999876
 31
0.0
  0
LINE
  5
A5
330
1F
100
AcDbEntity
  8
1
  6
Continuous
 62
     3
100
AcDbLine
 10
19.9999999999878
 20
17.0000000000124
 30
0.0
 11
20.9999999999878
 21
18.0000000000124
 31
0.0
  0
LINE
  5
A6
330
1F
100
AcDbEntity
  8
1
  6
Continuous
 62
     3
100
AcDbLine
 10
32.9999999999878
 20
-13.4999999999876
 30
0.0
 11
32.2783121635008
 21
-14.7499999999876
 31
0.0
  0
LINE
  5
A7
330
1F
100
AcDbEntity
  8
1
  6
Continuous
 62
     3
100
AcDbLine
 10
32.9999999999878
 20
13.5000000000124
 30
0.0
 11
32.9999999999878
 21
-13.4999999999876
 31
0.0
  0
LINE
  5
A8
330
1F
100
AcDbEntity
  8
1
  6
Continuous
 62
     3
100
AcDbLine
 10
32.9999999999878
 20
13.5000000000124
 30
0.0
 11
32.2783121635008
 21
14.7500000000124
 31
0.0
  0
LINE
  5
A9
330
1F
100
AcDbEntity
  8
1
  6
Continuous
 62
     3
100
AcDbLine
 10
22.9999999999878
 20
-16.9999999999876
 30
0.0
 11
22.9999999999878
 21
-15.7499999999876
 31
0.0
  0
LINE
  5
AA
330
1F
100
AcDbEntity
  8
1
  6
Continuous
 62
     3
100
AcDbLine
 10
22.9999999999878
 20
17.0000000000124
 30
0.0
 11
22.9999999999878
 21
15.7500000000124
 31
0.0
  0
LINE
  5
AB
330
1F
100
AcDbEntity
  8
1
  6
Continuous
 62
     3
100
AcDbLine
 10
20.9999999999878
 20
-17.9999999999876
 30
0.0
 11
21.9999999999878
 21
-17.9999999999876
 31
0.0
  0
LINE
  5
AC
330
1F
100
AcDbEntity
  8
1
  6
Continuous
 62
     3
100
AcDbLine
 10
20.9999999999878
 20
18.0000000000124
 30
0.0
 11
21.9999999999878
 21
18.0000000000124
 31
0.0
  0
LINE
  5
AD
330
1F
100
AcDbEntity
  8
1
  6
Continuous
 62
     3
100
AcDbLine
 10
23.9999999999878
 20
-14.7499999999876
 30
0.0
 11
32.2783121635008
 21
-14.7499999999876
 31
0.0
  0
LINE
  5
AE
330
1F
100
AcDbEntity
  8
1
  6
Continuous
 62
     3
100
AcDbLine
 10
23.9999999999878
 20
14.7500000000124
 30
0.0
 11
32.2783121635008
 21
14.7500000000124
 31
0.0
  0
LINE
  5
AF
330
1F
100
AcDbEntity
  8
1
  6
Continuous
 62
     3
100
AcDbLine
 10
-4.00000000001219
 20
32.6000000000124
 30
0.0
 11
-2.75000000001216
 21
32.6000000000124
 31
0.0
  0
LINE
  5
B0
330
1F
100
AcDbEntity
  8
1
  6
Continuous
 62
     3
100
AcDbLine
 10
3.99999999998784
 20
32.6000000000124
 30
0.0
 11
2.74999999998784
 21
32.6000000000124
 31
0.0
  0
LINE
  5
B1
330
1F
100
AcDbEntity
  8
1
  6
Continuous
 62
     3
100
AcDbLine
 10
-7.50000000001219
 20
28.177350269202
 30
0.0
 11
-7.50000000001219
 21
32.0226497308228
 31
0.0
  0
LINE
  5
B2
330
1F
100
AcDbEntity
  8
1
  6
Continuous
 62
     3
100
AcDbLine
 10
-6.50000000001219
 20
27.6000000000124
 30
0.0
 11
-7.50000000001219
 21
28.177350269202
 31
0.0
  0
LINE
  5
B3
330
1F
100
AcDbEntity
  8
1
  6
Continuous
 62
     3
100
AcDbLine
 10
-6.50000000001219
 20
32.6000000000124
 30
0.0
 11
-4.00000000001219
 21
32.6000000000124
 31
0.0
  0
LINE
  5
B4
330
1F
100
AcDbEntity
  8
1
  6
Continuous
 62
     3
100
AcDbLine
 10
-7.50000000001219
 20
32.0226497308228
 30
0.0
 11
-6.50000000001219
 21
32.6000000000124
 31
0.0
  0
LINE
  5
B5
330
1F
100
AcDbEntity
  8
1
  6
Continuous
 62
     3
100
AcDbLine
 10
7.49999999998784
 20
32.0226497308228
 30
0.0
 11
7.49999999998784
 21
28.177350269202
 31
0.0
  0
LINE
  5
B6
330
1F
100
AcDbEntity
  8
1
  6
Continuous
 62
     3
100
AcDbLine
 10
7.49999999998784
 20
28.177350269202
 30
0.0
 11
6.49999999998784
 21
27.6000000000124
 31
0.0
  0
LINE
  5
B7
330
1F
100
AcDbEntity
  8
1
  6
Continuous
 62
     3
100
AcDbLine
 10
3.99999999998784
 20
32.6000000000124
 30
0.0
 11
6.49999999998784
 21
32.6000000000124
 31
0.0
  0
LINE
  5
B8
330
1F
100
AcDbEntity
  8
1
  6
Continuous
 62
     3
100
AcDbLine
 10
6.49999999998784
 20
32.6000000000124
 30
0.0
 11
7.49999999998784
 21
32.0226497308228
 31
0.0
  0
LINE
  5
B9
330
1F
100
AcDbEntity
  8
1
  6
Continuous
 62
     3
100
AcDbLine
 10
7.99999999998784
 20
21.0000000000124
 30
0.0
 11
-8.00000000001216
 21
21.0000000000124
 31
0.0
  0
LINE
  5
BA
330
1F
100
AcDbEntity
  8
1
  6
Continuous
 62
     3
100
AcDbLine
 10
16.3094010767463
 20
23.6000000000124
 30
0.0
 11
18.1784747920037
 21
27.23733063792979
 31
0.0
  0
LINE
  5
BB
330
1F
100
AcDbEntity
  8
1
  6
Continuous
 62
     3
100
AcDbLine
 10
19.9999999999878
 20
36.39230484542559
 30
0.0
 11
14.2886751345826
 21
26.1000000000124
 31
0.0
  0
LINE
  5
BC
330
1F
100
AcDbEntity
  8
1
  6
Continuous
 62
     3
100
AcDbLine
 10
-14.0000000000122
 20
22.6000000000124
 30
0.0
 11
14.5773502691774
 21
22.6000000000124
 31
0.0
  0
LINE
  5
BD
330
1F
100
AcDbEntity
  8
1
  6
Continuous
 62
     3
100
AcDbLine
 10
13.4226497307982
 20
25.6000000000124
 30
0.0
 11
7.69999999998782
 21
25.6000000000124
 31
0.0
  0
LINE
  5
BE
330
1F
100
AcDbEntity
  8
1
  6
Continuous
 62
     3
100
AcDbLine
 10
27.2790561913492
 20
39.00000000001239
 30
0.0
 11
77.786338436583
 21
39.00000000001239
 31
0.0
  0
LINE
  5
BF
330
1F
100
AcDbEntity
  8
1
  6
Continuous
 62
     3
100
AcDbLine
 10
26.4130307875646
 20
38.50000000001239
 30
0.0
 11
20.2874054112498
 21
27.89010562010159
 31
0.0
  0
LINE
  5
C0
330
1F
100
AcDbEntity
  8
1
  6
Continuous
 62
     3
100
AcDbLine
 10
77.6873408726396
 20
45.00000000001239
 30
0.0
 11
24.9696551145907
 21
45.00000000001239
 31
0.0
  0
LINE
  5
C1
330
1F
100
AcDbEntity
  8
1
  6
Continuous
 62
     3
100
AcDbLine
 10
22.3715789032374
 20
43.50000000001239
 30
0.0
 11
20.2679491924189
 21
39.85640646056339
 31
0.0
  0
LINE
  5
C2
330
1F
100
AcDbEntity
  8
1
  6
Continuous
 62
     3
100
AcDbLine
 10
19.9999999999878
 20
38.85640646056339
 30
0.0
 11
19.9999999999878
 21
36.39230484542559
 31
0.0
  0
LINE
  5
C3
330
1F
100
AcDbEntity
  8
1
  6
Continuous
 62
     3
100
AcDbLine
 10
18.1784747920037
 20
27.23733063792979
 30
0.0
 11
18.9762713652655
 21
28.39294193798369
 31
0.0
  0
LINE
  5
C4
330
1F
100
AcDbEntity
  8
1
  6
Continuous
 62
     3
100
AcDbLine
 10
7.69999999998782
 20
27.1000000000124
 30
0.0
 11
7.69999999998782
 21
26.1000000000124
 31
0.0
  0
LINE
  5
C5
330
1F
100
AcDbEntity
  8
1
  6
Continuous
 62
     3
100
AcDbLine
 10
-7.70000000001218
 20
26.1000000000124
 30
0.0
 11
-7.70000000001218
 21
27.1000000000124
 31
0.0
  0
LINE
  5
C6
330
1F
100
AcDbEntity
  8
1
  6
DOT_CENTER
 62
     4
100
AcDbLine
 10
-33.0000000000122
 20
0.00000000001239
 30
0.0
 11
34.9999999999878
 21
0.00000000001239
 31
0.0
  0
LINE
  5
C7
330
1F
100
AcDbEntity
  8
1
  6
Continuous
 62
     3
100
AcDbLine
 10
7.99999999998784
 20
22.6000000000124
 30
0.0
 11
7.99999999998784
 21
20.5481555856732
 31
0.0
  0
LINE
  5
C8
330
1F
100
AcDbEntity
  8
1
  6
Continuous
 62
     3
100
AcDbLine
 10
10.9999999999878
 20
20.5481555856732
 30
0.0
 11
10.9999999999878
 21
18.0000000000124
 31
0.0
  0
LINE
  5
C9
330
1F
100
AcDbEntity
  8
1
  6
Continuous
 62
     3
100
AcDbLine
 10
19.9999999999878
 20
17.0000000000124
 30
0.0
 11
18.9999999999878
 21
18.0000000000124
 31
0.0
  0
LINE
  5
CA
330
1F
100
AcDbEntity
  8
1
  6
Continuous
 62
     3
100
AcDbLine
 10
18.9999999999878
 20
-17.9999999999876
 30
0.0
 11
15.9999999999878
 21
-17.9999999999876
 31
0.0
  0
LINE
  5
CB
330
1F
100
AcDbEntity
  8
1
  6
Continuous
 62
     3
100
AcDbLine
 10
-31.0000000000122
 20
13.5000000000124
 30
0.0
 11
-31.0000000000122
 21
-13.4999999999876
 31
0.0
  0
LINE
  5
CC
330
1F
100
AcDbEntity
  8
1
  6
Continuous
 62
     3
100
AcDbLine
 10
-30.2783121635251
 20
-14.7499999999876
 30
0.0
 11
-31.0000000000122
 21
-13.4999999999876
 31
0.0
  0
LINE
  5
CD
330
1F
100
AcDbEntity
  8
1
  6
Continuous
 62
     3
100
AcDbLine
 10
-31.0000000000122
 20
13.5000000000124
 30
0.0
 11
-30.2783121635251
 21
14.7500000000124
 31
0.0
  0
LINE
  5
CE
330
1F
100
AcDbEntity
  8
1
  6
Continuous
 62
     3
100
AcDbLine
 10
-12.6642135623853
 20
14.7500000000124
 30
0.0
 11
-30.2783121635251
 21
14.7500000000124
 31
0.0
  0
LINE
  5
CF
330
1F
100
AcDbEntity
  8
1
  6
Continuous
 62
     3
100
AcDbLine
 10
15.9999999999878
 20
18.0000000000124
 30
0.0
 11
18.9999999999878
 21
18.0000000000124
 31
0.0
  0
LINE
  5
D0
330
1F
100
AcDbEntity
  8
1
  6
Continuous
 62
     3
100
AcDbLine
 10
-11.0000000000122
 20
20.5481555856732
 30
0.0
 11
10.9999999999878
 21
20.5481555856732
 31
0.0
  0
LINE
  5
D1
330
1F
100
AcDbEntity
  8
1
  6
Continuous
 62
     3
100
AcDbLine
 10
-30.2783121635251
 20
-14.7499999999876
 30
0.0
 11
-12.6642135623853
 21
-14.7499999999876
 31
0.0
  0
LINE
  5
D2
330
1F
100
AcDbEntity
  8
1
  6
Continuous
 62
     3
100
AcDbLine
 10
-11.9571067811987
 20
-15.042893218801
 30
0.0
 11
-11.2673602841262
 21
-15.7326397158736
 31
0.0
  0
LINE
  5
D3
330
1F
100
AcDbEntity
  8
1
  6
Continuous
 62
     3
100
AcDbLine
 10
19.9999999999878
 20
-16.9999999999876
 30
0.0
 11
18.9999999999878
 21
-17.9999999999876
 31
0.0
  0
LINE
  5
D4
330
1F
100
AcDbEntity
  8
1
  6
Continuous
 62
     3
100
AcDbLine
 10
14.2679491924189
 20
-16.9999999999876
 30
0.0
 11
4.99999999998784
 21
-16.9999999999876
 31
0.0
  0
LINE
  5
D5
330
1F
100
AcDbEntity
  8
1
  6
Continuous
 62
     3
100
AcDbLine
 10
-10.6226317890948
 20
-16.0235855131699
 30
0.0
 11
4.99999999998784
 21
-16.9999999999876
 31
0.0
  0
LINE
  5
D6
330
1F
100
AcDbEntity
  8
1
  6
Continuous
 62
     3
100
AcDbLine
 10
11.9999999999878
 20
17.0000000000124
 30
0.0
 11
14.2679491924189
 21
17.0000000000124
 31
0.0
  0
LINE
  5
D7
330
1F
100
AcDbEntity
  8
1
  6
Continuous
 62
     3
100
AcDbLine
 10
-76.2616911682608
 20
26.5906312107783
 30
0.0
 11
-76.5000000000122
 21
25.6000000000124
 31
0.0
  0
LINE
  5
D8
330
1F
100
AcDbEntity
  8
1
  6
Continuous
 62
     3
100
AcDbLine
 10
-58.8000000000122
 20
27.1000000000124
 30
0.0
 11
-58.8000000000122
 21
26.1000000000124
 31
0.0
  0
LINE
  5
D9
330
1F
100
AcDbEntity
  8
1
  6
Continuous
 62
     3
100
AcDbLine
 10
-73.7000000000122
 20
27.6000000000124
 30
0.0
 11
-59.3000000000122
 21
27.6000000000124
 31
0.0
  0
LINE
  5
DA
330
1F
100
AcDbEntity
  8
1
  6
Continuous
 62
     3
100
AcDbLine
 10
-74.2000000000122
 20
26.1000000000124
 30
0.0
 11
-74.2000000000122
 21
27.1000000000124
 31
0.0
  0
LINE
  5
DB
330
1F
100
AcDbEntity
  8
1
  6
Continuous
 62
     3
100
AcDbLine
 10
-76.5000000000122
 20
25.6000000000124
 30
0.0
 11
-73.7000000000122
 21
25.6000000000124
 31
0.0
  0
LINE
  5
DC
330
1F
100
AcDbEntity
  8
1
  6
Continuous
 62
     3
100
AcDbLine
 10
-76.5000000000122
 20
22.6000000000124
 30
0.0
 11
-76.5000000000122
 21
25.6000000000124
 31
0.0
  0
LINE
  5
DD
330
1F
100
AcDbEntity
  8
1
  6
Continuous
 62
     3
100
AcDbLine
 10
-56.5000000000122
 20
22.6000000000124
 30
0.0
 11
-63.5000000000122
 21
22.6000000000124
 31
0.0
  0
LINE
  5
DE
330
1F
100
AcDbEntity
  8
1
  6
Continuous
 62
     3
100
AcDbLine
 10
-56.7383088317636
 20
26.5906312107783
 30
0.0
 11
-56.5000000000122
 21
25.6000000000124
 31
0.0
  0
LINE
  5
DF
330
1F
100
AcDbEntity
  8
1
  6
Continuous
 62
     3
100
AcDbLine
 10
-56.5000000000122
 20
22.6000000000124
 30
0.0
 11
-56.5000000000122
 21
25.6000000000124
 31
0.0
  0
LINE
  5
E0
330
1F
100
AcDbEntity
  8
1
  6
Continuous
 62
     3
100
AcDbLine
 10
-75.4318366872097
 20
34.7629273461617
 30
0.0
 11
-75.3714293716991
 21
43.80838440452859
 31
0.0
  0
LINE
  5
E1
330
1F
100
AcDbEntity
  8
1
  6
Continuous
 62
     3
100
AcDbLine
 10
-74.184297390373
 20
35.2261949802881
 30
0.0
 11
-76.2616911682608
 21
26.5906312107783
 31
0.0
  0
LINE
  5
E2
330
1F
100
AcDbEntity
  8
1
  6
Continuous
 62
     3
100
AcDbLine
 10
-73.2120343576427
 20
35.9923048454256
 30
0.0
 11
-59.7879656423818
 21
35.9923048454256
 31
0.0
  0
LINE
  5
E3
330
1F
100
AcDbEntity
  8
1
  6
Continuous
 62
     3
100
AcDbLine
 10
-56.7383088317636
 20
26.5906312107783
 30
0.0
 11
-58.8157026096514
 21
35.2261949802881
 31
0.0
  0
LINE
  5
E4
330
1F
100
AcDbEntity
  8
1
  6
Continuous
 62
     3
100
AcDbLine
 10
-57.6285706283254
 20
43.80838440452859
 30
0.0
 11
-57.5681633128147
 21
34.7629273461617
 31
0.0
  0
LINE
  5
E5
330
1F
100
AcDbEntity
  8
1
  6
Continuous
 62
     3
100
AcDbLine
 10
-66.5000000000122
 20
45.00000000001239
 30
0.0
 11
-58.8285413370349
 21
45.00000000001239
 31
0.0
  0
LINE
  5
E6
330
1F
100
AcDbEntity
  8
1
  6
Continuous
 62
     3
100
AcDbLine
 10
-74.1714586629895
 20
45.00000000001239
 30
0.0
 11
-66.5000000000122
 21
45.00000000001239
 31
0.0
  0
LINE
  5
E7
330
1F
100
AcDbEntity
  8
1
  6
Continuous
 62
     3
100
AcDbLine
 10
-58.5000000000123
 20
21.0000000000124
 30
0.0
 11
-58.5000000000123
 21
22.6000000000124
 31
0.0
  0
LINE
  5
E8
330
1F
100
AcDbEntity
  8
1
  6
Continuous
 62
     3
100
AcDbLine
 10
-74.5000000000122
 20
22.6000000000124
 30
0.0
 11
-74.5000000000122
 21
21.0000000000124
 31
0.0
  0
LINE
  5
E9
330
1F
100
AcDbEntity
  8
1
  6
Continuous
 62
     3
100
AcDbLine
 10
-73.0000000000122
 20
32.6000000000124
 30
0.0
 11
-70.5000000000122
 21
32.6000000000124
 31
0.0
  0
LINE
  5
EA
330
1F
100
AcDbEntity
  8
1
  6
Continuous
 62
     3
100
AcDbLine
 10
-73.0000000000122
 20
32.0226497308228
 30
0.0
 11
-73.0000000000122
 21
32.6000000000124
 31
0.0
  0
LINE
  5
EB
330
1F
100
AcDbEntity
  8
1
  6
Continuous
 62
     3
100
AcDbLine
 10
-73.0000000000122
 20
27.6000000000124
 30
0.0
 11
-73.0000000000122
 21
28.177350269202
 31
0.0
  0
LINE
  5
EC
330
1F
100
AcDbEntity
  8
1
  6
Continuous
 62
     3
100
AcDbLine
 10
-73.0000000000122
 20
28.177350269202
 30
0.0
 11
-73.0000000000122
 21
32.0226497308228
 31
0.0
  0
LINE
  5
ED
330
1F
100
AcDbEntity
  8
1
  6
Continuous
 62
     3
100
AcDbLine
 10
-66.5000000000122
 20
28.177350269202
 30
0.0
 11
-66.5000000000122
 21
32.0226497308228
 31
0.0
  0
LINE
  5
EE
330
1F
100
AcDbEntity
  8
1
  6
Continuous
 62
     3
100
AcDbLine
 10
-60.0000000000123
 20
28.177350269202
 30
0.0
 11
-60.0000000000123
 21
27.6000000000124
 31
0.0
  0
LINE
  5
EF
330
1F
100
AcDbEntity
  8
1
  6
Continuous
 62
     3
100
AcDbLine
 10
-60.0000000000123
 20
32.6000000000124
 30
0.0
 11
-60.0000000000123
 21
32.0226497308228
 31
0.0
  0
LINE
  5
F0
330
1F
100
AcDbEntity
  8
1
  6
Continuous
 62
     3
100
AcDbLine
 10
-60.0000000000123
 20
32.0226497308228
 30
0.0
 11
-60.0000000000123
 21
28.177350269202
 31
0.0
  0
LINE
  5
F1
330
1F
100
AcDbEntity
  8
1
  6
Continuous
 62
     3
100
AcDbLine
 10
-69.7500000000123
 20
32.6000000000124
 30
0.0
 11
-60.0000000000123
 21
32.6000000000124
 31
0.0
  0
LINE
  5
F2
330
1F
100
AcDbEntity
  8
1
  6
Continuous
 62
     3
100
AcDbLine
 10
-63.5000000000122
 20
25.6000000000124
 30
0.0
 11
-63.5000000000122
 21
22.6000000000124
 31
0.0
  0
LINE
  5
F3
330
1F
100
AcDbEntity
  8
1
  6
Continuous
 62
     3
100
AcDbLine
 10
-63.5000000000122
 20
25.6000000000124
 30
0.0
 11
-59.3000000000122
 21
25.6000000000124
 31
0.0
  0
LINE
  5
F4
330
1F
100
AcDbEntity
  8
1
  6
Continuous
 62
     3
100
AcDbLine
 10
-63.5000000000122
 20
22.6000000000124
 30
0.0
 11
-76.5000000000122
 21
22.6000000000124
 31
0.0
  0
LINE
  5
F5
330
1F
100
AcDbEntity
  8
1
  6
Continuous
 62
     3
100
AcDbLine
 10
-51.3461538461659
 20
13.5000000000124
 30
0.0
 11
-51.3461538461659
 21
18.5000000000124
 31
0.0
  0
LINE
  5
F6
330
1F
100
AcDbEntity
  8
1
  6
Continuous
 62
     3
100
AcDbLine
 10
-100.778312163525
 20
-9.64764322547842
 30
0.0
 11
-100.778312163525
 21
-11.1573061351459
 31
0.0
  0
LINE
  5
F7
330
1F
100
AcDbEntity
  8
1
  6
Continuous
 62
     3
100
AcDbLine
 10
-100.778312163525
 20
1.0674928807441
 30
0.0
 11
-100.778312163525
 21
-1.06749288071931
 31
0.0
  0
LINE
  5
F8
330
1F
100
AcDbEntity
  8
1
  6
Continuous
 62
     3
100
AcDbLine
 10
-100.778312163525
 20
9.6476432255032
 30
0.0
 11
-100.778312163525
 21
11.1573061351707
 31
0.0
  0
LINE
  5
F9
330
1F
100
AcDbEntity
  8
1
  6
Continuous
 62
     3
100
AcDbLine
 10
-85.6736481776791
 20
13.3542918781775
 30
0.0
 11
-77.2330499088737
 21
11.8659866700659
 31
0.0
  0
LINE
  5
FA
330
1F
100
AcDbEntity
  8
1
  6
Continuous
 62
     3
100
AcDbLine
 10
-55.7669500911507
 20
11.8659866700659
 30
0.0
 11
-47.3263518223453
 21
13.3542918781775
 31
0.0
  0
LINE
  5
FB
330
1F
100
AcDbEntity
  8
1
  6
Continuous
 62
     3
100
AcDbLine
 10
-66.5000000000122
 20
20.5481555856732
 30
0.0
 11
-47.4476640437692
 21
19.5496649680521
 31
0.0
  0
LINE
  5
FC
330
1F
100
AcDbEntity
  8
1
  6
Continuous
 62
     3
100
AcDbLine
 10
-85.5523359562551
 20
19.5496649680521
 30
0.0
 11
-66.5000000000122
 21
20.5481555856732
 31
0.0
  0
LINE
  5
FD
330
1F
100
AcDbEntity
  8
1
  6
Continuous
 62
     3
100
AcDbLine
 10
-77.5000000000122
 20
11.6189500386346
 30
0.0
 11
-77.5000000000122
 21
9.82662200352914
 31
0.0
  0
LINE
  5
FE
330
1F
100
AcDbEntity
  8
1
  6
Continuous
 62
     3
100
AcDbLine
 10
-77.5000000000122
 20
-11.6189500386099
 30
0.0
 11
-77.5000000000122
 21
-9.82662200350438
 31
0.0
  0
LINE
  5
FF
330
1F
100
AcDbEntity
  8
1
  6
Continuous
 62
     3
100
AcDbLine
 10
-88.5000000000122
 20
-1.06749288071931
 30
0.0
 11
-88.5000000000122
 21
-9.64764322547842
 31
0.0
  0
LINE
  5
100
330
1F
100
AcDbEntity
  8
1
  6
Continuous
 62
     3
100
AcDbLine
 10
-88.5000000000122
 20
-14.7499999999876
 30
0.0
 11
-88.5000000000122
 21
-11.1573061351459
 31
0.0
  0
LINE
  5
101
330
1F
100
AcDbEntity
  8
1
  6
Continuous
 62
     3
100
AcDbLine
 10
-88.5000000000122
 20
-1.06749288071931
 30
0.0
 11
-100.778312163525
 21
-1.06749288071931
 31
0.0
  0
LINE
  5
102
330
1F
100
AcDbEntity
  8
1
  6
Continuous
 62
     3
100
AcDbLine
 10
-88.5000000000122
 20
-9.64764322547842
 30
0.0
 11
-100.778312163525
 21
-9.64764322547842
 31
0.0
  0
LINE
  5
103
330
1F
100
AcDbEntity
  8
1
  6
Continuous
 62
     3
100
AcDbLine
 10
-88.5000000000122
 20
-11.1573061351459
 30
0.0
 11
-100.778312163525
 21
-11.1573061351459
 31
0.0
  0
LINE
  5
104
330
1F
100
AcDbEntity
  8
1
  6
Continuous
 62
     3
100
AcDbLine
 10
-56.8523567745214
 20
-11.1573061351459
 30
0.0
 11
-65.4325071192805
 21
-14.7113207751453
 31
0.0
  0
LINE
  5
105
330
1F
100
AcDbEntity
  8
1
  6
Continuous
 62
     3
100
AcDbLine
 10
-51.7886792248545
 20
-1.0674928807193
 30
0.0
 11
-55.3426938648539
 21
-9.64764322547842
 31
0.0
  0
LINE
  5
106
330
1F
100
AcDbEntity
  8
1
  6
Continuous
 62
     3
100
AcDbLine
 10
-55.3426938648539
 20
9.6476432255032
 30
0.0
 11
-51.7886792248545
 21
1.0674928807441
 31
0.0
  0
LINE
  5
107
330
1F
100
AcDbEntity
  8
1
  6
Continuous
 62
     3
100
AcDbLine
 10
-65.4325071192805
 20
14.7113207751701
 30
0.0
 11
-56.8523567745214
 21
11.1573061351707
 31
0.0
  0
LINE
  5
108
330
1F
100
AcDbEntity
  8
1
  6
Continuous
 62
     3
100
AcDbLine
 10
-76.147643225503
 20
11.1573061351707
 30
0.0
 11
-67.5674928807439
 21
14.7113207751701
 31
0.0
  0
LINE
  5
109
330
1F
100
AcDbEntity
  8
1
  6
Continuous
 62
     3
100
AcDbLine
 10
-81.2113207751699
 20
1.0674928807441
 30
0.0
 11
-77.6573061351705
 21
9.6476432255032
 31
0.0
  0
LINE
  5
10A
330
1F
100
AcDbEntity
  8
1
  6
Continuous
 62
     3
100
AcDbLine
 10
-77.6573061351705
 20
-9.64764322547842
 30
0.0
 11
-81.2113207751699
 21
-1.06749288071931
 31
0.0
  0
LINE
  5
10B
330
1F
100
AcDbEntity
  8
1
  6
Continuous
 62
     3
100
AcDbLine
 10
-67.5674928807439
 20
-14.7113207751453
 30
0.0
 11
-76.147643225503
 21
-11.1573061351459
 31
0.0
  0
LINE
  5
10C
330
1F
100
AcDbEntity
  8
1
  6
Continuous
 62
     3
100
AcDbLine
 10
-88.5000000000122
 20
9.6476432255032
 30
0.0
 11
-88.5000000000122
 21
1.0674928807441
 31
0.0
  0
LINE
  5
10D
330
1F
100
AcDbEntity
  8
1
  6
Continuous
 62
     3
100
AcDbLine
 10
-88.5000000000122
 20
11.1573061351707
 30
0.0
 11
-88.5000000000122
 21
14.7500000000124
 31
0.0
  0
LINE
  5
10E
330
1F
100
AcDbEntity
  8
1
  6
Continuous
 62
     3
100
AcDbLine
 10
-100.778312163525
 20
1.0674928807441
 30
0.0
 11
-88.5000000000122
 21
1.0674928807441
 31
0.0
  0
LINE
  5
10F
330
1F
100
AcDbEntity
  8
1
  6
Continuous
 62
     3
100
AcDbLine
 10
-100.778312163525
 20
9.6476432255032
 30
0.0
 11
-88.5000000000122
 21
9.6476432255032
 31
0.0
  0
LINE
  5
110
330
1F
100
AcDbEntity
  8
1
  6
Continuous
 62
     3
100
AcDbLine
 10
-100.778312163525
 20
11.1573061351707
 30
0.0
 11
-88.5000000000122
 21
11.1573061351707
 31
0.0
  0
LINE
  5
111
330
1F
100
AcDbEntity
  8
1
  6
Continuous
 62
     3
100
AcDbLine
 10
-69.8846153846276
 20
19.0000000000124
 30
0.0
 11
-69.8846153846276
 21
16.0000000000124
 31
0.0
  0
LINE
  5
112
330
1F
100
AcDbEntity
  8
1
  6
Continuous
 62
     3
100
AcDbLine
 10
-81.6538461538584
 20
18.5000000000124
 30
0.0
 11
-81.6538461538584
 21
13.5000000000124
 31
0.0
  0
LINE
  5
113
330
1F
100
AcDbEntity
  8
1
  6
Continuous
 62
     3
100
AcDbLine
 10
-63.1153846153968
 20
16.0000000000124
 30
0.0
 11
-63.1153846153968
 21
19.0000000000124
 31
0.0
  0
LINE
  5
114
330
1F
100
AcDbEntity
  8
1
  6
Continuous
 62
     3
100
AcDbLine
 10
-75.5000000000122
 20
21.0000000000124
 30
0.0
 11
-75.5000000000122
 21
20.0764855721259
 31
0.0
  0
LINE
  5
115
330
1F
100
AcDbEntity
  8
1
  6
Continuous
 62
     3
100
AcDbLine
 10
-51.646542897993
 20
10.0000000000124
 30
0.0
 11
-48.995116771995
 21
10.0000000000124
 31
0.0
  0
LINE
  5
116
330
1F
100
AcDbEntity
  8
1
  6
DOT_CENTER
 62
     4
100
AcDbLine
 10
-102.500000000012
 20
0.00000000001239
 30
0.0
 11
-46.5000000000122
 21
0.00000000001238
 31
0.0
  0
LINE
  5
117
330
1F
100
AcDbEntity
  8
1
  6
DOT_CENTER
 62
     4
100
AcDbLine
 10
-66.5000000000122
 20
47.00000000001239
 30
0.0
 11
-66.5000000000122
 21
-19.9822134343788
 31
0.0
  0
LINE
  5
118
330
1F
100
AcDbEntity
  8
1
  6
Continuous
 62
     3
100
AcDbLine
 10
-57.5000000000122
 20
21.0000000000124
 30
0.0
 11
-57.5000000000122
 21
20.0764855721259
 31
0.0
  0
LINE
  5
119
330
1F
100
AcDbEntity
  8
1
  6
Continuous
 62
     3
100
AcDbLine
 10
-87.5000000000122
 20
14.7500000000124
 30
0.0
 11
-100.778312163525
 21
14.7500000000124
 31
0.0
  0
LINE
  5
11A
330
1F
100
AcDbEntity
  8
1
  6
Continuous
 62
     3
100
AcDbLine
 10
-50.8453889744667
 20
8.06853877506708
 30
0.0
 11
-48.0000000000122
 21
9.7113248654176
 31
0.0
  0
LINE
  5
11B
330
1F
100
AcDbEntity
  8
1
  6
Continuous
 62
     3
100
AcDbLine
 10
-47.5000000000122
 20
10.577350269202
 30
0.0
 11
-47.5000000000122
 21
12.6070488236208
 31
0.0
  0
LINE
  5
11C
330
1F
100
AcDbEntity
  8
1
  6
Continuous
 62
     3
100
AcDbLine
 10
-46.5000000000122
 20
18.5510354332975
 30
0.0
 11
-46.5000000000122
 21
14.3390996311897
 31
0.0
  0
LINE
  5
11D
330
1F
100
AcDbEntity
  8
1
  6
Continuous
 62
     3
100
AcDbLine
 10
-81.5000000000122
 20
26.0000000000124
 30
0.0
 11
-81.5000000000122
 21
19.7620388964276
 31
0.0
  0
LINE
  5
11E
330
1F
100
AcDbEntity
  8
1
  6
Continuous
 62
     3
100
AcDbLine
 10
-86.5000000000122
 20
15.7500000000124
 30
0.0
 11
-86.5000000000122
 21
18.5510354332975
 31
0.0
  0
LINE
  5
11F
330
1F
100
AcDbEntity
  8
1
  6
Continuous
 62
     3
100
AcDbLine
 10
-101.500000000012
 20
13.5000000000124
 30
0.0
 11
-101.500000000012
 21
-13.4999999999876
 31
0.0
  0
LINE
  5
120
330
1F
100
AcDbEntity
  8
1
  6
Continuous
 62
     3
100
AcDbLine
 10
-70.6000000000122
 20
21.0000000000124
 30
0.0
 11
-62.4000000000121
 21
21.0000000000124
 31
0.0
  0
LINE
  5
121
330
1F
100
AcDbEntity
  8
1
  6
Continuous
 62
     3
100
AcDbLine
 10
-62.4000000000121
 20
21.0000000000124
 30
0.0
 11
-57.5000000000122
 21
21.0000000000124
 31
0.0
  0
LINE
  5
122
330
1F
100
AcDbEntity
  8
1
  6
Continuous
 62
     3
100
AcDbLine
 10
-101.500000000012
 20
-13.4999999999876
 30
0.0
 11
-100.778312163525
 21
-14.7499999999876
 31
0.0
  0
LINE
  5
123
330
1F
100
AcDbEntity
  8
1
  6
Continuous
 62
     3
100
AcDbLine
 10
-100.778312163525
 20
14.7500000000124
 30
0.0
 11
-101.500000000012
 21
13.5000000000124
 31
0.0
  0
LINE
  5
124
330
1F
100
AcDbEntity
  8
1
  6
Continuous
 62
     3
100
AcDbLine
 10
-100.778312163525
 20
-14.7499999999876
 30
0.0
 11
-74.5489226763708
 21
-14.7499999999876
 31
0.0
  0
LINE
  5
125
330
1F
100
AcDbEntity
  8
1
  6
Continuous
 62
     3
100
AcDbLine
 10
-77.5000000000122
 20
27.0000000000124
 30
0.0
 11
-80.5000000000122
 21
27.0000000000124
 31
0.0
  0
LINE
  5
126
330
1F
100
AcDbEntity
  8
1
  6
Continuous
 62
     3
100
AcDbLine
 10
-77.5000000000122
 20
21.0000000000124
 30
0.0
 11
-70.6000000000122
 21
21.0000000000124
 31
0.0
  0
LINE
  5
127
330
1F
100
AcDbEntity
  8
1
  6
Continuous
 62
     3
100
AcDbLine
 10
-77.5000000000122
 20
27.0000000000124
 30
0.0
 11
-77.5000000000122
 21
21.0000000000124
 31
0.0
  0
LINE
  5
128
330
1F
100
AcDbEntity
  8
1
  6
Continuous
 62
     3
100
AcDbLine
 10
14.01121906661788
 20
78.7074155578163
 30
0.0
 11
14.01121906661788
 21
61.3742127630672
 31
0.0
  0
LINE
  5
129
330
1F
100
AcDbEntity
  8
1
  6
Continuous
 62
     3
100
AcDbLine
 10
18.1784747920037
 20
77.9911178884663
 30
0.0
 11
19.1999999999878
 21
77.5000000000124
 31
0.0
  0
LINE
  5
12A
330
1F
100
AcDbEntity
  8
1
  6
Continuous
 62
     3
100
AcDbLine
 10
13.9999999999878
 20
80.0000000000124
 30
0.0
 11
18.1784747920037
 21
77.9911178884663
 31
0.0
  0
LINE
  5
12B
330
1F
100
AcDbEntity
  8
1
  6
Continuous
 62
     3
100
AcDbLine
 10
11.9999999999878
 20
80.0000000000124
 30
0.0
 11
13.9999999999878
 21
80.0000000000124
 31
0.0
  0
LINE
  5
12C
330
1F
100
AcDbEntity
  8
1
  6
Continuous
 62
     3
100
AcDbLine
 10
11.9999999999878
 20
80.0000000000124
 30
0.0
 11
9.17157287524162
 21
82.8284271247586
 31
0.0
  0
LINE
  5
12D
330
1F
100
AcDbEntity
  8
1
  6
Continuous
 62
     3
100
AcDbLine
 10
2.99999999998784
 20
84.0000000000124
 30
0.0
 11
6.3431457504953
 21
84.0000000000124
 31
0.0
  0
LINE
  5
12E
330
1F
100
AcDbEntity
  8
1
  6
Continuous
 62
     3
100
AcDbLine
 10
2.99999999998784
 20
80.0000000000124
 30
0.0
 11
2.99999999998784
 21
84.0000000000124
 31
0.0
  0
LINE
  5
12F
330
1F
100
AcDbEntity
  8
1
  6
Continuous
 62
     3
100
AcDbLine
 10
-0.00000000001216
 20
80.0000000000124
 30
0.0
 11
2.99999999998784
 21
80.0000000000124
 31
0.0
  0
LINE
  5
130
330
1F
100
AcDbEntity
  8
1
  6
Continuous
 62
     3
100
AcDbLine
 10
-10.0000000000122
 20
70.0000000000124
 30
0.0
 11
-10.0000000000122
 21
67.0000000000124
 31
0.0
  0
LINE
  5
131
330
1F
100
AcDbEntity
  8
1
  6
Continuous
 62
     3
100
AcDbLine
 10
-10.0000000000122
 20
67.0000000000124
 30
0.0
 11
-14.0000000000122
 21
67.0000000000124
 31
0.0
  0
LINE
  5
132
330
1F
100
AcDbEntity
  8
1
  6
Continuous
 62
     3
100
AcDbLine
 10
-14.0000000000122
 20
67.0000000000124
 30
0.0
 11
-14.0000000000122
 21
64.0000000000124
 31
0.0
  0
LINE
  5
133
330
1F
100
AcDbEntity
  8
1
  6
Continuous
 62
     3
100
AcDbLine
 10
-10.0000000000122
 20
60.0000000000124
 30
0.0
 11
13.9999999999878
 21
60.0000000000124
 31
0.0
  0
LINE
  5
134
330
1F
100
AcDbEntity
  8
1
  6
Continuous
 62
     3
100
AcDbLine
 10
18.1784747920037
 20
62.0088821115585
 30
0.0
 11
13.9999999999878
 21
60.0000000000124
 31
0.0
  0
LINE
  5
135
330
1F
100
AcDbEntity
  8
1
  6
Continuous
 62
     3
100
AcDbLine
 10
19.1999999999878
 20
62.5000000000124
 30
0.0
 11
18.1784747920037
 21
62.0088821115585
 31
0.0
  0
LINE
  5
136
330
1F
100
AcDbEntity
  8
1
  6
Continuous
 62
     3
100
AcDbLine
 10
19.5175952980371
 20
62.5111832945872
 30
0.0
 11
19.1999999999878
 21
62.5000000000124
 31
0.0
  0
LINE
  5
137
330
1F
100
AcDbEntity
  8
1
  6
Continuous
 62
     3
100
AcDbLine
 10
19.9999999999878
 20
76.9891263958591
 30
0.0
 11
19.9999999999878
 21
63.0108736041657
 31
0.0
  0
LINE
  5
138
330
1F
100
AcDbEntity
  8
1
  6
Continuous
 62
     3
100
AcDbLine
 10
19.1999999999878
 20
77.5000000000124
 30
0.0
 11
19.5175952980371
 21
77.4888167054375
 31
0.0
  0
LINE
  5
139
330
1F
100
AcDbEntity
  8
1
  6
Continuous
 62
     3
100
AcDbLine
 10
23.23760430702188
 20
77.4685620970103
 30
0.0
 11
23.23760430702188
 21
62.6676648993223
 31
0.0
  0
LINE
  5
13A
330
1F
100
AcDbEntity
  8
1
  6
Continuous
 62
     3
100
AcDbLine
 10
19.9999999999878
 20
61.0272402777325
 30
0.0
 11
20.9999999999878
 21
61.0624526837208
 31
0.0
  0
LINE
  5
13B
330
1F
100
AcDbEntity
  8
1
  6
Continuous
 62
     3
100
AcDbLine
 10
19.9999999999878
 20
78.9727597222922
 30
0.0
 11
20.9999999999878
 21
78.9375473163039
 31
0.0
  0
LINE
  5
13C
330
1F
100
AcDbEntity
  8
1
  6
Continuous
 62
     3
100
AcDbLine
 10
77.4008767699413
 20
63.9867294296209
 30
0.0
 11
78.7354671387701
 21
67.6534863321995
 31
0.0
  0
LINE
  5
13D
330
1F
100
AcDbEntity
  8
1
  6
Continuous
 62
     3
100
AcDbLine
 10
78.7354671387701
 20
72.3465136678253
 30
0.0
 11
77.4008767699413
 21
76.0132705704037
 31
0.0
  0
LINE
  5
13E
102
{ACAD_REACTORS
330
376
102
}
330
1F
100
AcDbEntity
  8
1
  6
Continuous
 62
     3
100
AcDbLine
 10
56.28193625569
 20
71.6965846374524
 30
0.0
 11
56.9254683595466
 21
70.0000000000124
 31
0.0
  0
LINE
  5
13F
102
{ACAD_REACTORS
330
376
102
}
330
1F
100
AcDbEntity
  8
1
  6
Continuous
 62
     3
100
AcDbLine
 10
58.7912359353274
 20
71.6965846374524
 30
0.0
 11
58.7912359353274
 21
70.0000000000124
 31
0.0
  0
LINE
  5
140
102
{ACAD_REACTORS
330
376
102
}
330
1F
100
AcDbEntity
  8
1
  6
Continuous
 62
     3
100
AcDbLine
 10
58.5634292347146
 20
71.6965846374524
 30
0.0
 11
58.7912359353274
 21
71.6965846374524
 31
0.0
  0
LINE
  5
141
102
{ACAD_REACTORS
330
376
102
}
330
1F
100
AcDbEntity
  8
1
  6
Continuous
 62
     3
100
AcDbLine
 10
56.0589375140795
 20
71.6965846374524
 30
0.0
 11
56.28193625569
 21
71.6965846374524
 31
0.0
  0
LINE
  5
142
102
{ACAD_REACTORS
330
374
102
}
330
1F
100
AcDbEntity
  8
1
  6
Continuous
 62
     3
100
AcDbLine
 10
64.8826183844792
 20
71.5942909819004
 30
0.0
 11
64.8826183844794
 21
70.0000000000124
 31
0.0
  0
LINE
  5
143
102
{ACAD_REACTORS
330
374
102
}
330
1F
100
AcDbEntity
  8
1
  6
Continuous
 62
     3
100
AcDbLine
 10
64.8826183844794
 20
70.0000000000124
 30
0.0
 11
65.7368348631993
 21
70.0000000000124
 31
0.0
  0
LINE
  5
144
102
{ACAD_REACTORS
330
374
102
}
330
1F
100
AcDbEntity
  8
1
  6
Continuous
 62
     3
100
AcDbLine
 10
65.7368348631993
 20
71.5942909819004
 30
0.0
 11
65.7368348631993
 21
70.0000000000124
 31
0.0
  0
LINE
  5
145
102
{ACAD_REACTORS
330
374
102
}
330
1F
100
AcDbEntity
  8
1
  6
Continuous
 62
     3
100
AcDbLine
 10
64.8826183844792
 20
71.5942909819004
 30
0.0
 11
65.7368348631993
 21
71.5942909819004
 31
0.0
  0
LINE
  5
146
102
{ACAD_REACTORS
330
375
102
}
330
1F
100
AcDbEntity
  8
1
  6
Continuous
 62
     3
100
AcDbLine
 10
62.7030171309436
 20
70.6834300549243
 30
0.0
 11
61.4640653573352
 21
70.6834300549243
 31
0.0
  0
LINE
  5
147
102
{ACAD_REACTORS
330
375
102
}
330
1F
100
AcDbEntity
  8
1
  6
Continuous
 62
     3
100
AcDbLine
 10
62.1083202796118
 20
71.6745914738108
 30
0.0
 11
62.7030171309436
 21
70.6834300549243
 31
0.0
  0
LINE
  5
148
102
{ACAD_REACTORS
330
375
102
}
330
1F
100
AcDbEntity
  8
1
  6
Continuous
 62
     3
100
AcDbLine
 10
61.4640653573352
 20
70.6834300549243
 30
0.0
 11
62.1083202796118
 21
71.6745914738108
 31
0.0
  0
LINE
  5
149
102
{ACAD_REACTORS
330
375
102
}
330
1F
100
AcDbEntity
  8
1
  6
Continuous
 62
     3
100
AcDbLine
 10
60.4481267165321
 20
70.0000000000124
 30
0.0
 11
61.0198358216426
 21
70.0000000000124
 31
0.0
  0
LINE
  5
14A
102
{ACAD_REACTORS
330
375
102
}
330
1F
100
AcDbEntity
  8
1
  6
Continuous
 62
     3
100
AcDbLine
 10
61.0198358216426
 20
70.0000000000124
 30
0.0
 11
61.3158656229098
 21
70.4554304635004
 31
0.0
  0
LINE
  5
14B
102
{ACAD_REACTORS
330
375
102
}
330
1F
100
AcDbEntity
  8
1
  6
Continuous
 62
     3
100
AcDbLine
 10
61.3158656229098
 20
70.4554304635004
 30
0.0
 11
62.839816885798
 21
70.4554304635004
 31
0.0
  0
LINE
  5
14C
102
{ACAD_REACTORS
330
375
102
}
330
1F
100
AcDbEntity
  8
1
  6
Continuous
 62
     3
100
AcDbLine
 10
62.839816885798
 20
70.4554304635004
 30
0.0
 11
63.1130751638907
 21
70.0000000000124
 31
0.0
  0
LINE
  5
14D
102
{ACAD_REACTORS
330
375
102
}
330
1F
100
AcDbEntity
  8
1
  6
Continuous
 62
     3
100
AcDbLine
 10
63.1130751638907
 20
70.0000000000124
 30
0.0
 11
64.147749031372
 21
70.0000000000124
 31
0.0
  0
LINE
  5
14E
102
{ACAD_REACTORS
330
375
102
}
330
1F
100
AcDbEntity
  8
1
  6
Continuous
 62
     3
100
AcDbLine
 10
62.952073448908
 20
71.9927926374524
 30
0.0
 11
64.147749031372
 21
70.0000000000124
 31
0.0
  0
LINE
  5
14F
102
{ACAD_REACTORS
330
375
102
}
330
1F
100
AcDbEntity
  8
1
  6
Continuous
 62
     3
100
AcDbLine
 10
61.7434419308682
 20
71.9927926374524
 30
0.0
 11
62.952073448908
 21
71.9927926374524
 31
0.0
  0
LINE
  5
150
102
{ACAD_REACTORS
330
375
102
}
330
1F
100
AcDbEntity
  8
1
  6
Continuous
 62
     3
100
AcDbLine
 10
60.4481267165321
 20
70.0000000000124
 30
0.0
 11
61.7434419308682
 21
71.9927926374524
 31
0.0
  0
LINE
  5
151
102
{ACAD_REACTORS
330
376
102
}
330
1F
100
AcDbEntity
  8
1
  6
Continuous
 62
     3
100
AcDbLine
 10
55.5462938829752
 20
71.9927926374524
 30
0.0
 11
55.5462938829752
 21
70.0000000000124
 31
0.0
  0
LINE
  5
152
102
{ACAD_REACTORS
330
376
102
}
330
1F
100
AcDbEntity
  8
1
  6
Continuous
 62
     3
100
AcDbLine
 10
55.5462938829752
 20
70.0000000000124
 30
0.0
 11
56.0589375140795
 21
70.0000000000124
 31
0.0
  0
LINE
  5
153
102
{ACAD_REACTORS
330
376
102
}
330
1F
100
AcDbEntity
  8
1
  6
Continuous
 62
     3
100
AcDbLine
 10
56.0589375140795
 20
70.0000000000124
 30
0.0
 11
56.0589375140795
 21
71.6965846374524
 31
0.0
  0
LINE
  5
154
102
{ACAD_REACTORS
330
376
102
}
330
1F
100
AcDbEntity
  8
1
  6
Continuous
 62
     3
100
AcDbLine
 10
56.9254683595466
 20
70.0000000000124
 30
0.0
 11
57.9784000493905
 21
70.0000000000124
 31
0.0
  0
LINE
  5
155
102
{ACAD_REACTORS
330
376
102
}
330
1F
100
AcDbEntity
  8
1
  6
Continuous
 62
     3
100
AcDbLine
 10
57.9784000493905
 20
70.0000000000124
 30
0.0
 11
58.5634292347146
 21
71.6965846374524
 31
0.0
  0
LINE
  5
156
102
{ACAD_REACTORS
330
376
102
}
330
1F
100
AcDbEntity
  8
1
  6
Continuous
 62
     3
100
AcDbLine
 10
58.7912359353274
 20
70.0000000000124
 30
0.0
 11
59.6454524140473
 21
70.0000000000124
 31
0.0
  0
LINE
  5
157
102
{ACAD_REACTORS
330
376
102
}
330
1F
100
AcDbEntity
  8
1
  6
Continuous
 62
     3
100
AcDbLine
 10
59.6454524140473
 20
71.9927926374524
 30
0.0
 11
59.6454524140473
 21
70.0000000000124
 31
0.0
  0
LINE
  5
158
102
{ACAD_REACTORS
330
376
102
}
330
1F
100
AcDbEntity
  8
1
  6
Continuous
 62
     3
100
AcDbLine
 10
58.1273685344665
 20
71.9927926374524
 30
0.0
 11
59.6454524140473
 21
71.9927926374524
 31
0.0
  0
LINE
  5
159
102
{ACAD_REACTORS
330
376
102
}
330
1F
100
AcDbEntity
  8
1
  6
Continuous
 62
     3
100
AcDbLine
 10
58.1273685344665
 20
71.9927926374524
 30
0.0
 11
57.5958731485114
 21
70.2920074023956
 31
0.0
  0
LINE
  5
15A
102
{ACAD_REACTORS
330
376
102
}
330
1F
100
AcDbEntity
  8
1
  6
Continuous
 62
     3
100
AcDbLine
 10
57.5958731485114
 20
70.2920074023956
 30
0.0
 11
57.0643777625561
 21
71.9927926374524
 31
0.0
  0
LINE
  5
15B
102
{ACAD_REACTORS
330
376
102
}
330
1F
100
AcDbEntity
  8
1
  6
Continuous
 62
     3
100
AcDbLine
 10
55.5462938829752
 20
71.9927926374524
 30
0.0
 11
57.0643777625561
 21
71.9927926374524
 31
0.0
  0
LINE
  5
15C
102
{ACAD_REACTORS
330
377
102
}
330
1F
100
AcDbEntity
  8
1
  6
Continuous
 62
     3
100
AcDbLine
 10
52.1277408558313
 20
70.6834300549243
 30
0.0
 11
52.7719957781076
 21
71.6745914738108
 31
0.0
  0
LINE
  5
15D
102
{ACAD_REACTORS
330
377
102
}
330
1F
100
AcDbEntity
  8
1
  6
Continuous
 62
     3
100
AcDbLine
 10
53.3666926294396
 20
70.6834300549243
 30
0.0
 11
52.1277408558313
 21
70.6834300549243
 31
0.0
  0
LINE
  5
15E
102
{ACAD_REACTORS
330
377
102
}
330
1F
100
AcDbEntity
  8
1
  6
Continuous
 62
     3
100
AcDbLine
 10
52.7719957781076
 20
71.6745914738108
 30
0.0
 11
53.3666926294396
 21
70.6834300549243
 31
0.0
  0
LINE
  5
15F
102
{ACAD_REACTORS
330
377
102
}
330
1F
100
AcDbEntity
  8
1
  6
Continuous
 62
     3
100
AcDbLine
 10
51.1118022150281
 20
70.0000000000124
 30
0.0
 11
52.4071174293642
 21
71.9927926374524
 31
0.0
  0
LINE
  5
160
102
{ACAD_REACTORS
330
377
102
}
330
1F
100
AcDbEntity
  8
1
  6
Continuous
 62
     3
100
AcDbLine
 10
51.1118022150281
 20
70.0000000000124
 30
0.0
 11
51.6835113201384
 21
70.0000000000124
 31
0.0
  0
LINE
  5
161
102
{ACAD_REACTORS
330
377
102
}
330
1F
100
AcDbEntity
  8
1
  6
Continuous
 62
     3
100
AcDbLine
 10
51.6835113201384
 20
70.0000000000124
 30
0.0
 11
51.9795411214057
 21
70.4554304635004
 31
0.0
  0
LINE
  5
162
102
{ACAD_REACTORS
330
377
102
}
330
1F
100
AcDbEntity
  8
1
  6
Continuous
 62
     3
100
AcDbLine
 10
51.9795411214057
 20
70.4554304635004
 30
0.0
 11
53.5034923842938
 21
70.4554304635004
 31
0.0
  0
LINE
  5
163
102
{ACAD_REACTORS
330
377
102
}
330
1F
100
AcDbEntity
  8
1
  6
Continuous
 62
     3
100
AcDbLine
 10
53.5034923842938
 20
70.4554304635004
 30
0.0
 11
53.7767506623868
 21
70.0000000000124
 31
0.0
  0
LINE
  5
164
102
{ACAD_REACTORS
330
377
102
}
330
1F
100
AcDbEntity
  8
1
  6
Continuous
 62
     3
100
AcDbLine
 10
53.7767506623868
 20
70.0000000000124
 30
0.0
 11
54.8114245298679
 21
70.0000000000124
 31
0.0
  0
LINE
  5
165
102
{ACAD_REACTORS
330
377
102
}
330
1F
100
AcDbEntity
  8
1
  6
Continuous
 62
     3
100
AcDbLine
 10
53.615748947404
 20
71.9927926374524
 30
0.0
 11
54.8114245298679
 21
70.0000000000124
 31
0.0
  0
LINE
  5
166
102
{ACAD_REACTORS
330
377
102
}
330
1F
100
AcDbEntity
  8
1
  6
Continuous
 62
     3
100
AcDbLine
 10
52.4071174293642
 20
71.9927926374524
 30
0.0
 11
53.615748947404
 21
71.9927926374524
 31
0.0
  0
LINE
  5
167
102
{ACAD_REACTORS
330
378
102
}
330
1F
100
AcDbEntity
  8
1
  6
Continuous
 62
     3
100
AcDbLine
 10
47.0639015005113
 20
71.9927926374524
 30
0.0
 11
47.0639015005113
 21
70.0000000000124
 31
0.0
  0
LINE
  5
168
102
{ACAD_REACTORS
330
378
102
}
330
1F
100
AcDbEntity
  8
1
  6
Continuous
 62
     3
100
AcDbLine
 10
47.0639015005113
 20
70.0000000000124
 30
0.0
 11
47.9181179792313
 21
70.0000000000124
 31
0.0
  0
LINE
  5
169
102
{ACAD_REACTORS
330
378
102
}
330
1F
100
AcDbEntity
  8
1
  6
Continuous
 62
     3
100
AcDbLine
 10
47.9181179792313
 20
70.0000000000124
 30
0.0
 11
47.9181179792313
 21
70.8539321190524
 31
0.0
  0
LINE
  5
16A
102
{ACAD_REACTORS
330
378
102
}
330
1F
100
AcDbEntity
  8
1
  6
Continuous
 62
     3
100
AcDbLine
 10
47.9181179792313
 20
70.8539321190524
 30
0.0
 11
49.4549114338234
 21
70.8539321190524
 31
0.0
  0
LINE
  5
16B
102
{ACAD_REACTORS
330
378
102
}
330
1F
100
AcDbEntity
  8
1
  6
Continuous
 62
     3
100
AcDbLine
 10
49.4549114338234
 20
70.8539321190524
 30
0.0
 11
49.4549114338234
 21
70.0000000000124
 31
0.0
  0
LINE
  5
16C
102
{ACAD_REACTORS
330
378
102
}
330
1F
100
AcDbEntity
  8
1
  6
Continuous
 62
     3
100
AcDbLine
 10
49.4549114338234
 20
70.0000000000124
 30
0.0
 11
50.3091279125434
 21
70.0000000000124
 31
0.0
  0
LINE
  5
16D
102
{ACAD_REACTORS
330
378
102
}
330
1F
100
AcDbEntity
  8
1
  6
Continuous
 62
     3
100
AcDbLine
 10
50.3091279125434
 20
71.9927926374524
 30
0.0
 11
50.3091279125434
 21
70.0000000000124
 31
0.0
  0
LINE
  5
16E
102
{ACAD_REACTORS
330
378
102
}
330
1F
100
AcDbEntity
  8
1
  6
Continuous
 62
     3
100
AcDbLine
 10
49.4549114338234
 20
71.9927926374524
 30
0.0
 11
50.3091279125434
 21
71.9927926374524
 31
0.0
  0
LINE
  5
16F
102
{ACAD_REACTORS
330
378
102
}
330
1F
100
AcDbEntity
  8
1
  6
Continuous
 62
     3
100
AcDbLine
 10
49.4549114338234
 20
71.9927926374524
 30
0.0
 11
49.4549114338234
 21
71.1388605184124
 31
0.0
  0
LINE
  5
170
102
{ACAD_REACTORS
330
378
102
}
330
1F
100
AcDbEntity
  8
1
  6
Continuous
 62
     3
100
AcDbLine
 10
47.9181179792313
 20
71.1388605184124
 30
0.0
 11
49.4549114338234
 21
71.1388605184124
 31
0.0
  0
LINE
  5
171
102
{ACAD_REACTORS
330
378
102
}
330
1F
100
AcDbEntity
  8
1
  6
Continuous
 62
     3
100
AcDbLine
 10
47.9181179792313
 20
71.1388605184124
 30
0.0
 11
47.9181179792313
 21
71.9927926374524
 31
0.0
  0
LINE
  5
172
102
{ACAD_REACTORS
330
378
102
}
330
1F
100
AcDbEntity
  8
1
  6
Continuous
 62
     3
100
AcDbLine
 10
47.0639015005113
 20
71.9927926374524
 30
0.0
 11
47.9181179792313
 21
71.9927926374524
 31
0.0
  0
LINE
  5
173
102
{ACAD_REACTORS
330
379
102
}
330
1F
100
AcDbEntity
  8
1
  6
Continuous
 62
     3
100
AcDbLine
 10
43.4999999999878
 20
71.9875000000124
 30
0.0
 11
43.4999999999878
 21
68.0125000000123
 31
0.0
  0
LINE
  5
174
102
{ACAD_REACTORS
330
379
102
}
330
1F
100
AcDbEntity
  8
1
  6
Continuous
 62
     3
100
AcDbLine
 10
44.9999999999878
 20
71.9875000000124
 30
0.0
 11
43.4999999999878
 21
71.9875000000124
 31
0.0
  0
LINE
  5
175
102
{ACAD_REACTORS
330
379
102
}
330
1F
100
AcDbEntity
  8
1
  6
Continuous
 62
     3
100
AcDbLine
 10
44.9999999999878
 20
68.0125000000123
 30
0.0
 11
44.9999999999878
 21
71.9875000000124
 31
0.0
  0
LINE
  5
176
102
{ACAD_REACTORS
330
379
102
}
330
1F
100
AcDbEntity
  8
1
  6
Continuous
 62
     3
100
AcDbLine
 10
43.4999999999878
 20
68.0125000000123
 30
0.0
 11
44.9999999999878
 21
68.0125000000123
 31
0.0
  0
LINE
  5
177
102
{ACAD_REACTORS
330
37A
102
}
330
1F
100
AcDbEntity
  8
1
  6
Continuous
 62
     3
100
AcDbLine
 10
41.2499999999878
 20
71.9875000000124
 30
0.0
 11
41.2499999999878
 21
68.0125000000123
 31
0.0
  0
LINE
  5
178
102
{ACAD_REACTORS
330
37A
102
}
330
1F
100
AcDbEntity
  8
1
  6
Continuous
 62
     3
100
AcDbLine
 10
42.7499999999878
 20
71.9875000000124
 30
0.0
 11
41.2499999999878
 21
71.9875000000124
 31
0.0
  0
LINE
  5
179
102
{ACAD_REACTORS
330
37A
102
}
330
1F
100
AcDbEntity
  8
1
  6
Continuous
 62
     3
100
AcDbLine
 10
42.7499999999878
 20
68.0125000000123
 30
0.0
 11
42.7499999999878
 21
71.9875000000124
 31
0.0
  0
LINE
  5
17A
102
{ACAD_REACTORS
330
37A
102
}
330
1F
100
AcDbEntity
  8
1
  6
Continuous
 62
     3
100
AcDbLine
 10
41.2499999999878
 20
68.0125000000123
 30
0.0
 11
42.7499999999878
 21
68.0125000000123
 31
0.0
  0
LINE
  5
17B
102
{ACAD_REACTORS
330
37B
102
}
330
1F
100
AcDbEntity
  8
1
  6
Continuous
 62
     3
100
AcDbLine
 10
38.9999999999878
 20
71.9875000000124
 30
0.0
 11
38.9999999999878
 21
68.0125000000123
 31
0.0
  0
LINE
  5
17C
102
{ACAD_REACTORS
330
37B
102
}
330
1F
100
AcDbEntity
  8
1
  6
Continuous
 62
     3
100
AcDbLine
 10
40.4999999999878
 20
71.9875000000124
 30
0.0
 11
38.9999999999878
 21
71.9875000000124
 31
0.0
  0
LINE
  5
17D
102
{ACAD_REACTORS
330
37B
102
}
330
1F
100
AcDbEntity
  8
1
  6
Continuous
 62
     3
100
AcDbLine
 10
40.4999999999878
 20
68.0125000000123
 30
0.0
 11
40.4999999999878
 21
71.9875000000124
 31
0.0
  0
LINE
  5
17E
102
{ACAD_REACTORS
330
37B
102
}
330
1F
100
AcDbEntity
  8
1
  6
Continuous
 62
     3
100
AcDbLine
 10
38.9999999999878
 20
68.0125000000123
 30
0.0
 11
40.4999999999878
 21
68.0125000000123
 31
0.0
  0
LINE
  5
17F
102
{ACAD_REACTORS
330
37C
102
}
330
1F
100
AcDbEntity
  8
1
  6
Continuous
 62
     3
100
AcDbLine
 10
29.9999999999878
 20
67.4000000000124
 30
0.0
 11
32.9999999999878
 21
68.8000000000123
 31
0.0
  0
LINE
  5
180
102
{ACAD_REACTORS
330
37C
102
}
330
1F
100
AcDbEntity
  8
1
  6
Continuous
 62
     3
100
AcDbLine
 10
29.9999999999878
 20
67.4000000000124
 30
0.0
 11
32.9999999999878
 21
66.0000000000124
 31
0.0
  0
LINE
  5
181
102
{ACAD_REACTORS
330
37C
102
}
330
1F
100
AcDbEntity
  8
1
  6
Continuous
 62
     3
100
AcDbLine
 10
32.9999999999878
 20
68.8000000000123
 30
0.0
 11
32.9999999999878
 21
67.9000000000124
 31
0.0
  0
LINE
  5
182
102
{ACAD_REACTORS
330
37C
102
}
330
1F
100
AcDbEntity
  8
1
  6
Continuous
 62
     3
100
AcDbLine
 10
32.9999999999878
 20
66.9000000000124
 30
0.0
 11
32.9999999999878
 21
66.0000000000124
 31
0.0
  0
LINE
  5
183
102
{ACAD_REACTORS
330
37C
102
}
330
1F
100
AcDbEntity
  8
1
  6
Continuous
 62
     3
100
AcDbLine
 10
32.9999999999878
 20
67.9000000000124
 30
0.0
 11
34.3999999999877
 21
67.9000000000124
 31
0.0
  0
LINE
  5
184
102
{ACAD_REACTORS
330
37C
102
}
330
1F
100
AcDbEntity
  8
1
  6
Continuous
 62
     3
100
AcDbLine
 10
36.0999999999878
 20
74.5000000000124
 30
0.0
 11
37.4999999999878
 21
71.5000000000124
 31
0.0
  0
LINE
  5
185
102
{ACAD_REACTORS
330
37C
102
}
330
1F
100
AcDbEntity
  8
1
  6
Continuous
 62
     3
100
AcDbLine
 10
36.0999999999878
 20
74.5000000000124
 30
0.0
 11
34.6999999999878
 21
71.5000000000124
 31
0.0
  0
LINE
  5
186
102
{ACAD_REACTORS
330
37C
102
}
330
1F
100
AcDbEntity
  8
1
  6
Continuous
 62
     3
100
AcDbLine
 10
37.4999999999878
 20
71.5000000000124
 30
0.0
 11
36.5999999999878
 21
71.5000000000124
 31
0.0
  0
LINE
  5
187
102
{ACAD_REACTORS
330
37C
102
}
330
1F
100
AcDbEntity
  8
1
  6
Continuous
 62
     3
100
AcDbLine
 10
35.5999999999878
 20
71.5000000000124
 30
0.0
 11
34.6999999999878
 21
71.5000000000124
 31
0.0
  0
LINE
  5
188
102
{ACAD_REACTORS
330
37C
102
}
330
1F
100
AcDbEntity
  8
1
  6
Continuous
 62
     3
100
AcDbLine
 10
35.5999999999878
 20
71.5000000000124
 30
0.0
 11
35.5999999999878
 21
69.1000000000124
 31
0.0
  0
LINE
  5
189
102
{ACAD_REACTORS
330
37C
102
}
330
1F
100
AcDbEntity
  8
1
  6
Continuous
 62
     3
100
AcDbLine
 10
36.5999999999878
 20
68.9000000000124
 30
0.0
 11
36.5999999999878
 21
71.5000000000124
 31
0.0
  0
LINE
  5
18A
102
{ACAD_REACTORS
330
37C
102
}
330
1F
100
AcDbEntity
  8
1
  6
Continuous
 62
     3
100
AcDbLine
 10
34.5999999999878
 20
66.9000000000124
 30
0.0
 11
32.9999999999878
 21
66.9000000000124
 31
0.0
  0
LINE
  5
18B
330
1F
100
AcDbEntity
  8
1
  6
Continuous
 62
     3
100
AcDbLine
 10
3.12249899918703
 20
72.5000000000124
 30
0.0
 11
-3.12249899921139
 21
72.5000000000124
 31
0.0
  0
LINE
  5
18C
330
1F
100
AcDbEntity
  8
1
  6
Continuous
 62
     3
100
AcDbLine
 10
-3.12249899921139
 20
67.5000000000124
 30
0.0
 11
3.12249899918703
 21
67.5000000000124
 31
0.0
  0
LINE
  5
18D
330
1F
100
AcDbEntity
  8
1
  6
Continuous
 62
     3
100
AcDbLine
 10
20.9999999999878
 20
88.0000000000124
 30
0.0
 11
21.9999999999878
 21
88.0000000000124
 31
0.0
  0
LINE
  5
18E
330
1F
100
AcDbEntity
  8
1
  6
Continuous
 62
     3
100
AcDbLine
 10
22.9999999999878
 20
87.0000000000124
 30
0.0
 11
22.9999999999878
 21
85.7500000000124
 31
0.0
  0
LINE
  5
18F
330
1F
100
AcDbEntity
  8
1
  6
Continuous
 62
     3
100
AcDbLine
 10
21.9999999999878
 20
52.0000000000124
 30
0.0
 11
20.9999999999878
 21
52.0000000000124
 31
0.0
  0
LINE
  5
190
330
1F
100
AcDbEntity
  8
1
  6
Continuous
 62
     3
100
AcDbLine
 10
23.9999999999878
 20
84.7500000000124
 30
0.0
 11
32.2783121635007
 21
84.7500000000124
 31
0.0
  0
LINE
  5
191
330
1F
100
AcDbEntity
  8
1
  6
Continuous
 62
     3
100
AcDbLine
 10
22.9999999999878
 20
85.7500000000124
 30
0.0
 11
22.9999999999878
 21
81.1573061351707
 31
0.0
  0
LINE
  5
192
330
1F
100
AcDbEntity
  8
1
  6
Continuous
 62
     3
100
AcDbLine
 10
22.9999999999878
 20
54.2500000000124
 30
0.0
 11
22.9999999999878
 21
53.0000000000124
 31
0.0
  0
LINE
  5
193
330
1F
100
AcDbEntity
  8
1
  6
Continuous
 62
     3
100
AcDbLine
 10
32.9999999999878
 20
83.5000000000124
 30
0.0
 11
32.2783121635007
 21
84.7500000000124
 31
0.0
  0
LINE
  5
194
330
1F
100
AcDbEntity
  8
1
  6
Continuous
 62
     3
100
AcDbLine
 10
32.9999999999878
 20
83.5000000000124
 30
0.0
 11
32.9999999999878
 21
78.5149984444444
 31
0.0
  0
LINE
  5
195
330
1F
100
AcDbEntity
  8
1
  6
Continuous
 62
     3
100
AcDbLine
 10
32.9999999999878
 20
56.5000000000124
 30
0.0
 11
32.2783121635007
 21
55.2500000000124
 31
0.0
  0
LINE
  5
196
330
1F
100
AcDbEntity
  8
1
  6
Continuous
 62
     3
100
AcDbLine
 10
32.2783121635007
 20
55.2500000000124
 30
0.0
 11
23.9999999999878
 21
55.2500000000124
 31
0.0
  0
LINE
  5
197
330
1F
100
AcDbEntity
  8
1
  6
Continuous
 62
     3
100
AcDbLine
 10
22.9999999999878
 20
81.1573061351707
 30
0.0
 11
32.2783121635007
 21
81.1573061351707
 31
0.0
  0
LINE
  5
198
330
1F
100
AcDbEntity
  8
1
  6
Continuous
 62
     3
100
AcDbLine
 10
22.9999999999878
 20
81.1573061351707
 30
0.0
 11
22.9999999999878
 21
79.6476432255032
 31
0.0
  0
LINE
  5
199
330
1F
100
AcDbEntity
  8
1
  6
Continuous
 62
     3
100
AcDbLine
 10
32.2783121635007
 20
79.6476432255032
 30
0.0
 11
22.9999999999878
 21
79.6476432255032
 31
0.0
  0
LINE
  5
19A
330
1F
100
AcDbEntity
  8
1
  6
Continuous
 62
     3
100
AcDbLine
 10
22.9999999999878
 20
79.6476432255032
 30
0.0
 11
22.9999999999878
 21
78.8671225043273
 31
0.0
  0
LINE
  5
19B
330
1F
100
AcDbEntity
  8
1
  6
Continuous
 62
     3
100
AcDbLine
 10
22.9999999999878
 20
60.3523567745216
 30
0.0
 11
32.2783121635007
 21
60.3523567745216
 31
0.0
  0
LINE
  5
19C
330
1F
100
AcDbEntity
  8
1
  6
Continuous
 62
     3
100
AcDbLine
 10
22.9999999999878
 20
60.3523567745216
 30
0.0
 11
22.9999999999878
 21
58.8426938648541
 31
0.0
  0
LINE
  5
19D
330
1F
100
AcDbEntity
  8
1
  6
Continuous
 62
     3
100
AcDbLine
 10
32.2783121635007
 20
58.8426938648541
 30
0.0
 11
22.9999999999878
 21
58.8426938648541
 31
0.0
  0
LINE
  5
19E
330
1F
100
AcDbEntity
  8
1
  6
Continuous
 62
     3
100
AcDbLine
 10
22.9999999999878
 20
58.8426938648541
 30
0.0
 11
22.9999999999878
 21
54.2500000000124
 31
0.0
  0
LINE
  5
19F
330
1F
100
AcDbEntity
  8
1
  6
Continuous
 62
     3
100
AcDbLine
 10
32.2783121635007
 20
81.1573061351707
 30
0.0
 11
32.2783121635007
 21
79.6476432255032
 31
0.0
  0
LINE
  5
1A0
330
1F
100
AcDbEntity
  8
1
  6
Continuous
 62
     3
100
AcDbLine
 10
32.2783121635007
 20
60.3523567745216
 30
0.0
 11
32.2783121635007
 21
58.8426938648541
 31
0.0
  0
LINE
  5
1A1
330
1F
100
AcDbEntity
  8
1
  6
Continuous
 62
     3
100
AcDbLine
 10
22.9999999999878
 20
61.1328774956974
 30
0.0
 11
22.9999999999878
 21
60.3523567745216
 31
0.0
  0
LINE
  5
1A2
330
1F
100
AcDbEntity
  8
1
  6
Continuous
 62
     3
100
AcDbLine
 10
32.9999999999878
 20
61.4850015555803
 30
0.0
 11
32.9999999999878
 21
56.5000000000124
 31
0.0
  0
LINE
  5
1A3
330
1F
100
AcDbEntity
  8
1
  6
Continuous
 62
     3
100
AcDbLine
 10
3.7527767497204
 20
63.5000000000124
 30
0.0
 11
7.50555349945301
 21
70.0000000000124
 31
0.0
  0
LINE
  5
1A4
330
1F
100
AcDbEntity
  8
1
  6
Continuous
 62
     3
100
AcDbLine
 10
-3.75277674974487
 20
63.5000000000124
 30
0.0
 11
3.7527767497204
 21
63.5000000000124
 31
0.0
  0
LINE
  5
1A5
330
1F
100
AcDbEntity
  8
1
  6
Continuous
 62
     3
100
AcDbLine
 10
-7.50555349947729
 20
70.0000000000124
 30
0.0
 11
-3.75277674974487
 21
63.5000000000124
 31
0.0
  0
LINE
  5
1A6
330
1F
100
AcDbEntity
  8
1
  6
Continuous
 62
     3
100
AcDbLine
 10
-3.75277674974487
 20
76.5000000000123
 30
0.0
 11
-7.50555349947729
 21
70.0000000000124
 31
0.0
  0
LINE
  5
1A7
330
1F
100
AcDbEntity
  8
1
  6
Continuous
 62
     3
100
AcDbLine
 10
7.50555349945301
 20
70.0000000000124
 30
0.0
 11
3.7527767497204
 21
76.5000000000123
 31
0.0
  0
LINE
  5
1A8
330
1F
100
AcDbEntity
  8
1
  6
Continuous
 62
     3
100
AcDbLine
 10
3.7527767497204
 20
76.5000000000123
 30
0.0
 11
-3.75277674974487
 21
76.5000000000123
 31
0.0
  0
LINE
  5
1A9
330
1F
100
AcDbEntity
  8
1
  6
Continuous
 62
     3
100
AcDbLine
 10
19.9999999999878
 20
87.0000000000124
 30
0.0
 11
20.9999999999878
 21
88.0000000000124
 31
0.0
  0
LINE
  5
1AA
330
1F
100
AcDbEntity
  8
1
  6
Continuous
 62
     3
100
AcDbLine
 10
19.9999999999878
 20
53.0000000000124
 30
0.0
 11
20.9999999999878
 21
52.0000000000124
 31
0.0
  0
LINE
  5
1AB
330
1F
100
AcDbEntity
  8
1
  6
Continuous
 62
     3
100
AcDbLine
 10
20.9999999999878
 20
52.0000000000124
 30
0.0
 11
20.9999999999878
 21
61.0624526837208
 31
0.0
  0
LINE
  5
1AC
330
1F
100
AcDbEntity
  8
1
  6
Continuous
 62
     3
100
AcDbLine
 10
20.9999999999878
 20
61.0624526837208
 30
0.0
 11
76.0441237329104
 21
63.0006887158743
 31
0.0
  0
LINE
  5
1AD
330
1F
100
AcDbEntity
  8
1
  6
Continuous
 62
     3
100
AcDbLine
 10
20.9999999999878
 20
88.0000000000124
 30
0.0
 11
20.9999999999878
 21
78.9375473163039
 31
0.0
  0
LINE
  5
1AE
330
1F
100
AcDbEntity
  8
1
  6
Continuous
 62
     3
100
AcDbLine
 10
20.9999999999878
 20
78.9375473163039
 30
0.0
 11
76.0441237329104
 21
76.9993112841505
 31
0.0
  0
LINE
  5
1AF
330
1F
100
AcDbEntity
  8
1
  6
DOT_CENTER
 62
     4
100
AcDbLine
 10
67.6614047791314
 20
70.0000000000124
 30
0.0
 11
82.0027242016933
 21
70.0000000000124
 31
0.0
  0
LINE
  5
1B0
330
1F
100
AcDbEntity
  8
1
  6
Continuous
 62
     3
100
AcDbLine
 10
19.9999999999878
 20
61.0272402777325
 30
0.0
 11
19.9999999999878
 21
53.0000000000124
 31
0.0
  0
LINE
  5
1B1
330
1F
100
AcDbEntity
  8
1
  6
Continuous
 62
     3
100
AcDbLine
 10
18.9999999999878
 20
61.2693389213627
 30
0.0
 11
18.9999999999878
 21
52.0000000000124
 31
0.0
  0
LINE
  5
1B2
330
1F
100
AcDbEntity
  8
1
  6
Continuous
 62
     3
100
AcDbLine
 10
14.9999999999878
 20
79.5192307692432
 30
0.0
 11
14.9999999999878
 21
87.0000000000124
 31
0.0
  0
LINE
  5
1B3
330
1F
100
AcDbEntity
  8
1
  6
Continuous
 62
     3
100
AcDbLine
 10
-12.2500000000122
 20
67.0000000000124
 30
0.0
 11
-12.2500000000122
 21
80.1286796564528
 31
0.0
  0
LINE
  5
1B4
330
1F
100
AcDbEntity
  8
1
  6
Continuous
 62
     3
100
AcDbLine
 10
10.2204724409327
 20
81.7795275590675
 30
0.0
 11
14.7499999999878
 21
87.0000000000124
 31
0.0
  0
LINE
  5
1B5
330
1F
100
AcDbEntity
  8
1
  6
Continuous
 62
     3
100
AcDbLine
 10
-3.07784862307245
 20
79.5145597824472
 30
0.0
 11
-2.84003385091967
 21
84.0523359562553
 31
0.0
  0
LINE
  5
1B6
330
1F
100
AcDbEntity
  8
1
  6
Continuous
 62
     3
100
AcDbLine
 10
-11.0000000000122
 20
60.127016653805
 30
0.0
 11
-11.0000000000122
 21
55.707106781199
 31
0.0
  0
LINE
  5
1B7
330
1F
100
AcDbEntity
  8
1
  6
DOT_CENTER
 62
     4
100
AcDbLine
 10
-33.0000000000122
 20
70.0000000000124
 30
0.0
 11
29.9669453061986
 21
70.0000000000124
 31
0.0
  0
LINE
  5
1B8
330
1F
100
AcDbEntity
  8
1
  6
DOT_CENTER
 62
     4
100
AcDbLine
 10
-0.00000000001216
 20
107.000000000012
 30
0.0
 11
-0.00000000001216
 21
48.3085975572772
 31
0.0
  0
LINE
  5
1B9
330
1F
100
AcDbEntity
  8
1
  6
Continuous
 62
     3
100
AcDbLine
 10
6.66040139521635
 20
85.1538461538586
 30
0.0
 11
7.05413073257922
 21
83.93630541947
 31
0.0
  0
LINE
  5
1BA
330
1F
100
AcDbEntity
  8
1
  6
Continuous
 62
     3
100
AcDbLine
 10
6.66040139521635
 20
54.8461538461662
 30
0.0
 11
8.3270564595686
 21
60.0000000000124
 31
0.0
  0
LINE
  5
1BB
330
1F
100
AcDbEntity
  8
1
  6
Continuous
 62
     3
100
AcDbLine
 10
-6.66040139524068
 20
54.8461538461662
 30
0.0
 11
-8.32705645959292
 21
60.0000000000124
 31
0.0
  0
LINE
  5
1BC
330
1F
100
AcDbEntity
  8
1
  6
Continuous
 62
     3
100
AcDbLine
 10
-6.66040139524068
 20
85.1538461538586
 30
0.0
 11
-10.466345049657
 21
73.3846153846278
 31
0.0
  0
LINE
  5
1BD
330
1F
100
AcDbEntity
  8
1
  6
Continuous
 62
     3
100
AcDbLine
 10
14.7499999999878
 20
88.9843134833108
 30
0.0
 11
14.7499999999878
 21
92.5000000000124
 31
0.0
  0
LINE
  5
1BE
330
1F
100
AcDbEntity
  8
1
  6
Continuous
 62
     3
100
AcDbLine
 10
-11.0000000000122
 20
78.8786796564528
 30
0.0
 11
-11.0000000000122
 21
67.0000000000124
 31
0.0
  0
LINE
  5
1BF
330
1F
100
AcDbEntity
  8
1
  6
Continuous
 62
     3
100
AcDbLine
 10
-1.06749288074389
 20
92.5000000000124
 30
0.0
 11
-1.06749288074389
 21
104.278312163525
 31
0.0
  0
LINE
  5
1C0
330
1F
100
AcDbEntity
  8
1
  6
Continuous
 62
     3
100
AcDbLine
 10
-1.06749288074389
 20
92.5000000000124
 30
0.0
 11
-9.64764322550297
 21
92.5000000000124
 31
0.0
  0
LINE
  5
1C1
330
1F
100
AcDbEntity
  8
1
  6
Continuous
 62
     3
100
AcDbLine
 10
1.06749288071956
 20
104.278312163525
 30
0.0
 11
1.06749288071956
 21
92.5000000000124
 31
0.0
  0
LINE
  5
1C2
330
1F
100
AcDbEntity
  8
1
  6
Continuous
 62
     3
100
AcDbLine
 10
9.64764322547865
 20
92.5000000000124
 30
0.0
 11
1.06749288071956
 21
92.5000000000124
 31
0.0
  0
LINE
  5
1C3
330
1F
100
AcDbEntity
  8
1
  6
Continuous
 62
     3
100
AcDbLine
 10
18.9999999999878
 20
88.0000000000124
 30
0.0
 11
18.9999999999878
 21
78.7306610786619
 31
0.0
  0
LINE
  5
1C4
330
1F
100
AcDbEntity
  8
1
  6
Continuous
 62
     3
100
AcDbLine
 10
19.9999999999878
 20
53.0000000000124
 30
0.0
 11
18.9999999999878
 21
52.0000000000124
 31
0.0
  0
LINE
  5
1C5
330
1F
100
AcDbEntity
  8
1
  6
Continuous
 62
     3
100
AcDbLine
 10
19.9999999999878
 20
87.0000000000124
 30
0.0
 11
18.9999999999878
 21
88.0000000000124
 31
0.0
  0
LINE
  5
1C6
330
1F
100
AcDbEntity
  8
1
  6
Continuous
 62
     3
100
AcDbLine
 10
-9.64764322550297
 20
104.278312163525
 30
0.0
 11
-11.1573061351704
 21
104.278312163525
 31
0.0
  0
LINE
  5
1C7
330
1F
100
AcDbEntity
  8
1
  6
Continuous
 62
     3
100
AcDbLine
 10
1.06749288071956
 20
104.278312163525
 30
0.0
 11
-1.06749288074389
 21
104.278312163525
 31
0.0
  0
LINE
  5
1C8
330
1F
100
AcDbEntity
  8
1
  6
Continuous
 62
     3
100
AcDbLine
 10
11.1573061351461
 20
104.278312163525
 30
0.0
 11
9.64764322547865
 21
104.278312163525
 31
0.0
  0
LINE
  5
1C9
330
1F
100
AcDbEntity
  8
1
  6
Continuous
 62
     3
100
AcDbLine
 10
13.4999999999878
 20
105.000000000012
 30
0.0
 11
-13.5000000000122
 21
105.000000000012
 31
0.0
  0
LINE
  5
1CA
330
1F
100
AcDbEntity
  8
1
  6
Continuous
 62
     3
100
AcDbLine
 10
-13.5000000000122
 20
105.000000000012
 30
0.0
 11
-14.7500000000122
 21
104.278312163525
 31
0.0
  0
LINE
  5
1CB
330
1F
100
AcDbEntity
  8
1
  6
Continuous
 62
     3
100
AcDbLine
 10
14.7499999999878
 20
104.278312163525
 30
0.0
 11
13.4999999999878
 21
105.000000000012
 31
0.0
  0
LINE
  5
1CC
330
1F
100
AcDbEntity
  8
1
  6
Continuous
 62
     3
100
AcDbLine
 10
-30.2783121635251
 20
60.3523567745216
 30
0.0
 11
-30.2783121635251
 21
58.8426938648541
 31
0.0
  0
LINE
  5
1CD
330
1F
100
AcDbEntity
  8
1
  6
Continuous
 62
     3
100
AcDbLine
 10
-30.2783121635251
 20
71.0674928807441
 30
0.0
 11
-30.2783121635251
 21
68.9325071192807
 31
0.0
  0
LINE
  5
1CE
330
1F
100
AcDbEntity
  8
1
  6
Continuous
 62
     3
100
AcDbLine
 10
-30.2783121635251
 20
81.1573061351707
 30
0.0
 11
-30.2783121635251
 21
79.6476432255032
 31
0.0
  0
LINE
  5
1CF
330
1F
100
AcDbEntity
  8
1
  6
Continuous
 62
     3
100
AcDbLine
 10
-31.0000000000122
 20
83.5000000000124
 30
0.0
 11
-31.0000000000122
 21
56.5000000000124
 31
0.0
  0
LINE
  5
1D0
330
1F
100
AcDbEntity
  8
1
  6
Continuous
 62
     3
100
AcDbLine
 10
-31.0000000000122
 20
56.5000000000124
 30
0.0
 11
-30.2783121635251
 21
55.2500000000124
 31
0.0
  0
LINE
  5
1D1
330
1F
100
AcDbEntity
  8
1
  6
Continuous
 62
     3
100
AcDbLine
 10
-30.2783121635251
 20
84.7500000000124
 30
0.0
 11
-31.0000000000122
 21
83.5000000000124
 31
0.0
  0
LINE
  5
1D2
330
1F
100
AcDbEntity
  8
1
  6
Continuous
 62
     3
100
AcDbLine
 10
19.9999999999878
 20
87.0000000000124
 30
0.0
 11
19.9999999999878
 21
78.9727597222922
 31
0.0
  0
LINE
  5
1D3
330
1F
100
AcDbEntity
  8
1
  6
Continuous
 62
     3
100
AcDbLine
 10
15.9999999999878
 20
88.0000000000124
 30
0.0
 11
18.9999999999878
 21
88.0000000000124
 31
0.0
  0
LINE
  5
1D4
330
1F
100
AcDbEntity
  8
1
  6
Continuous
 62
     3
100
AcDbLine
 10
-18.5000000000122
 20
84.7500000000124
 30
0.0
 11
-30.2783121635251
 21
84.7500000000124
 31
0.0
  0
LINE
  5
1D5
330
1F
100
AcDbEntity
  8
1
  6
Continuous
 62
     3
100
AcDbLine
 10
-30.2783121635251
 20
81.1573061351707
 30
0.0
 11
-18.5000000000122
 21
81.1573061351707
 31
0.0
  0
LINE
  5
1D6
330
1F
100
AcDbEntity
  8
1
  6
Continuous
 62
     3
100
AcDbLine
 10
-30.2783121635251
 20
79.6476432255032
 30
0.0
 11
-18.5000000000122
 21
79.6476432255032
 31
0.0
  0
LINE
  5
1D7
330
1F
100
AcDbEntity
  8
1
  6
Continuous
 62
     3
100
AcDbLine
 10
-30.2783121635251
 20
71.0674928807441
 30
0.0
 11
-18.5000000000122
 21
71.0674928807441
 31
0.0
  0
LINE
  5
1D8
330
1F
100
AcDbEntity
  8
1
  6
Continuous
 62
     3
100
AcDbLine
 10
-18.5000000000122
 20
81.1573061351707
 30
0.0
 11
-18.5000000000122
 21
84.7500000000124
 31
0.0
  0
LINE
  5
1D9
330
1F
100
AcDbEntity
  8
1
  6
Continuous
 62
     3
100
AcDbLine
 10
-18.5000000000122
 20
79.6476432255032
 30
0.0
 11
-18.5000000000122
 21
71.0674928807441
 31
0.0
  0
LINE
  5
1DA
330
1F
100
AcDbEntity
  8
1
  6
Continuous
 62
     3
100
AcDbLine
 10
14.9999999999878
 20
53.0000000000124
 30
0.0
 11
14.9999999999878
 21
60.4807692307816
 31
0.0
  0
LINE
  5
1DB
330
1F
100
AcDbEntity
  8
1
  6
Continuous
 62
     3
100
AcDbLine
 10
-12.2500000000122
 20
56.7500000000124
 30
0.0
 11
-12.2500000000122
 21
60.6928108611816
 31
0.0
  0
LINE
  5
1DC
330
1F
100
AcDbEntity
  8
1
  6
Continuous
 62
     3
100
AcDbLine
 10
18.9999999999878
 20
52.0000000000124
 30
0.0
 11
15.9999999999878
 21
52.0000000000124
 31
0.0
  0
LINE
  5
1DD
330
1F
100
AcDbEntity
  8
1
  6
Continuous
 62
     3
100
AcDbLine
 10
-30.2783121635251
 20
55.2500000000124
 30
0.0
 11
-18.5000000000122
 21
55.2500000000124
 31
0.0
  0
LINE
  5
1DE
330
1F
100
AcDbEntity
  8
1
  6
Continuous
 62
     3
100
AcDbLine
 10
-18.5000000000122
 20
58.8426938648541
 30
0.0
 11
-30.2783121635251
 21
58.8426938648541
 31
0.0
  0
LINE
  5
1DF
330
1F
100
AcDbEntity
  8
1
  6
Continuous
 62
     3
100
AcDbLine
 10
-18.5000000000122
 20
60.3523567745216
 30
0.0
 11
-30.2783121635251
 21
60.3523567745216
 31
0.0
  0
LINE
  5
1E0
330
1F
100
AcDbEntity
  8
1
  6
Continuous
 62
     3
100
AcDbLine
 10
-18.5000000000122
 20
68.9325071192807
 30
0.0
 11
-30.2783121635251
 21
68.9325071192807
 31
0.0
  0
LINE
  5
1E1
330
1F
100
AcDbEntity
  8
1
  6
Continuous
 62
     3
100
AcDbLine
 10
-18.5000000000122
 20
55.2500000000124
 30
0.0
 11
-18.5000000000122
 21
58.8426938648541
 31
0.0
  0
LINE
  5
1E2
330
1F
100
AcDbEntity
  8
1
  6
Continuous
 62
     3
100
AcDbLine
 10
-18.5000000000122
 20
68.9325071192807
 30
0.0
 11
-18.5000000000122
 21
60.3523567745216
 31
0.0
  0
LINE
  5
1E3
330
1F
100
AcDbEntity
  8
1
  6
Continuous
 62
     3
100
AcDbLine
 10
14.7499999999878
 20
92.5000000000124
 30
0.0
 11
14.7499999999878
 21
104.278312163525
 31
0.0
  0
LINE
  5
1E4
330
1F
100
AcDbEntity
  8
1
  6
Continuous
 62
     3
100
AcDbLine
 10
11.1573061351461
 20
104.278312163525
 30
0.0
 11
11.1573061351461
 21
92.5000000000124
 31
0.0
  0
LINE
  5
1E5
330
1F
100
AcDbEntity
  8
1
  6
Continuous
 62
     3
100
AcDbLine
 10
9.64764322547865
 20
104.278312163525
 30
0.0
 11
9.64764322547865
 21
92.5000000000124
 31
0.0
  0
LINE
  5
1E6
330
1F
100
AcDbEntity
  8
1
  6
Continuous
 62
     3
100
AcDbLine
 10
11.1573061351461
 20
92.5000000000124
 30
0.0
 11
14.7499999999878
 21
92.5000000000124
 31
0.0
  0
LINE
  5
1E7
330
1F
100
AcDbEntity
  8
1
  6
Continuous
 62
     3
100
AcDbLine
 10
-14.7500000000122
 20
104.278312163525
 30
0.0
 11
-14.7500000000122
 21
92.5000000000124
 31
0.0
  0
LINE
  5
1E8
330
1F
100
AcDbEntity
  8
1
  6
Continuous
 62
     3
100
AcDbLine
 10
-11.1573061351704
 20
92.5000000000124
 30
0.0
 11
-11.1573061351704
 21
104.278312163525
 31
0.0
  0
LINE
  5
1E9
330
1F
100
AcDbEntity
  8
1
  6
Continuous
 62
     3
100
AcDbLine
 10
-9.64764322550297
 20
92.5000000000124
 30
0.0
 11
-9.64764322550297
 21
104.278312163525
 31
0.0
  0
LINE
  5
1EA
330
1F
100
AcDbEntity
  8
1
  6
Continuous
 62
     3
100
AcDbLine
 10
-14.7500000000122
 20
92.5000000000124
 30
0.0
 11
-11.1573061351704
 21
92.5000000000124
 31
0.0
  0
LINE
  5
1EB
330
1F
100
AcDbEntity
  8
1
  6
Continuous
 62
     3
100
AcDbLine
 10
-14.7500000000122
 20
92.5000000000124
 30
0.0
 11
-14.7500000000122
 21
85.7500000000124
 31
0.0
  0
LINE
  5
1EC
330
1F
100
AcDbEntity
  8
1
  6
Continuous
 62
     3
100
AcDbLine
 10
-15.7500000000122
 20
84.7500000000124
 30
0.0
 11
-18.5000000000122
 21
84.7500000000124
 31
0.0
  0
LINE
  5
1ED
330
1F
100
AcDbEntity
  8
1
  6
Continuous
 62
     3
100
AcDbLine
 10
-8.73585630212881
 20
78.735856302129
 30
0.0
 11
-14.7500000000122
 21
84.7500000000124
 31
0.0
  0
LINE
  5
1EE
330
1F
100
AcDbEntity
  8
1
  6
Continuous
 62
     3
100
AcDbLine
 10
-11.9571067811987
 20
54.957106781199
 30
0.0
 11
-11.2673602841262
 21
54.2673602841264
 31
0.0
  0
LINE
  5
1EF
330
1F
100
AcDbEntity
  8
1
  6
Continuous
 62
     3
100
AcDbLine
 10
-10.6226317890949
 20
53.9764144868301
 30
0.0
 11
-6.17240756485285
 21
53.698275472815
 31
0.0
  0
LINE
  5
1F0
330
1F
100
AcDbEntity
  8
1
  6
Continuous
 62
     3
100
AcDbLine
 10
14.267949192419
 20
53.0000000000124
 30
0.0
 11
5.74456264652588
 21
53.0000000000124
 31
0.0
  0
LINE
  5
1F1
330
1F
100
AcDbEntity
  8
1
  6
Continuous
 62
     3
100
AcDbLine
 10
-18.5000000000122
 20
55.2500000000124
 30
0.0
 11
-12.6642135623853
 21
55.2500000000124
 31
0.0
  0
LINE
  5
1F2
330
1F
100
AcDbEntity
  8
1
  6
Continuous
 62
     3
100
AcDbLine
 10
-1.84140431616515
 20
85.0000000000124
 30
0.0
 11
1.84140431614082
 21
85.0000000000124
 31
0.0
  0
LINE
  5
1F3
330
1F
100
AcDbEntity
  8
1
  6
Continuous
 62
     3
100
AcDbLine
 10
2.84003385089534
 20
84.0523359562553
 30
0.0
 11
2.99999999998784
 21
81.0000000000119
 31
0.0
  0
LINE
  5
1F4
330
1F
100
AcDbEntity
  8
1
  6
Continuous
 62
     3
100
AcDbLine
 10
0.14999999998781
 20
69.8500000000124
 30
0.0
 11
0.14999999998781
 21
72.5000000000124
 31
0.0
  0
LINE
  5
1F5
330
1F
100
AcDbEntity
  8
1
  6
Continuous
 62
     3
100
AcDbLine
 10
-0.15000000001214
 20
70.1500000000124
 30
0.0
 11
-0.15000000001214
 21
72.5000000000124
 31
0.0
  0
LINE
  5
1F6
330
1F
100
AcDbEntity
  8
1
  6
Continuous
 62
     3
100
AcDbLine
 10
-0.15000000001214
 20
70.1500000000124
 30
0.0
 11
-2.74590604356138
 21
70.1500000000124
 31
0.0
  0
LINE
  5
1F7
330
1F
100
AcDbEntity
  8
1
  6
Continuous
 62
     3
100
AcDbLine
 10
0.14999999998781
 20
69.8500000000124
 30
0.0
 11
-2.74590604356138
 21
69.8500000000123
 31
0.0
  0
LINE
  5
1F8
330
1F
100
AcDbEntity
  8
1
  6
Continuous
 62
     3
100
AcDbLine
 10
10.04
 20
-32.1387041432245
 30
0.0
 11
10.04
 21
-30.2387041432245
 31
0.0
  0
LINE
  5
1F9
330
1F
100
AcDbEntity
  8
1
  6
Continuous
 62
     3
100
AcDbLine
 10
10.04
 20
-28.1387041432245
 30
0.0
 11
11.32
 21
-28.1387041432245
 31
0.0
  0
LINE
  5
1FA
330
1F
100
AcDbEntity
  8
1
  6
Continuous
 62
     3
100
AcDbLine
 10
11.32
 20
-28.1387041432245
 30
0.0
 11
11.64
 21
-28.4387041432245
 31
0.0
  0
LINE
  5
1FB
330
1F
100
AcDbEntity
  8
1
  6
Continuous
 62
     3
100
AcDbLine
 10
11.64
 20
-28.4387041432245
 30
0.0
 11
11.88
 21
-28.8387041432245
 31
0.0
  0
LINE
  5
1FC
330
1F
100
AcDbEntity
  8
1
  6
Continuous
 62
     3
100
AcDbLine
 10
11.88
 20
-28.8387041432245
 30
0.0
 11
11.96
 21
-29.2387041432245
 31
0.0
  0
LINE
  5
1FD
330
1F
100
AcDbEntity
  8
1
  6
Continuous
 62
     3
100
AcDbLine
 10
11.96
 20
-29.2387041432245
 30
0.0
 11
11.88
 21
-29.7387041432245
 31
0.0
  0
LINE
  5
1FE
330
1F
100
AcDbEntity
  8
1
  6
Continuous
 62
     3
100
AcDbLine
 10
11.88
 20
-29.7387041432245
 30
0.0
 11
11.64
 21
-30.0387041432245
 31
0.0
  0
LINE
  5
1FF
330
1F
100
AcDbEntity
  8
1
  6
Continuous
 62
     3
100
AcDbLine
 10
11.64
 20
-30.0387041432245
 30
0.0
 11
11.32
 21
-30.2387041432245
 31
0.0
  0
LINE
  5
200
330
1F
100
AcDbEntity
  8
1
  6
Continuous
 62
     3
100
AcDbLine
 10
11.32
 20
-30.2387041432245
 30
0.0
 11
10.04
 21
-30.2387041432245
 31
0.0
  0
LINE
  5
201
330
1F
100
AcDbEntity
  8
1
  6
Continuous
 62
     3
100
AcDbLine
 10
11.32
 20
-30.2387041432245
 30
0.0
 11
12.04
 21
-32.1387041432245
 31
0.0
  0
LINE
  5
202
330
1F
100
AcDbEntity
  8
1
  6
Continuous
 62
     3
100
AcDbLine
 10
10.04
 20
-30.2387041432245
 30
0.0
 11
10.04
 21
-28.1387041432245
 31
0.0
  0
LINE
  5
203
330
1F
100
AcDbEntity
  8
1
  6
Continuous
 62
     3
100
AcDbLine
 10
13.88
 20
-32.1387041432245
 30
0.0
 11
13.88
 21
-28.4387041432245
 31
0.0
  0
LINE
  5
204
330
1F
100
AcDbEntity
  8
1
  6
Continuous
 62
     3
100
AcDbLine
 10
13.88
 20
-28.4387041432245
 30
0.0
 11
15.08
 21
-28.4387041432245
 31
0.0
  0
LINE
  5
205
330
1F
100
AcDbEntity
  8
1
  6
Continuous
 62
     3
100
AcDbLine
 10
15.08
 20
-28.4387041432245
 30
0.0
 11
15.48
 21
-28.6387041432245
 31
0.0
  0
LINE
  5
206
330
1F
100
AcDbEntity
  8
1
  6
Continuous
 62
     3
100
AcDbLine
 10
15.48
 20
-28.6387041432245
 30
0.0
 11
15.64
 21
-29.3387041432245
 31
0.0
  0
LINE
  5
207
330
1F
100
AcDbEntity
  8
1
  6
Continuous
 62
     3
100
AcDbLine
 10
15.64
 20
-29.3387041432245
 30
0.0
 11
15.48
 21
-29.8387041432245
 31
0.0
  0
LINE
  5
208
330
1F
100
AcDbEntity
  8
1
  6
Continuous
 62
     3
100
AcDbLine
 10
15.48
 20
-29.8387041432245
 30
0.0
 11
15.08
 21
-30.2387041432245
 31
0.0
  0
LINE
  5
209
330
1F
100
AcDbEntity
  8
1
  6
Continuous
 62
     3
100
AcDbLine
 10
15.08
 20
-30.2387041432245
 30
0.0
 11
13.88
 21
-30.2387041432245
 31
0.0
  0
LINE
  5
20A
330
1F
100
AcDbEntity
  8
1
  6
Continuous
 62
     3
100
AcDbLine
 10
13.88
 20
-30.2387041432245
 30
0.0
 11
15.08
 21
-30.2387041432245
 31
0.0
  0
LINE
  5
20B
330
1F
100
AcDbEntity
  8
1
  6
Continuous
 62
     3
100
AcDbLine
 10
15.08
 20
-30.2387041432245
 30
0.0
 11
15.64
 21
-30.5387041432245
 31
0.0
  0
LINE
  5
20C
330
1F
100
AcDbEntity
  8
1
  6
Continuous
 62
     3
100
AcDbLine
 10
15.64
 20
-30.5387041432245
 30
0.0
 11
15.8
 21
-31.2387041432245
 31
0.0
  0
LINE
  5
20D
330
1F
100
AcDbEntity
  8
1
  6
Continuous
 62
     3
100
AcDbLine
 10
15.8
 20
-31.2387041432245
 30
0.0
 11
15.64
 21
-31.8387041432245
 31
0.0
  0
LINE
  5
20E
330
1F
100
AcDbEntity
  8
1
  6
Continuous
 62
     3
100
AcDbLine
 10
15.64
 20
-31.8387041432245
 30
0.0
 11
15.08
 21
-32.1387041432245
 31
0.0
  0
LINE
  5
20F
330
1F
100
AcDbEntity
  8
1
  6
Continuous
 62
     3
100
AcDbLine
 10
15.08
 20
-32.1387041432245
 30
0.0
 11
13.88
 21
-32.1387041432245
 31
0.0
  0
LINE
  5
210
330
1F
100
AcDbEntity
  8
1
  6
Continuous
 62
     3
100
AcDbLine
 10
19.4
 20
-28.9387041432245
 30
0.0
 11
19.16
 21
-28.5387041432245
 31
0.0
  0
LINE
  5
211
330
1F
100
AcDbEntity
  8
1
  6
Continuous
 62
     3
100
AcDbLine
 10
19.16
 20
-28.5387041432245
 30
0.0
 11
18.84
 21
-28.2387041432245
 31
0.0
  0
LINE
  5
212
330
1F
100
AcDbEntity
  8
1
  6
Continuous
 62
     3
100
AcDbLine
 10
18.84
 20
-28.2387041432245
 30
0.0
 11
18.44
 21
-28.2387041432245
 31
0.0
  0
LINE
  5
213
330
1F
100
AcDbEntity
  8
1
  6
Continuous
 62
     3
100
AcDbLine
 10
18.44
 20
-28.2387041432245
 30
0.0
 11
18.12
 21
-28.2387041432245
 31
0.0
  0
LINE
  5
214
330
1F
100
AcDbEntity
  8
1
  6
Continuous
 62
     3
100
AcDbLine
 10
18.12
 20
-28.2387041432245
 30
0.0
 11
17.96
 21
-28.4387041432245
 31
0.0
  0
LINE
  5
215
330
1F
100
AcDbEntity
  8
1
  6
Continuous
 62
     3
100
AcDbLine
 10
17.96
 20
-28.4387041432245
 30
0.0
 11
17.64
 21
-28.6387041432245
 31
0.0
  0
LINE
  5
216
330
1F
100
AcDbEntity
  8
1
  6
Continuous
 62
     3
100
AcDbLine
 10
17.64
 20
-28.6387041432245
 30
0.0
 11
17.56
 21
-29.0387041432245
 31
0.0
  0
LINE
  5
217
330
1F
100
AcDbEntity
  8
1
  6
Continuous
 62
     3
100
AcDbLine
 10
17.56
 20
-29.0387041432245
 30
0.0
 11
17.64
 21
-29.6387041432245
 31
0.0
  0
LINE
  5
218
330
1F
100
AcDbEntity
  8
1
  6
Continuous
 62
     3
100
AcDbLine
 10
17.64
 20
-29.6387041432245
 30
0.0
 11
17.88
 21
-29.8387041432245
 31
0.0
  0
LINE
  5
219
330
1F
100
AcDbEntity
  8
1
  6
Continuous
 62
     3
100
AcDbLine
 10
17.88
 20
-29.8387041432245
 30
0.0
 11
18.04
 21
-30.0387041432245
 31
0.0
  0
LINE
  5
21A
330
1F
100
AcDbEntity
  8
1
  6
Continuous
 62
     3
100
AcDbLine
 10
18.04
 20
-30.0387041432245
 30
0.0
 11
18.44
 21
-30.1387041432245
 31
0.0
  0
LINE
  5
21B
330
1F
100
AcDbEntity
  8
1
  6
Continuous
 62
     3
100
AcDbLine
 10
18.44
 20
-30.1387041432245
 30
0.0
 11
18.84
 21
-30.1387041432245
 31
0.0
  0
LINE
  5
21C
330
1F
100
AcDbEntity
  8
1
  6
Continuous
 62
     3
100
AcDbLine
 10
18.84
 20
-30.1387041432245
 30
0.0
 11
19.08
 21
-30.2387041432245
 31
0.0
  0
LINE
  5
21D
330
1F
100
AcDbEntity
  8
1
  6
Continuous
 62
     3
100
AcDbLine
 10
19.08
 20
-30.2387041432245
 30
0.0
 11
19.4
 21
-30.6387041432245
 31
0.0
  0
LINE
  5
21E
330
1F
100
AcDbEntity
  8
1
  6
Continuous
 62
     3
100
AcDbLine
 10
19.4
 20
-30.6387041432245
 30
0.0
 11
19.48
 21
-31.2387041432245
 31
0.0
  0
LINE
  5
21F
330
1F
100
AcDbEntity
  8
1
  6
Continuous
 62
     3
100
AcDbLine
 10
19.48
 20
-31.2387041432245
 30
0.0
 11
19.4
 21
-31.7387041432245
 31
0.0
  0
LINE
  5
220
330
1F
100
AcDbEntity
  8
1
  6
Continuous
 62
     3
100
AcDbLine
 10
19.4
 20
-31.7387041432245
 30
0.0
 11
19.08
 21
-32.0387041432245
 31
0.0
  0
LINE
  5
221
330
1F
100
AcDbEntity
  8
1
  6
Continuous
 62
     3
100
AcDbLine
 10
19.08
 20
-32.0387041432245
 30
0.0
 11
18.84
 21
-32.1387041432245
 31
0.0
  0
LINE
  5
222
330
1F
100
AcDbEntity
  8
1
  6
Continuous
 62
     3
100
AcDbLine
 10
18.84
 20
-32.1387041432245
 30
0.0
 11
18.44
 21
-32.1387041432245
 31
0.0
  0
LINE
  5
223
330
1F
100
AcDbEntity
  8
1
  6
Continuous
 62
     3
100
AcDbLine
 10
18.44
 20
-32.1387041432245
 30
0.0
 11
18.04
 21
-32.0387041432245
 31
0.0
  0
LINE
  5
224
330
1F
100
AcDbEntity
  8
1
  6
Continuous
 62
     3
100
AcDbLine
 10
18.04
 20
-32.0387041432245
 30
0.0
 11
17.8
 21
-31.7387041432245
 31
0.0
  0
LINE
  5
225
330
1F
100
AcDbEntity
  8
1
  6
Continuous
 62
     3
100
AcDbLine
 10
17.8
 20
-31.7387041432245
 30
0.0
 11
17.56
 21
-31.2387041432245
 31
0.0
  0
LINE
  5
226
330
1F
100
AcDbEntity
  8
1
  6
Continuous
 62
     3
100
AcDbLine
 10
21.32
 20
-30.1387041432245
 30
0.0
 11
23.0
 21
-30.1387041432245
 31
0.0
  0
LINE
  5
227
330
1F
100
AcDbEntity
  8
1
  6
Continuous
 62
     3
100
AcDbLine
 10
25.64
 20
-28.5387041432245
 30
0.0
 11
26.12
 21
-28.1387041432245
 31
0.0
  0
LINE
  5
228
330
1F
100
AcDbEntity
  8
1
  6
Continuous
 62
     3
100
AcDbLine
 10
26.12
 20
-28.1387041432245
 30
0.0
 11
26.12
 21
-32.1387041432245
 31
0.0
  0
LINE
  5
229
330
1F
100
AcDbEntity
  8
1
  6
Continuous
 62
     3
100
AcDbLine
 10
29.72
 20
-28.1387041432245
 30
0.0
 11
29.24
 21
-28.2387041432245
 31
0.0
  0
LINE
  5
22A
330
1F
100
AcDbEntity
  8
1
  6
Continuous
 62
     3
100
AcDbLine
 10
29.24
 20
-28.2387041432245
 30
0.0
 11
28.92
 21
-28.6387041432245
 31
0.0
  0
LINE
  5
22B
330
1F
100
AcDbEntity
  8
1
  6
Continuous
 62
     3
100
AcDbLine
 10
28.92
 20
-28.6387041432245
 30
0.0
 11
28.84
 21
-29.0387041432245
 31
0.0
  0
LINE
  5
22C
330
1F
100
AcDbEntity
  8
1
  6
Continuous
 62
     3
100
AcDbLine
 10
28.84
 20
-29.0387041432245
 30
0.0
 11
28.92
 21
-29.4387041432245
 31
0.0
  0
LINE
  5
22D
330
1F
100
AcDbEntity
  8
1
  6
Continuous
 62
     3
100
AcDbLine
 10
28.92
 20
-29.4387041432245
 30
0.0
 11
29.24
 21
-29.8387041432245
 31
0.0
  0
LINE
  5
22E
330
1F
100
AcDbEntity
  8
1
  6
Continuous
 62
     3
100
AcDbLine
 10
29.24
 20
-29.8387041432245
 30
0.0
 11
29.64
 21
-30.0387041432245
 31
0.0
  0
LINE
  5
22F
330
1F
100
AcDbEntity
  8
1
  6
Continuous
 62
     3
100
AcDbLine
 10
29.64
 20
-30.0387041432245
 30
0.0
 11
29.88
 21
-30.0387041432245
 31
0.0
  0
LINE
  5
230
330
1F
100
AcDbEntity
  8
1
  6
Continuous
 62
     3
100
AcDbLine
 10
29.88
 20
-30.0387041432245
 30
0.0
 11
30.28
 21
-30.1387041432245
 31
0.0
  0
LINE
  5
231
330
1F
100
AcDbEntity
  8
1
  6
Continuous
 62
     3
100
AcDbLine
 10
30.28
 20
-30.1387041432245
 30
0.0
 11
30.68
 21
-30.5387041432245
 31
0.0
  0
LINE
  5
232
330
1F
100
AcDbEntity
  8
1
  6
Continuous
 62
     3
100
AcDbLine
 10
30.68
 20
-30.5387041432245
 30
0.0
 11
30.84
 21
-31.0387041432245
 31
0.0
  0
LINE
  5
233
330
1F
100
AcDbEntity
  8
1
  6
Continuous
 62
     3
100
AcDbLine
 10
30.84
 20
-31.0387041432245
 30
0.0
 11
30.68
 21
-31.7387041432245
 31
0.0
  0
LINE
  5
234
330
1F
100
AcDbEntity
  8
1
  6
Continuous
 62
     3
100
AcDbLine
 10
30.68
 20
-31.7387041432245
 30
0.0
 11
30.28
 21
-32.0387041432245
 31
0.0
  0
LINE
  5
235
330
1F
100
AcDbEntity
  8
1
  6
Continuous
 62
     3
100
AcDbLine
 10
30.28
 20
-32.0387041432245
 30
0.0
 11
29.72
 21
-32.1387041432245
 31
0.0
  0
LINE
  5
236
330
1F
100
AcDbEntity
  8
1
  6
Continuous
 62
     3
100
AcDbLine
 10
29.72
 20
-32.1387041432245
 30
0.0
 11
29.16
 21
-32.0387041432245
 31
0.0
  0
LINE
  5
237
330
1F
100
AcDbEntity
  8
1
  6
Continuous
 62
     3
100
AcDbLine
 10
29.16
 20
-32.0387041432245
 30
0.0
 11
28.84
 21
-31.7387041432245
 31
0.0
  0
LINE
  5
238
330
1F
100
AcDbEntity
  8
1
  6
Continuous
 62
     3
100
AcDbLine
 10
28.84
 20
-31.7387041432245
 30
0.0
 11
28.68
 21
-31.0387041432245
 31
0.0
  0
LINE
  5
239
330
1F
100
AcDbEntity
  8
1
  6
Continuous
 62
     3
100
AcDbLine
 10
28.68
 20
-31.0387041432245
 30
0.0
 11
28.76
 21
-30.5387041432245
 31
0.0
  0
LINE
  5
23A
330
1F
100
AcDbEntity
  8
1
  6
Continuous
 62
     3
100
AcDbLine
 10
28.76
 20
-30.5387041432245
 30
0.0
 11
29.08
 21
-30.2387041432245
 31
0.0
  0
LINE
  5
23B
330
1F
100
AcDbEntity
  8
1
  6
Continuous
 62
     3
100
AcDbLine
 10
29.08
 20
-30.2387041432245
 30
0.0
 11
29.24
 21
-30.1387041432245
 31
0.0
  0
LINE
  5
23C
330
1F
100
AcDbEntity
  8
1
  6
Continuous
 62
     3
100
AcDbLine
 10
29.24
 20
-30.1387041432245
 30
0.0
 11
29.64
 21
-30.0387041432245
 31
0.0
  0
LINE
  5
23D
330
1F
100
AcDbEntity
  8
1
  6
Continuous
 62
     3
100
AcDbLine
 10
29.64
 20
-30.0387041432245
 30
0.0
 11
29.88
 21
-30.0387041432245
 31
0.0
  0
LINE
  5
23E
330
1F
100
AcDbEntity
  8
1
  6
Continuous
 62
     3
100
AcDbLine
 10
29.88
 20
-30.0387041432245
 30
0.0
 11
30.28
 21
-29.8387041432245
 31
0.0
  0
LINE
  5
23F
330
1F
100
AcDbEntity
  8
1
  6
Continuous
 62
     3
100
AcDbLine
 10
30.28
 20
-29.8387041432245
 30
0.0
 11
30.52
 21
-29.4387041432245
 31
0.0
  0
LINE
  5
240
330
1F
100
AcDbEntity
  8
1
  6
Continuous
 62
     3
100
AcDbLine
 10
30.52
 20
-29.4387041432245
 30
0.0
 11
30.68
 21
-29.0387041432245
 31
0.0
  0
LINE
  5
241
330
1F
100
AcDbEntity
  8
1
  6
Continuous
 62
     3
100
AcDbLine
 10
30.68
 20
-29.0387041432245
 30
0.0
 11
30.52
 21
-28.6387041432245
 31
0.0
  0
LINE
  5
242
330
1F
100
AcDbEntity
  8
1
  6
Continuous
 62
     3
100
AcDbLine
 10
30.52
 20
-28.6387041432245
 30
0.0
 11
30.44
 21
-28.4387041432245
 31
0.0
  0
LINE
  5
243
330
1F
100
AcDbEntity
  8
1
  6
Continuous
 62
     3
100
AcDbLine
 10
30.44
 20
-28.4387041432245
 30
0.0
 11
30.2
 21
-28.2387041432245
 31
0.0
  0
LINE
  5
244
330
1F
100
AcDbEntity
  8
1
  6
Continuous
 62
     3
100
AcDbLine
 10
30.2
 20
-28.2387041432245
 30
0.0
 11
29.72
 21
-28.1387041432245
 31
0.0
  0
LINE
  5
245
330
1F
100
AcDbEntity
  8
1
  6
Continuous
 62
     3
100
AcDbLine
 10
32.6
 20
-28.9387041432245
 30
0.0
 11
33.0
 21
-28.4387041432245
 31
0.0
  0
LINE
  5
246
330
1F
100
AcDbEntity
  8
1
  6
Continuous
 62
     3
100
AcDbLine
 10
33.0
 20
-28.4387041432245
 30
0.0
 11
33.56
 21
-28.1387041432245
 31
0.0
  0
LINE
  5
247
330
1F
100
AcDbEntity
  8
1
  6
Continuous
 62
     3
100
AcDbLine
 10
33.56
 20
-28.1387041432245
 30
0.0
 11
34.12
 21
-28.4387041432245
 31
0.0
  0
LINE
  5
248
330
1F
100
AcDbEntity
  8
1
  6
Continuous
 62
     3
100
AcDbLine
 10
34.12
 20
-28.4387041432245
 30
0.0
 11
34.52
 21
-28.9387041432245
 31
0.0
  0
LINE
  5
249
330
1F
100
AcDbEntity
  8
1
  6
Continuous
 62
     3
100
AcDbLine
 10
34.52
 20
-28.9387041432245
 30
0.0
 11
34.44
 21
-29.4387041432245
 31
0.0
  0
LINE
  5
24A
330
1F
100
AcDbEntity
  8
1
  6
Continuous
 62
     3
100
AcDbLine
 10
34.44
 20
-29.4387041432245
 30
0.0
 11
34.12
 21
-30.0387041432245
 31
0.0
  0
LINE
  5
24B
330
1F
100
AcDbEntity
  8
1
  6
Continuous
 62
     3
100
AcDbLine
 10
34.12
 20
-30.0387041432245
 30
0.0
 11
33.64
 21
-30.4387041432245
 31
0.0
  0
LINE
  5
24C
330
1F
100
AcDbEntity
  8
1
  6
Continuous
 62
     3
100
AcDbLine
 10
33.64
 20
-30.4387041432245
 30
0.0
 11
33.24
 21
-30.6387041432245
 31
0.0
  0
LINE
  5
24D
330
1F
100
AcDbEntity
  8
1
  6
Continuous
 62
     3
100
AcDbLine
 10
33.24
 20
-30.6387041432245
 30
0.0
 11
32.92
 21
-31.0387041432245
 31
0.0
  0
LINE
  5
24E
330
1F
100
AcDbEntity
  8
1
  6
Continuous
 62
     3
100
AcDbLine
 10
32.92
 20
-31.0387041432245
 30
0.0
 11
32.68
 21
-31.4387041432245
 31
0.0
  0
LINE
  5
24F
330
1F
100
AcDbEntity
  8
1
  6
Continuous
 62
     3
100
AcDbLine
 10
32.68
 20
-31.4387041432245
 30
0.0
 11
32.52
 21
-32.1387041432245
 31
0.0
  0
LINE
  5
250
330
1F
100
AcDbEntity
  8
1
  6
Continuous
 62
     3
100
AcDbLine
 10
32.52
 20
-32.1387041432245
 30
0.0
 11
34.6
 21
-32.1387041432245
 31
0.0
  0
LINE
  5
251
330
1F
100
AcDbEntity
  8
1
  6
Continuous
 62
     3
100
AcDbLine
 10
36.36
 20
-30.1387041432245
 30
0.0
 11
38.04
 21
-30.1387041432245
 31
0.0
  0
LINE
  5
252
330
1F
100
AcDbEntity
  8
1
  6
Continuous
 62
     3
100
AcDbLine
 10
40.68
 20
-28.5387041432245
 30
0.0
 11
41.16
 21
-28.1387041432245
 31
0.0
  0
LINE
  5
253
330
1F
100
AcDbEntity
  8
1
  6
Continuous
 62
     3
100
AcDbLine
 10
41.16
 20
-28.1387041432245
 30
0.0
 11
41.16
 21
-32.1387041432245
 31
0.0
  0
LINE
  5
254
330
1F
100
AcDbEntity
  8
1
  6
Continuous
 62
     3
100
AcDbLine
 10
45.56
 20
-28.1387041432245
 30
0.0
 11
43.96
 21
-28.1387041432245
 31
0.0
  0
LINE
  5
255
330
1F
100
AcDbEntity
  8
1
  6
Continuous
 62
     3
100
AcDbLine
 10
43.96
 20
-28.1387041432245
 30
0.0
 11
43.88
 21
-30.1387041432245
 31
0.0
  0
LINE
  5
256
330
1F
100
AcDbEntity
  8
1
  6
Continuous
 62
     3
100
AcDbLine
 10
43.88
 20
-30.1387041432245
 30
0.0
 11
44.36
 21
-29.7387041432245
 31
0.0
  0
LINE
  5
257
330
1F
100
AcDbEntity
  8
1
  6
Continuous
 62
     3
100
AcDbLine
 10
44.36
 20
-29.7387041432245
 30
0.0
 11
44.76
 21
-29.6387041432245
 31
0.0
  0
LINE
  5
258
330
1F
100
AcDbEntity
  8
1
  6
Continuous
 62
     3
100
AcDbLine
 10
44.76
 20
-29.6387041432245
 30
0.0
 11
45.16
 21
-29.7387041432245
 31
0.0
  0
LINE
  5
259
330
1F
100
AcDbEntity
  8
1
  6
Continuous
 62
     3
100
AcDbLine
 10
45.16
 20
-29.7387041432245
 30
0.0
 11
45.4
 21
-30.0387041432245
 31
0.0
  0
LINE
  5
25A
330
1F
100
AcDbEntity
  8
1
  6
Continuous
 62
     3
100
AcDbLine
 10
45.4
 20
-30.0387041432245
 30
0.0
 11
45.56
 21
-30.2387041432245
 31
0.0
  0
LINE
  5
25B
330
1F
100
AcDbEntity
  8
1
  6
Continuous
 62
     3
100
AcDbLine
 10
45.56
 20
-30.2387041432245
 30
0.0
 11
45.72
 21
-30.9387041432245
 31
0.0
  0
LINE
  5
25C
330
1F
100
AcDbEntity
  8
1
  6
Continuous
 62
     3
100
AcDbLine
 10
45.72
 20
-30.9387041432245
 30
0.0
 11
45.56
 21
-31.6387041432245
 31
0.0
  0
LINE
  5
25D
330
1F
100
AcDbEntity
  8
1
  6
Continuous
 62
     3
100
AcDbLine
 10
45.56
 20
-31.6387041432245
 30
0.0
 11
45.4
 21
-31.8387041432245
 31
0.0
  0
LINE
  5
25E
330
1F
100
AcDbEntity
  8
1
  6
Continuous
 62
     3
100
AcDbLine
 10
45.4
 20
-31.8387041432245
 30
0.0
 11
45.16
 21
-32.1387041432245
 31
0.0
  0
LINE
  5
25F
330
1F
100
AcDbEntity
  8
1
  6
Continuous
 62
     3
100
AcDbLine
 10
45.16
 20
-32.1387041432245
 30
0.0
 11
44.84
 21
-32.1387041432245
 31
0.0
  0
LINE
  5
260
330
1F
100
AcDbEntity
  8
1
  6
Continuous
 62
     3
100
AcDbLine
 10
44.84
 20
-32.1387041432245
 30
0.0
 11
44.44
 21
-32.1387041432245
 31
0.0
  0
LINE
  5
261
330
1F
100
AcDbEntity
  8
1
  6
Continuous
 62
     3
100
AcDbLine
 10
44.44
 20
-32.1387041432245
 30
0.0
 11
44.12
 21
-31.8387041432245
 31
0.0
  0
LINE
  5
262
330
1F
100
AcDbEntity
  8
1
  6
Continuous
 62
     3
100
AcDbLine
 10
44.12
 20
-31.8387041432245
 30
0.0
 11
43.8
 21
-31.6387041432245
 31
0.0
  0
LINE
  5
263
330
1F
100
AcDbEntity
  8
1
  6
Continuous
 62
     3
100
AcDbLine
 10
19.9999999999878
 20
17.0000000000124
 30
0.0
 11
19.9999999999878
 21
-16.9999999999876
 31
0.0
  0
LINE
  5
264
330
1F
100
AcDbEntity
  8
1
  6
Continuous
 62
     3
100
AcDbLine
 10
46.8385032905346
 20
66.0000000000124
 30
0.0
 11
47.4685032905346
 21
66.0000000000124
 31
0.0
  0
LINE
  5
265
330
1F
100
AcDbEntity
  8
1
  6
Continuous
 62
     3
100
AcDbLine
 10
46.8385032905346
 20
67.5000000000124
 30
0.0
 11
47.4685032905346
 21
68.4375000000124
 31
0.0
  0
LINE
  5
266
330
1F
100
AcDbEntity
  8
1
  6
Continuous
 62
     3
100
AcDbLine
 10
47.4685032905346
 20
68.4375000000124
 30
0.0
 11
47.4685032905346
 21
66.0000000000124
 31
0.0
  0
LINE
  5
267
330
1F
100
AcDbEntity
  8
1
  6
Continuous
 62
     3
100
AcDbLine
 10
47.4685032905346
 20
66.0000000000124
 30
0.0
 11
47.9725032905346
 21
66.0000000000124
 31
0.0
  0
LINE
  5
268
330
1F
100
AcDbEntity
  8
1
  6
Continuous
 62
     3
100
AcDbLine
 10
48.6655032905346
 20
66.0000000000124
 30
0.0
 11
50.9020032905346
 21
69.0000000000124
 31
0.0
  0
LINE
  5
269
330
1F
100
AcDbEntity
  8
1
  6
Continuous
 62
     3
100
AcDbLine
 10
51.46900329053459
 20
67.9875000000124
 30
0.0
 11
51.5320032905346
 21
68.1750000000124
 31
0.0
  0
LINE
  5
26A
330
1F
100
AcDbEntity
  8
1
  6
Continuous
 62
     3
100
AcDbLine
 10
51.5320032905346
 20
68.1750000000124
 30
0.0
 11
51.8155032905346
 21
68.3625000000124
 31
0.0
  0
LINE
  5
26B
330
1F
100
AcDbEntity
  8
1
  6
Continuous
 62
     3
100
AcDbLine
 10
51.8155032905346
 20
68.3625000000124
 30
0.0
 11
52.0990032905346
 21
68.4375000000124
 31
0.0
  0
LINE
  5
26C
330
1F
100
AcDbEntity
  8
1
  6
Continuous
 62
     3
100
AcDbLine
 10
52.0990032905346
 20
68.4375000000124
 30
0.0
 11
52.5715032905346
 21
68.4375000000124
 31
0.0
  0
LINE
  5
26D
330
1F
100
AcDbEntity
  8
1
  6
Continuous
 62
     3
100
AcDbLine
 10
52.5715032905346
 20
68.4375000000124
 30
0.0
 11
52.8550032905346
 21
68.3625000000124
 31
0.0
  0
LINE
  5
26E
330
1F
100
AcDbEntity
  8
1
  6
Continuous
 62
     3
100
AcDbLine
 10
52.8550032905346
 20
68.3625000000124
 30
0.0
 11
53.1385032905346
 21
68.1750000000124
 31
0.0
  0
LINE
  5
26F
330
1F
100
AcDbEntity
  8
1
  6
Continuous
 62
     3
100
AcDbLine
 10
53.1385032905346
 20
68.1750000000124
 30
0.0
 11
53.2015032905346
 21
67.9875000000124
 31
0.0
  0
LINE
  5
270
330
1F
100
AcDbEntity
  8
1
  6
Continuous
 62
     3
100
AcDbLine
 10
53.2015032905346
 20
67.9875000000124
 30
0.0
 11
53.2015032905346
 21
67.5000000000124
 31
0.0
  0
LINE
  5
271
330
1F
100
AcDbEntity
  8
1
  6
Continuous
 62
     3
100
AcDbLine
 10
53.2015032905346
 20
67.5000000000124
 30
0.0
 11
53.1385032905346
 21
67.3125000000124
 31
0.0
  0
LINE
  5
272
330
1F
100
AcDbEntity
  8
1
  6
Continuous
 62
     3
100
AcDbLine
 10
53.1385032905346
 20
67.3125000000124
 30
0.0
 11
52.8550032905346
 21
67.1250000000124
 31
0.0
  0
LINE
  5
273
330
1F
100
AcDbEntity
  8
1
  6
Continuous
 62
     3
100
AcDbLine
 10
52.8550032905346
 20
67.1250000000124
 30
0.0
 11
51.7525032905346
 21
66.9375000000124
 31
0.0
  0
LINE
  5
274
330
1F
100
AcDbEntity
  8
1
  6
Continuous
 62
     3
100
AcDbLine
 10
51.7525032905346
 20
66.9375000000124
 30
0.0
 11
51.5320032905346
 21
66.7500000000124
 31
0.0
  0
LINE
  5
275
330
1F
100
AcDbEntity
  8
1
  6
Continuous
 62
     3
100
AcDbLine
 10
51.5320032905346
 20
66.7500000000124
 30
0.0
 11
51.46900329053459
 21
66.5625000000124
 31
0.0
  0
LINE
  5
276
330
1F
100
AcDbEntity
  8
1
  6
Continuous
 62
     3
100
AcDbLine
 10
51.46900329053459
 20
66.5625000000124
 30
0.0
 11
51.4060032905346
 21
66.0000000000124
 31
0.0
  0
LINE
  5
277
330
1F
100
AcDbEntity
  8
1
  6
Continuous
 62
     3
100
AcDbLine
 10
51.4060032905346
 20
66.0000000000124
 30
0.0
 11
53.2015032905346
 21
66.0000000000124
 31
0.0
  0
LINE
  5
278
330
1F
100
AcDbEntity
  8
1
  6
Continuous
 62
     3
100
AcDbLine
 10
53.7055032905346
 20
67.0500000000124
 30
0.0
 11
54.9655032905346
 21
67.0500000000124
 31
0.0
  0
LINE
  5
279
330
1F
100
AcDbEntity
  8
1
  6
Continuous
 62
     3
100
AcDbLine
 10
56.0050032905346
 20
68.1750000000124
 30
0.0
 11
56.2255032905346
 21
68.3625000000124
 31
0.0
  0
LINE
  5
27A
330
1F
100
AcDbEntity
  8
1
  6
Continuous
 62
     3
100
AcDbLine
 10
56.2255032905346
 20
68.3625000000124
 30
0.0
 11
56.4145032905346
 21
68.4375000000124
 31
0.0
  0
LINE
  5
27B
330
1F
100
AcDbEntity
  8
1
  6
Continuous
 62
     3
100
AcDbLine
 10
56.4145032905346
 20
68.4375000000124
 30
0.0
 11
57.2020032905346
 21
68.4375000000124
 31
0.0
  0
LINE
  5
27C
330
1F
100
AcDbEntity
  8
1
  6
Continuous
 62
     3
100
AcDbLine
 10
57.2020032905346
 20
68.4375000000124
 30
0.0
 11
57.4855032905346
 21
68.3625000000124
 31
0.0
  0
LINE
  5
27D
330
1F
100
AcDbEntity
  8
1
  6
Continuous
 62
     3
100
AcDbLine
 10
57.4855032905346
 20
68.3625000000124
 30
0.0
 11
57.6115032905346
 21
68.2500000000124
 31
0.0
  0
LINE
  5
27E
330
1F
100
AcDbEntity
  8
1
  6
Continuous
 62
     3
100
AcDbLine
 10
57.6115032905346
 20
68.2500000000124
 30
0.0
 11
57.6745032905346
 21
67.9875000000124
 31
0.0
  0
LINE
  5
27F
330
1F
100
AcDbEntity
  8
1
  6
Continuous
 62
     3
100
AcDbLine
 10
57.6745032905346
 20
67.9875000000124
 30
0.0
 11
57.6745032905346
 21
67.8000000000124
 31
0.0
  0
LINE
  5
280
330
1F
100
AcDbEntity
  8
1
  6
Continuous
 62
     3
100
AcDbLine
 10
57.6745032905346
 20
67.8000000000124
 30
0.0
 11
57.6115032905346
 21
67.5000000000124
 31
0.0
  0
LINE
  5
281
330
1F
100
AcDbEntity
  8
1
  6
Continuous
 62
     3
100
AcDbLine
 10
57.6115032905346
 20
67.5000000000124
 30
0.0
 11
57.4855032905346
 21
67.4250000000124
 31
0.0
  0
LINE
  5
282
330
1F
100
AcDbEntity
  8
1
  6
Continuous
 62
     3
100
AcDbLine
 10
57.4855032905346
 20
67.4250000000124
 30
0.0
 11
57.2020032905346
 21
67.3125000000124
 31
0.0
  0
LINE
  5
283
330
1F
100
AcDbEntity
  8
1
  6
Continuous
 62
     3
100
AcDbLine
 10
56.5720032905346
 20
67.3125000000124
 30
0.0
 11
57.2020032905346
 21
67.3125000000124
 31
0.0
  0
LINE
  5
284
330
1F
100
AcDbEntity
  8
1
  6
Continuous
 62
     3
100
AcDbLine
 10
57.2020032905346
 20
67.3125000000124
 30
0.0
 11
57.5485032905346
 21
67.2375000000124
 31
0.0
  0
LINE
  5
285
330
1F
100
AcDbEntity
  8
1
  6
Continuous
 62
     3
100
AcDbLine
 10
57.5485032905346
 20
67.2375000000124
 30
0.0
 11
57.6745032905346
 21
67.0500000000124
 31
0.0
  0
LINE
  5
286
330
1F
100
AcDbEntity
  8
1
  6
Continuous
 62
     3
100
AcDbLine
 10
57.6745032905346
 20
67.0500000000124
 30
0.0
 11
57.7375032905346
 21
66.8625000000124
 31
0.0
  0
LINE
  5
287
330
1F
100
AcDbEntity
  8
1
  6
Continuous
 62
     3
100
AcDbLine
 10
57.7375032905346
 20
66.8625000000124
 30
0.0
 11
57.7375032905346
 21
66.4875000000124
 31
0.0
  0
LINE
  5
288
330
1F
100
AcDbEntity
  8
1
  6
Continuous
 62
     3
100
AcDbLine
 10
57.7375032905346
 20
66.4875000000124
 30
0.0
 11
57.6745032905346
 21
66.1875000000124
 31
0.0
  0
LINE
  5
289
330
1F
100
AcDbEntity
  8
1
  6
Continuous
 62
     3
100
AcDbLine
 10
57.6745032905346
 20
66.1875000000124
 30
0.0
 11
57.5485032905346
 21
66.1125000000124
 31
0.0
  0
LINE
  5
28A
330
1F
100
AcDbEntity
  8
1
  6
Continuous
 62
     3
100
AcDbLine
 10
57.5485032905346
 20
66.1125000000124
 30
0.0
 11
57.2020032905346
 21
66.0000000000124
 31
0.0
  0
LINE
  5
28B
330
1F
100
AcDbEntity
  8
1
  6
Continuous
 62
     3
100
AcDbLine
 10
57.2020032905346
 20
66.0000000000124
 30
0.0
 11
56.5720032905346
 21
66.0000000000124
 31
0.0
  0
LINE
  5
28C
330
1F
100
AcDbEntity
  8
1
  6
Continuous
 62
     3
100
AcDbLine
 10
56.5720032905346
 20
66.0000000000124
 30
0.0
 11
56.1310032905346
 21
66.1125000000124
 31
0.0
  0
LINE
  5
28D
330
1F
100
AcDbEntity
  8
1
  6
Continuous
 62
     3
100
AcDbLine
 10
56.1310032905346
 20
66.1125000000124
 30
0.0
 11
55.9420032905346
 21
66.3000000000124
 31
0.0
  0
LINE
  5
28E
330
1F
100
AcDbEntity
  8
1
  6
Continuous
 62
     3
100
AcDbLine
 10
59.15500329053459
 20
66.0000000000124
 30
0.0
 11
58.8715032905346
 21
66.1125000000124
 31
0.0
  0
LINE
  5
28F
330
1F
100
AcDbEntity
  8
1
  6
Continuous
 62
     3
100
AcDbLine
 10
58.8715032905346
 20
66.1125000000124
 30
0.0
 11
58.6510032905346
 21
66.3000000000124
 31
0.0
  0
LINE
  5
290
330
1F
100
AcDbEntity
  8
1
  6
Continuous
 62
     3
100
AcDbLine
 10
58.6510032905346
 20
66.3000000000124
 30
0.0
 11
58.52500329053459
 21
66.5625000000124
 31
0.0
  0
LINE
  5
291
330
1F
100
AcDbEntity
  8
1
  6
Continuous
 62
     3
100
AcDbLine
 10
58.52500329053459
 20
66.5625000000124
 30
0.0
 11
58.4620032905346
 21
66.9375000000124
 31
0.0
  0
LINE
  5
292
330
1F
100
AcDbEntity
  8
1
  6
Continuous
 62
     3
100
AcDbLine
 10
58.4620032905346
 20
66.9375000000124
 30
0.0
 11
58.4620032905346
 21
67.5000000000124
 31
0.0
  0
LINE
  5
293
330
1F
100
AcDbEntity
  8
1
  6
Continuous
 62
     3
100
AcDbLine
 10
58.4620032905346
 20
67.5000000000124
 30
0.0
 11
58.52500329053459
 21
67.8750000000124
 31
0.0
  0
LINE
  5
294
330
1F
100
AcDbEntity
  8
1
  6
Continuous
 62
     3
100
AcDbLine
 10
58.52500329053459
 20
67.8750000000124
 30
0.0
 11
58.6510032905346
 21
68.1750000000124
 31
0.0
  0
LINE
  5
295
330
1F
100
AcDbEntity
  8
1
  6
Continuous
 62
     3
100
AcDbLine
 10
58.6510032905346
 20
68.1750000000124
 30
0.0
 11
58.8715032905346
 21
68.3625000000124
 31
0.0
  0
LINE
  5
296
330
1F
100
AcDbEntity
  8
1
  6
Continuous
 62
     3
100
AcDbLine
 10
58.8715032905346
 20
68.3625000000124
 30
0.0
 11
59.15500329053459
 21
68.4375000000124
 31
0.0
  0
LINE
  5
297
330
1F
100
AcDbEntity
  8
1
  6
Continuous
 62
     3
100
AcDbLine
 10
59.15500329053459
 20
68.4375000000124
 30
0.0
 11
59.4385032905346
 21
68.4375000000124
 31
0.0
  0
LINE
  5
298
330
1F
100
AcDbEntity
  8
1
  6
Continuous
 62
     3
100
AcDbLine
 10
59.4385032905346
 20
68.4375000000124
 30
0.0
 11
59.7220032905346
 21
68.3625000000124
 31
0.0
  0
LINE
  5
299
330
1F
100
AcDbEntity
  8
1
  6
Continuous
 62
     3
100
AcDbLine
 10
59.7220032905346
 20
68.3625000000124
 30
0.0
 11
59.9110032905346
 21
68.1750000000124
 31
0.0
  0
LINE
  5
29A
330
1F
100
AcDbEntity
  8
1
  6
Continuous
 62
     3
100
AcDbLine
 10
59.9110032905346
 20
68.1750000000124
 30
0.0
 11
60.06850329053459
 21
67.8750000000124
 31
0.0
  0
LINE
  5
29B
330
1F
100
AcDbEntity
  8
1
  6
Continuous
 62
     3
100
AcDbLine
 10
60.06850329053459
 20
67.8750000000124
 30
0.0
 11
60.1315032905346
 21
67.5000000000124
 31
0.0
  0
LINE
  5
29C
330
1F
100
AcDbEntity
  8
1
  6
Continuous
 62
     3
100
AcDbLine
 10
60.1315032905346
 20
67.5000000000124
 30
0.0
 11
60.1315032905346
 21
66.9375000000124
 31
0.0
  0
LINE
  5
29D
330
1F
100
AcDbEntity
  8
1
  6
Continuous
 62
     3
100
AcDbLine
 10
60.1315032905346
 20
66.9375000000124
 30
0.0
 11
60.06850329053459
 21
66.5625000000124
 31
0.0
  0
LINE
  5
29E
330
1F
100
AcDbEntity
  8
1
  6
Continuous
 62
     3
100
AcDbLine
 10
60.06850329053459
 20
66.5625000000124
 30
0.0
 11
59.9110032905346
 21
66.3000000000124
 31
0.0
  0
LINE
  5
29F
330
1F
100
AcDbEntity
  8
1
  6
Continuous
 62
     3
100
AcDbLine
 10
59.9110032905346
 20
66.3000000000124
 30
0.0
 11
59.7220032905346
 21
66.1125000000124
 31
0.0
  0
LINE
  5
2A0
330
1F
100
AcDbEntity
  8
1
  6
Continuous
 62
     3
100
AcDbLine
 10
59.7220032905346
 20
66.1125000000124
 30
0.0
 11
59.4385032905346
 21
66.0000000000124
 31
0.0
  0
LINE
  5
2A1
330
1F
100
AcDbEntity
  8
1
  6
Continuous
 62
     3
100
AcDbLine
 10
59.4385032905346
 20
66.0000000000124
 30
0.0
 11
59.15500329053459
 21
66.0000000000124
 31
0.0
  0
LINE
  5
2A2
330
1F
100
AcDbEntity
  8
1
  6
Continuous
 62
     3
100
AcDbLine
 10
61.6750032905346
 20
66.0000000000124
 30
0.0
 11
61.3915032905346
 21
66.1125000000124
 31
0.0
  0
LINE
  5
2A3
330
1F
100
AcDbEntity
  8
1
  6
Continuous
 62
     3
100
AcDbLine
 10
61.3915032905346
 20
66.1125000000124
 30
0.0
 11
61.1710032905346
 21
66.3000000000124
 31
0.0
  0
LINE
  5
2A4
330
1F
100
AcDbEntity
  8
1
  6
Continuous
 62
     3
100
AcDbLine
 10
61.1710032905346
 20
66.3000000000124
 30
0.0
 11
61.0450032905346
 21
66.5625000000124
 31
0.0
  0
LINE
  5
2A5
330
1F
100
AcDbEntity
  8
1
  6
Continuous
 62
     3
100
AcDbLine
 10
61.0450032905346
 20
66.5625000000124
 30
0.0
 11
60.9820032905346
 21
66.9375000000124
 31
0.0
  0
LINE
  5
2A6
330
1F
100
AcDbEntity
  8
1
  6
Continuous
 62
     3
100
AcDbLine
 10
60.9820032905346
 20
66.9375000000124
 30
0.0
 11
60.9820032905346
 21
67.5000000000124
 31
0.0
  0
LINE
  5
2A7
330
1F
100
AcDbEntity
  8
1
  6
Continuous
 62
     3
100
AcDbLine
 10
60.9820032905346
 20
67.5000000000124
 30
0.0
 11
61.0450032905346
 21
67.8750000000124
 31
0.0
  0
LINE
  5
2A8
330
1F
100
AcDbEntity
  8
1
  6
Continuous
 62
     3
100
AcDbLine
 10
61.0450032905346
 20
67.8750000000124
 30
0.0
 11
61.1710032905346
 21
68.1750000000124
 31
0.0
  0
LINE
  5
2A9
330
1F
100
AcDbEntity
  8
1
  6
Continuous
 62
     3
100
AcDbLine
 10
61.1710032905346
 20
68.1750000000124
 30
0.0
 11
61.3915032905346
 21
68.3625000000124
 31
0.0
  0
LINE
  5
2AA
330
1F
100
AcDbEntity
  8
1
  6
Continuous
 62
     3
100
AcDbLine
 10
61.3915032905346
 20
68.3625000000124
 30
0.0
 11
61.6750032905346
 21
68.4375000000124
 31
0.0
  0
LINE
  5
2AB
330
1F
100
AcDbEntity
  8
1
  6
Continuous
 62
     3
100
AcDbLine
 10
61.6750032905346
 20
68.4375000000124
 30
0.0
 11
61.9585032905346
 21
68.4375000000124
 31
0.0
  0
LINE
  5
2AC
330
1F
100
AcDbEntity
  8
1
  6
Continuous
 62
     3
100
AcDbLine
 10
61.9585032905346
 20
68.4375000000124
 30
0.0
 11
62.2420032905346
 21
68.3625000000124
 31
0.0
  0
LINE
  5
2AD
330
1F
100
AcDbEntity
  8
1
  6
Continuous
 62
     3
100
AcDbLine
 10
62.2420032905346
 20
68.3625000000124
 30
0.0
 11
62.4310032905346
 21
68.1750000000124
 31
0.0
  0
LINE
  5
2AE
330
1F
100
AcDbEntity
  8
1
  6
Continuous
 62
     3
100
AcDbLine
 10
62.4310032905346
 20
68.1750000000124
 30
0.0
 11
62.5885032905346
 21
67.8750000000124
 31
0.0
  0
LINE
  5
2AF
330
1F
100
AcDbEntity
  8
1
  6
Continuous
 62
     3
100
AcDbLine
 10
62.5885032905346
 20
67.8750000000124
 30
0.0
 11
62.6515032905346
 21
67.5000000000124
 31
0.0
  0
LINE
  5
2B0
330
1F
100
AcDbEntity
  8
1
  6
Continuous
 62
     3
100
AcDbLine
 10
62.6515032905346
 20
67.5000000000124
 30
0.0
 11
62.6515032905346
 21
66.9375000000124
 31
0.0
  0
LINE
  5
2B1
330
1F
100
AcDbEntity
  8
1
  6
Continuous
 62
     3
100
AcDbLine
 10
62.6515032905346
 20
66.9375000000124
 30
0.0
 11
62.5885032905346
 21
66.5625000000124
 31
0.0
  0
LINE
  5
2B2
330
1F
100
AcDbEntity
  8
1
  6
Continuous
 62
     3
100
AcDbLine
 10
62.5885032905346
 20
66.5625000000124
 30
0.0
 11
62.4310032905346
 21
66.3000000000124
 31
0.0
  0
LINE
  5
2B3
330
1F
100
AcDbEntity
  8
1
  6
Continuous
 62
     3
100
AcDbLine
 10
62.4310032905346
 20
66.3000000000124
 30
0.0
 11
62.2420032905346
 21
66.1125000000124
 31
0.0
  0
LINE
  5
2B4
330
1F
100
AcDbEntity
  8
1
  6
Continuous
 62
     3
100
AcDbLine
 10
62.2420032905346
 20
66.1125000000124
 30
0.0
 11
61.9585032905346
 21
66.0000000000124
 31
0.0
  0
LINE
  5
2B5
330
1F
100
AcDbEntity
  8
1
  6
Continuous
 62
     3
100
AcDbLine
 10
61.9585032905346
 20
66.0000000000124
 30
0.0
 11
61.6750032905346
 21
66.0000000000124
 31
0.0
  0
LINE
  5
2B6
330
1F
100
AcDbEntity
  8
1
  6
Continuous
 62
     3
100
AcDbLine
 10
-7.70000000001218
 20
25.6000000000124
 30
0.0
 11
-13.5000000000122
 21
25.6000000000124
 31
0.0
  0
LINE
  5
2B7
330
1F
100
AcDbEntity
  8
1
  6
Continuous
 62
     3
100
AcDbLine
 10
7.19999999998782
 20
25.6000000000124
 30
0.0
 11
-7.20000000001218
 21
25.6000000000124
 31
0.0
  0
LINE
  5
2B8
330
1F
100
AcDbEntity
  8
1
  6
Continuous
 62
     3
100
AcDbLine
 10
-59.3000000000122
 20
25.6000000000124
 30
0.0
 11
-56.5000000000122
 21
25.6000000000124
 31
0.0
  0
LINE
  5
2B9
330
1F
100
AcDbEntity
  8
1
  6
Continuous
 62
     3
100
AcDbLine
 10
-73.7000000000122
 20
25.6000000000124
 30
0.0
 11
-63.5000000000122
 21
25.6000000000124
 31
0.0
  0
LINE
  5
2BA
330
1F
100
AcDbEntity
  8
1
  6
Continuous
 62
     3
100
AcDbLine
 10
20.9999999999878
 20
-17.9999999999876
 30
0.0
 11
20.9999999999878
 21
18.0000000000124
 31
0.0
  0
LINE
  5
2BB
330
1F
100
AcDbEntity
  8
1
  6
Continuous
 62
     3
100
AcDbLine
 10
18.9999999999878
 20
18.0000000000124
 30
0.0
 11
18.9999999999878
 21
-17.9999999999876
 31
0.0
  0
ARC
  5
2BC
330
1F
100
AcDbEntity
  8
1
  6
Continuous
 62
     3
100
AcDbCircle
 10
-13.5000000000122
 20
25.1000000000124
 30
0.0
 40
0.5
100
AcDbArc
 50
90.0
 51
180.0
  0
ARC
  5
2BD
330
1F
100
AcDbEntity
  8
1
  6
Continuous
 62
     3
100
AcDbCircle
 10
-12.6642135623853
 20
15.7500000000124
 30
0.0
 40
1.0
100
AcDbArc
 50
270.0
 51
314.9999999999999
  0
ARC
  5
2BE
330
1F
100
AcDbEntity
  8
1
  6
Continuous
 62
     3
100
AcDbCircle
 10
-10.0000000000122
 20
14.2640845598938
 30
0.0
 40
1.0
100
AcDbArc
 50
180.0
 51
254.7657733468117
  0
ARC
  5
2BF
330
1F
100
AcDbEntity
  8
1
  6
Continuous
 62
     3
100
AcDbCircle
 10
-4.00000000001217
 20
10.577350269202
 30
0.0
 40
1.0
100
AcDbArc
 50
180.0
 51
239.9999999999992
  0
ARC
  5
2C0
330
1F
100
AcDbEntity
  8
1
  6
Continuous
 62
     3
100
AcDbCircle
 10
3.99999999998784
 20
10.577350269202
 30
0.0
 40
0.9999999999999759
100
AcDbArc
 50
300.0000000000008
 51
0.0
  0
ARC
  5
2C1
330
1F
100
AcDbEntity
  8
1
  6
Continuous
 62
     3
100
AcDbCircle
 10
21.9999999999878
 20
17.0000000000124
 30
0.0
 40
1.0
100
AcDbArc
 50
0.0
 51
90.0
  0
ARC
  5
2C2
330
1F
100
AcDbEntity
  8
1
  6
Continuous
 62
     3
100
AcDbCircle
 10
23.9999999999878
 20
15.7500000000124
 30
0.0
 40
1.0
100
AcDbArc
 50
180.0
 51
270.0
  0
ARC
  5
2C3
330
1F
100
AcDbEntity
  8
1
  6
Continuous
 62
     3
100
AcDbCircle
 10
23.9999999999878
 20
-15.7499999999876
 30
0.0
 40
1.0
100
AcDbArc
 50
90.0
 51
180.0
  0
ARC
  5
2C4
330
1F
100
AcDbEntity
  8
1
  6
Continuous
 62
     3
100
AcDbCircle
 10
21.9999999999878
 20
-16.9999999999876
 30
0.0
 40
1.0
100
AcDbArc
 50
270.0
 51
0.0
  0
ARC
  5
2C5
330
1F
100
AcDbEntity
  8
1
  6
Continuous
 62
     3
100
AcDbCircle
 10
14.5773502691774
 20
24.6000000000124
 30
0.0
 40
2.0
100
AcDbArc
 50
270.0
 51
330.0000000000003
  0
ARC
  5
2C6
330
1F
100
AcDbEntity
  8
1
  6
Continuous
 62
     3
100
AcDbCircle
 10
13.4226497307982
 20
26.6000000000124
 30
0.0
 40
1.0
100
AcDbArc
 50
270.0
 51
329.9999999999989
  0
ARC
  5
2C7
330
1F
100
AcDbEntity
  8
1
  6
Continuous
 62
     3
100
AcDbCircle
 10
77.6873408726396
 20
44.00000000001239
 30
0.0
 40
1.000000000000065
100
AcDbArc
 50
66.20308407908445
 51
90.0
  0
ARC
  5
2C8
330
1F
100
AcDbEntity
  8
1
  6
Continuous
 62
     3
100
AcDbCircle
 10
77.786338436583
 20
40.00000000001239
 30
0.0
 40
1.0
100
AcDbArc
 50
270.0
 51
296.632408369831
  0
ARC
  5
2C9
330
1F
100
AcDbEntity
  8
1
  6
Continuous
 62
     3
100
AcDbCircle
 10
27.2790561913492
 20
38.00000000001239
 30
0.0
 40
1.0
100
AcDbArc
 50
90.0
 51
150.0000000000046
  0
ARC
  5
2CA
330
1F
100
AcDbEntity
  8
1
  6
Continuous
 62
     3
100
AcDbCircle
 10
24.9696551145907
 20
42.00000000001239
 30
0.0
 40
3.0
100
AcDbArc
 50
90.0
 51
149.9999999999999
  0
ARC
  5
2CB
330
1F
100
AcDbEntity
  8
1
  6
Continuous
 62
     3
100
AcDbCircle
 10
21.9999999999878
 20
38.85640646056339
 30
0.0
 40
2.00000000000002
100
AcDbArc
 50
150.0000000000003
 51
180.0
  0
ARC
  5
2CC
330
1F
100
AcDbEntity
  8
1
  6
Continuous
 62
     3
100
AcDbCircle
 10
15.9999999999878
 20
17.0000000000124
 30
0.0
 40
1.0
100
AcDbArc
 50
90.0
 51
149.9999999999989
  0
ARC
  5
2CD
330
1F
100
AcDbEntity
  8
1
  6
Continuous
 62
     3
100
AcDbCircle
 10
14.2679491924189
 20
18.0000000000124
 30
0.0
 40
1.0
100
AcDbArc
 50
270.0
 51
330.0000000000018
  0
ARC
  5
2CE
330
1F
100
AcDbEntity
  8
1
  6
Continuous
 62
     3
100
AcDbCircle
 10
-10.5602535029397
 20
-15.025532934687
 30
0.0
 40
1.000000000000003
100
AcDbArc
 50
225.000000000004
 51
266.4236656250073
  0
ARC
  5
2CF
330
1F
100
AcDbEntity
  8
1
  6
Continuous
 62
     3
100
AcDbCircle
 10
-12.6642135623853
 20
-15.7499999999876
 30
0.0
 40
1.000000000000073
100
AcDbArc
 50
45.0
 51
90.0
  0
ARC
  5
2D0
330
1F
100
AcDbEntity
  8
1
  6
Continuous
 62
     3
100
AcDbCircle
 10
15.9999999999878
 20
-16.9999999999876
 30
0.0
 40
0.9999999999999667
100
AcDbArc
 50
210.0000000000011
 51
270.0
  0
ARC
  5
2D1
330
1F
100
AcDbEntity
  8
1
  6
Continuous
 62
     3
100
AcDbCircle
 10
14.2679491924189
 20
-17.9999999999876
 30
0.0
 40
1.000000000000053
100
AcDbArc
 50
29.99999999999826
 51
90.0
  0
ARC
  5
2D2
330
1F
100
AcDbEntity
  8
1
  6
Continuous
 62
     3
100
AcDbCircle
 10
11.9999999999878
 20
18.0000000000124
 30
0.0
 40
1.0
100
AcDbArc
 50
180.0
 51
270.0
  0
ARC
  5
2D3
330
1F
100
AcDbEntity
  8
1
  6
Continuous
 62
     3
100
AcDbCircle
 10
-73.2120343576427
 20
34.9923048454256
 30
0.0
 40
1.0
100
AcDbArc
 50
90.0
 51
166.4737909397837
  0
ARC
  5
2D4
330
1F
100
AcDbEntity
  8
1
  6
Continuous
 62
     3
100
AcDbCircle
 10
-59.7879656423818
 20
34.9923048454256
 30
0.0
 40
1.000000000000052
100
AcDbArc
 50
13.52620906021522
 51
90.0
  0
ARC
  5
2D5
330
1F
100
AcDbEntity
  8
1
  6
Continuous
 62
     3
100
AcDbCircle
 10
-58.8285413370349
 20
43.80000000001239
 30
0.0
 40
1.199999999999947
100
AcDbArc
 50
0.40032908436128
 51
90.0
  0
ARC
  5
2D6
330
1F
100
AcDbEntity
  8
1
  6
Continuous
 62
     3
100
AcDbCircle
 10
-74.1714586629895
 20
43.80000000001239
 30
0.0
 40
1.200000000000003
100
AcDbArc
 50
90.0
 51
179.5996709156388
  0
ARC
  5
2D7
330
1F
100
AcDbEntity
  8
1
  6
Continuous
 62
     3
100
AcDbCircle
 10
-50.3453889744667
 20
7.20251337128258
 30
0.0
 40
1.000000000000052
100
AcDbArc
 50
119.9999999999983
 51
204.0296435506769
  0
ARC
  5
2D8
330
1F
100
AcDbEntity
  8
1
  6
Continuous
 62
     3
100
AcDbCircle
 10
-47.5000000000122
 20
14.3390996311897
 30
0.0
 40
0.9999999999999667
100
AcDbArc
 50
300.0000000000011
 51
0.0
  0
ARC
  5
2D9
330
1F
100
AcDbEntity
  8
1
  6
Continuous
 62
     3
100
AcDbCircle
 10
-87.5000000000122
 20
15.7500000000124
 30
0.0
 40
1.0
100
AcDbArc
 50
270.0
 51
0.0
  0
ARC
  5
2DA
330
1F
100
AcDbEntity
  8
1
  6
Continuous
 62
     3
100
AcDbCircle
 10
-48.5000000000122
 20
10.577350269202
 30
0.0
 40
0.9999999999999667
100
AcDbArc
 50
300.0000000000011
 51
0.0
  0
ARC
  5
2DB
330
1F
100
AcDbEntity
  8
1
  6
Continuous
 62
     3
100
AcDbCircle
 10
-46.5000000000122
 20
12.6070488236208
 30
0.0
 40
1.000000000000053
100
AcDbArc
 50
119.9999999999983
 51
180.0
  0
ARC
  5
2DC
330
1F
100
AcDbEntity
  8
1
  6
Continuous
 62
     3
100
AcDbCircle
 10
-47.5000000000122
 20
18.5510354332975
 30
0.0
 40
1.0
100
AcDbArc
 50
0.0
 51
86.99999999999693
  0
ARC
  5
2DD
330
1F
100
AcDbEntity
  8
1
  6
Continuous
 62
     3
100
AcDbCircle
 10
-85.5000000000122
 20
18.5510354332975
 30
0.0
 40
1.000000000000024
100
AcDbArc
 50
92.9999999999982
 51
180.0
  0
ARC
  5
2DE
330
1F
100
AcDbEntity
  8
1
  6
Continuous
 62
     3
100
AcDbCircle
 10
-74.5489226763708
 20
-15.7499999999876
 30
0.0
 40
1.000000000000024
100
AcDbArc
 50
62.93102721406562
 51
90.0
  0
ARC
  5
2DF
330
1F
100
AcDbEntity
  8
1
  6
Continuous
 62
     3
100
AcDbCircle
 10
-80.5000000000122
 20
26.0000000000124
 30
0.0
 40
1.0
100
AcDbArc
 50
90.0
 51
180.0
  0
ARC
  5
2E0
330
1F
100
AcDbEntity
  8
1
  6
Continuous
 62
     3
100
AcDbCircle
 10
6.3431457504953
 20
80.0000000000124
 30
0.0
 40
4.000000000000098
100
AcDbArc
 50
44.99999999999877
 51
90.0
  0
ARC
  5
2E1
330
1F
100
AcDbEntity
  8
1
  6
Continuous
 62
     3
100
AcDbCircle
 10
-10.0000000000122
 20
64.0000000000124
 30
0.0
 40
4.0
100
AcDbArc
 50
180.0
 51
270.0
  0
ARC
  5
2E2
330
1F
100
AcDbEntity
  8
1
  6
Continuous
 62
     3
100
AcDbCircle
 10
19.4999999999878
 20
63.0108736041657
 30
0.0
 40
0.5000000000001052
100
AcDbArc
 50
272.0166890183757
 51
0.0
  0
ARC
  5
2E3
330
1F
100
AcDbEntity
  8
1
  6
Continuous
 62
     3
100
AcDbCircle
 10
19.4999999999878
 20
76.9891263958591
 30
0.0
 40
0.5
100
AcDbArc
 50
0.0
 51
87.98331098162387
  0
ARC
  5
2E4
330
1F
100
AcDbEntity
  8
1
  6
Continuous
 62
     3
100
AcDbCircle
 10
75.9913378387625
 20
64.4997596446094
 30
0.0
 40
1.499999999999904
100
AcDbArc
 50
272.0166890183763
 51
339.9999999999994
  0
ARC
  5
2E5
330
1F
100
AcDbEntity
  8
1
  6
Continuous
 62
     3
100
AcDbCircle
 10
75.9913378387625
 20
75.5002403554153
 30
0.0
 40
1.499999999999909
100
AcDbArc
 50
19.99999999999726
 51
87.98331098162387
  0
ARC
  5
2E6
102
{ACAD_REACTORS
330
37C
102
}
330
1F
100
AcDbEntity
  8
1
  6
Continuous
 62
     3
100
AcDbCircle
 10
34.3999999999877
 20
69.1000000000124
 30
0.0
 40
1.200000000000003
100
AcDbArc
 50
270.0
 51
0.0
  0
ARC
  5
2E7
102
{ACAD_REACTORS
330
37C
102
}
330
1F
100
AcDbEntity
  8
1
  6
Continuous
 62
     3
100
AcDbCircle
 10
34.5999999999878
 20
68.9000000000124
 30
0.0
 40
2.0
100
AcDbArc
 50
270.0
 51
0.0
  0
ARC
  5
2E8
330
1F
100
AcDbEntity
  8
1
  6
Continuous
 62
     3
100
AcDbCircle
 10
23.9999999999878
 20
85.7500000000124
 30
0.0
 40
1.0
100
AcDbArc
 50
180.0
 51
270.0
  0
ARC
  5
2E9
330
1F
100
AcDbEntity
  8
1
  6
Continuous
 62
     3
100
AcDbCircle
 10
21.9999999999878
 20
87.0000000000124
 30
0.0
 40
1.0
100
AcDbArc
 50
0.0
 51
90.0
  0
ARC
  5
2EA
330
1F
100
AcDbEntity
  8
1
  6
Continuous
 62
     3
100
AcDbCircle
 10
21.9999999999878
 20
53.0000000000124
 30
0.0
 40
1.0
100
AcDbArc
 50
270.0
 51
0.0
  0
ARC
  5
2EB
330
1F
100
AcDbEntity
  8
1
  6
Continuous
 62
     3
100
AcDbCircle
 10
23.9999999999878
 20
54.2500000000124
 30
0.0
 40
1.0
100
AcDbArc
 50
90.0
 51
180.0
  0
ARC
  5
2EC
330
1F
100
AcDbEntity
  8
1
  6
Continuous
 62
     3
100
AcDbCircle
 10
15.9999999999878
 20
87.0000000000124
 30
0.0
 40
1.0
100
AcDbArc
 50
90.0
 51
149.9999999999989
  0
ARC
  5
2ED
330
1F
100
AcDbEntity
  8
1
  6
Continuous
 62
     3
100
AcDbCircle
 10
15.9999999999878
 20
53.0000000000124
 30
0.0
 40
0.9999999999999667
100
AcDbArc
 50
210.0000000000011
 51
270.0
  0
ARC
  5
2EE
330
1F
100
AcDbEntity
  8
1
  6
Continuous
 62
     3
100
AcDbCircle
 10
14.267949192419
 20
52.0000000000124
 30
0.0
 40
0.9999999999999667
100
AcDbArc
 50
30.0000000000011
 51
90.0
  0
ARC
  5
2EF
330
1F
100
AcDbEntity
  8
1
  6
Continuous
 62
     3
100
AcDbCircle
 10
-15.7500000000122
 20
85.7500000000124
 30
0.0
 40
1.0
100
AcDbArc
 50
270.0
 51
0.0
  0
ARC
  5
2F0
330
1F
100
AcDbEntity
  8
1
  6
Continuous
 62
     3
100
AcDbCircle
 10
-10.5602535029397
 20
54.9744670653129
 30
0.0
 40
0.9999999999999352
100
AcDbArc
 50
225.0000000000001
 51
266.4236656250012
  0
ARC
  5
2F1
330
1F
100
AcDbEntity
  8
1
  6
Continuous
 62
     3
100
AcDbCircle
 10
-12.6642135623853
 20
54.2500000000124
 30
0.0
 40
1.000000000000076
100
AcDbArc
 50
45.00000000000015
 51
90.0
  0
ARC
  5
2F2
330
1F
100
AcDbEntity
  8
1
  6
Continuous
 62
     3
100
AcDbCircle
 10
-1.84140431616515
 20
84.0000000000124
 30
0.0
 40
1.0
100
AcDbArc
 50
90.0
 51
177.0000000000024
  0
ARC
  5
2F3
330
1F
100
AcDbEntity
  8
1
  6
Continuous
 62
     3
100
AcDbCircle
 10
1.84140431614082
 20
84.0000000000124
 30
0.0
 40
0.9999999999999438
100
AcDbArc
 50
2.99999999999761
 51
90.0
  0
ARC
  5
2F4
330
1F
100
AcDbEntity
  8
1
  6
Continuous
 62
     3
100
AcDbCircle
 10
30.403520299572
 20
-12.9536530675668
 30
0.0
 40
2.596479700415785
100
AcDbArc
 50
343.7758894784837
 51
43.7758894784826
  0
ARC
  5
2F5
330
1F
100
AcDbEntity
  8
1
  6
Continuous
 62
     3
100
AcDbCircle
 10
19.8879747162274
 20
-5.35756805309887
 30
0.0
 40
13.11202528376044
100
AcDbArc
 50
340.9019153320124
 51
19.09808466798761
  0
ARC
  5
2F6
330
1F
100
AcDbEntity
  8
1
  6
Continuous
 62
     3
100
AcDbCircle
 10
30.403520299572
 20
12.9536530675915
 30
0.0
 40
2.596479700415784
100
AcDbArc
 50
316.224110521519
 51
16.22411052151836
  0
ARC
  5
2F7
330
1F
100
AcDbEntity
  8
1
  6
Continuous
 62
     3
100
AcDbCircle
 10
19.8879747162274
 20
5.35756805312365
 30
0.0
 40
13.11202528376044
100
AcDbArc
 50
340.9019153320124
 51
19.09808466798757
  0
ARC
  5
2F8
330
1F
100
AcDbEntity
  8
1
  6
Continuous
 62
     3
100
AcDbCircle
 10
-12.0000000000122
 20
16.4142135623855
 30
0.0
 40
1.000000000000002
100
AcDbArc
 50
315.0000000000041
 51
0.0
  0
ARC
  5
2F9
330
1F
100
AcDbEntity
  8
1
  6
Continuous
 62
     3
100
AcDbCircle
 10
-11.171572875266
 20
15.5857864376393
 30
0.0
 40
0.1715728752537995
100
AcDbArc
 50
0.0
 51
134.9999999999765
  0
ARC
  5
2FA
330
1F
100
AcDbEntity
  8
1
  6
Continuous
 62
     3
100
AcDbCircle
 10
13.9698351942153
 20
11.7865482721139
 30
0.0
 40
5.999999999999976
100
AcDbArc
 50
115.4317831941972
 51
163.4067606251402
  0
ARC
  5
2FB
330
1F
100
AcDbEntity
  8
1
  6
Continuous
 62
     3
100
AcDbCircle
 10
-0.00000000001216
 20
5.03311694118538
 30
0.0
 40
8.466883058827005
100
AcDbArc
 50
53.8049401274422
 51
126.1950598725579
  0
ARC
  5
2FC
330
1F
100
AcDbEntity
  8
1
  6
Continuous
 62
     3
100
AcDbCircle
 10
-20.276241534424
 20
12.9536530675915
 30
0.0
 40
2.526241534411783
100
AcDbArc
 50
314.6775608774544
 51
45.32243912254719
  0
ARC
  5
2FD
330
1F
100
AcDbEntity
  8
1
  6
Continuous
 62
     3
100
AcDbCircle
 10
-30.3948299897903
 20
5.35756805312365
 30
0.0
 40
12.64482998977811
100
AcDbArc
 50
340.1672883822443
 51
19.83271161775575
  0
ARC
  5
2FE
330
1F
100
AcDbEntity
  8
1
  6
Continuous
 62
     3
100
AcDbCircle
 10
-20.276241534424
 20
-12.9536530675668
 30
0.0
 40
2.526241534411783
100
AcDbArc
 50
314.6775608774544
 51
45.32243912254715
  0
ARC
  5
2FF
330
1F
100
AcDbEntity
  8
1
  6
Continuous
 62
     3
100
AcDbCircle
 10
-30.3948299897903
 20
-5.35756805309887
 30
0.0
 40
12.64482998977811
100
AcDbArc
 50
340.1672883822443
 51
19.83271161775578
  0
ARC
  5
300
330
1F
100
AcDbEntity
  8
1
  6
Continuous
 62
     3
100
AcDbCircle
 10
-6.59275145292798
 20
33.4452234707184
 30
0.0
 40
12.08498115237531
100
AcDbArc
 50
319.5208460520511
 51
331.0741920805392
  0
ARC
  5
301
330
1F
100
AcDbEntity
  8
1
  6
Continuous
 62
     3
100
AcDbCircle
 10
-2.18392938033216
 20
30.1636601934492
 30
0.0
 40
5.999999999999971
100
AcDbArc
 50
310.4819934651271
 51
334.7051436492717
  0
ARC
  5
302
330
1F
100
AcDbEntity
  8
1
  6
Continuous
 62
     3
100
AcDbCircle
 10
-5.62638837487853
 20
30.9287884844836
 30
0.0
 40
3.328788484471187
100
AcDbArc
 50
235.746812689682
 51
304.2531873103179
  0
ARC
  5
303
330
1F
100
AcDbEntity
  8
1
  6
Continuous
 62
     3
100
AcDbCircle
 10
-5.62638837487853
 20
29.3938997832139
 30
0.0
 40
3.228118152870149
100
AcDbArc
 50
54.52106030986181
 51
125.4789396901382
  0
ARC
  5
304
330
1F
100
AcDbEntity
  8
1
  6
Continuous
 62
     3
100
AcDbCircle
 10
5.62638837485412
 20
30.9287884844837
 30
0.0
 40
3.328788484471303
100
AcDbArc
 50
235.7468126896822
 51
304.2531873103179
  0
ARC
  5
305
330
1F
100
AcDbEntity
  8
1
  6
Continuous
 62
     3
100
AcDbCircle
 10
5.62638837485412
 20
29.271211515541
 30
0.0
 40
3.328788484471386
100
AcDbArc
 50
55.74681268968313
 51
124.2531873103169
  0
ARC
  5
306
330
1F
100
AcDbEntity
  8
1
  6
Continuous
 62
     3
100
AcDbCircle
 10
-0.00000000001224
 20
40.0851995712385
 30
0.0
 40
12.48519957122612
100
AcDbArc
 50
252.50767547489
 51
287.4923245251101
  0
ARC
  5
307
330
1F
100
AcDbEntity
  8
1
  6
Continuous
 62
     3
100
AcDbCircle
 10
-0.00000000001224
 20
20.1148004287854
 30
0.0
 40
12.48519957122698
100
AcDbArc
 50
72.50767547489114
 51
107.4923245251088
  0
ARC
  5
308
330
1F
100
AcDbEntity
  8
1
  6
Continuous
 62
     3
100
AcDbCircle
 10
76.7950858820068
 20
41.97669216768189
 30
0.0
 40
3.21131037004751
100
AcDbArc
 50
296.6324083698317
 51
66.20308407909279
  0
ARC
  5
309
330
1F
100
AcDbEntity
  8
1
  6
Continuous
 62
     3
100
AcDbCircle
 10
18.9762713652655
 20
28.39294193798369
 30
0.0
 40
1.404249567961668
100
AcDbArc
 50
235.3800591569302
 51
339.0175559764779
  0
ARC
  5
30A
330
1F
100
AcDbEntity
  8
1
  6
Continuous
 62
     3
100
AcDbCircle
 10
-19.7189286964303
 20
37.41019728510829
 30
0.0
 40
39.73196951838544
100
AcDbArc
 50
346.8823026197139
 51
358.5319800897316
  0
ARC
  5
30B
330
1F
100
AcDbEntity
  8
1
  6
Continuous
 62
     3
100
AcDbCircle
 10
-60.7485387660415
 20
25.1152659609218
 30
0.0
 40
15.96248942800629
100
AcDbArc
 50
164.617918747031
 51
170.6731029949146
  0
ARC
  5
30C
330
1F
100
AcDbEntity
  8
1
  6
Continuous
 62
     3
100
AcDbCircle
 10
-74.8059774188191
 20
27.4840627833399
 30
0.0
 40
1.70801712379108
100
AcDbArc
 50
172.6604767375169
 51
211.5391572552522
  0
ARC
  5
30D
330
1F
100
AcDbEntity
  8
1
  6
Continuous
 62
     3
100
AcDbCircle
 10
-99.217577307441
 20
35.1180357214866
 30
0.0
 40
23.78839126151969
100
AcDbArc
 50
345.965956695484
 51
359.1446682256191
  0
ARC
  5
30E
330
1F
100
AcDbEntity
  8
1
  6
Continuous
 62
     3
100
AcDbCircle
 10
-72.251461233983
 20
25.1152659609218
 30
0.0
 40
15.96248942800636
100
AcDbArc
 50
9.32689700508535
 51
15.38208125296892
  0
ARC
  5
30F
330
1F
100
AcDbEntity
  8
1
  6
Continuous
 62
     3
100
AcDbCircle
 10
-58.1940225812054
 20
27.4840627833399
 30
0.0
 40
1.708017123791156
100
AcDbArc
 50
328.4608427447497
 51
7.33952326248269
  0
ARC
  5
310
330
1F
100
AcDbEntity
  8
1
  6
Continuous
 62
     3
100
AcDbCircle
 10
-33.7824226925835
 20
35.1180357214866
 30
0.0
 40
23.7883912615196
100
AcDbArc
 50
180.8553317743809
 51
194.0340433045161
  0
ARC
  5
311
330
1F
100
AcDbEntity
  8
1
  6
Continuous
 62
     3
100
AcDbCircle
 10
-69.7500000000122
 20
23.4696165027621
 30
0.0
 40
9.149692748956678
100
AcDbArc
 50
69.19410241127196
 51
110.805897588728
  0
ARC
  5
312
330
1F
100
AcDbEntity
  8
1
  6
Continuous
 62
     3
100
AcDbCircle
 10
-69.7500000000122
 20
36.7754233325559
 30
0.0
 40
9.191809419410953
100
AcDbArc
 50
249.2938254456125
 51
290.7061745543875
  0
ARC
  5
313
330
1F
100
AcDbEntity
  8
1
  6
Continuous
 62
     3
100
AcDbCircle
 10
-63.2500000000122
 20
37.0110499061598
 30
0.0
 40
9.412584622514066
100
AcDbArc
 50
249.8009632980032
 51
290.1990367019962
  0
ARC
  5
314
330
1F
100
AcDbEntity
  8
1
  6
Continuous
 62
     3
100
AcDbCircle
 10
-63.2500000000122
 20
23.4109425179445
 30
0.0
 40
9.204564146136388
100
AcDbArc
 50
69.32383294638387
 51
110.6761670536167
  0
ARC
  5
315
330
1F
100
AcDbEntity
  8
1
  6
Continuous
 62
     3
100
AcDbCircle
 10
-66.5000000000122
 20
0.00000000001239
 30
0.0
 40
15.99999999999998
100
AcDbArc
 50
47.86995406124093
 51
132.1300459387591
  0
ARC
  5
316
330
1F
100
AcDbEntity
  8
1
  6
Continuous
 62
     3
100
AcDbCircle
 10
-66.5000000000122
 20
0.00000000001239
 30
0.0
 40
16.00000000000003
100
AcDbArc
 50
226.5674634422103
 51
47.86995406124093
  0
ARC
  5
317
330
1F
100
AcDbEntity
  8
1
  6
Continuous
 62
     3
100
AcDbCircle
 10
-66.5000000000122
 20
0.00000000001239
 30
0.0
 40
15.99999999999998
100
AcDbArc
 50
132.1300459387591
 51
133.4325365577899
  0
ARC
  5
318
330
1F
100
AcDbEntity
  8
1
  6
Continuous
 62
     3
100
AcDbCircle
 10
-66.5000000000122
 20
0.00000000001239
 30
0.0
 40
14.75
100
AcDbArc
 50
130.8497385953898
 51
139.1502614046103
  0
ARC
  5
319
330
1F
100
AcDbEntity
  8
1
  6
Continuous
 62
     3
100
AcDbCircle
 10
-100.39482998979
 20
-5.35756805309887
 30
0.0
 40
12.64482998977783
100
AcDbArc
 50
340.1672883822438
 51
19.83271161775624
  0
ARC
  5
31A
330
1F
100
AcDbEntity
  8
1
  6
Continuous
 62
     3
100
AcDbCircle
 10
-90.276241534424
 20
-12.9536530675668
 30
0.0
 40
2.526241534411791
100
AcDbArc
 50
314.6775608774546
 51
45.32243912254699
  0
ARC
  5
31B
330
1F
100
AcDbEntity
  8
1
  6
Continuous
 62
     3
100
AcDbCircle
 10
-66.5000000000122
 20
0.00000000001239
 30
0.0
 40
14.74999999999997
100
AcDbArc
 50
265.8497385953897
 51
274.1502614046102
  0
ARC
  5
31C
330
1F
100
AcDbEntity
  8
1
  6
Continuous
 62
     3
100
AcDbCircle
 10
-66.5000000000122
 20
0.00000000001239
 30
0.0
 40
14.74999999999997
100
AcDbArc
 50
274.1502614046102
 51
310.8497385953897
  0
ARC
  5
31D
330
1F
100
AcDbEntity
  8
1
  6
Continuous
 62
     3
100
AcDbCircle
 10
-66.5000000000122
 20
0.00000000001239
 30
0.0
 40
14.74999999999998
100
AcDbArc
 50
310.8497385953897
 51
319.1502614046102
  0
ARC
  5
31E
330
1F
100
AcDbEntity
  8
1
  6
Continuous
 62
     3
100
AcDbCircle
 10
-66.5000000000122
 20
0.00000000001239
 30
0.0
 40
14.74999999999999
100
AcDbArc
 50
319.1502614046102
 51
355.8497385953898
  0
ARC
  5
31F
330
1F
100
AcDbEntity
  8
1
  6
Continuous
 62
     3
100
AcDbCircle
 10
-66.5000000000122
 20
0.00000000001239
 30
0.0
 40
14.74999999999998
100
AcDbArc
 50
355.8497385953898
 51
4.1502614046103
  0
ARC
  5
320
330
1F
100
AcDbEntity
  8
1
  6
Continuous
 62
     3
100
AcDbCircle
 10
-66.5000000000122
 20
0.00000000001239
 30
0.0
 40
14.74999999999998
100
AcDbArc
 50
4.1502614046103
 51
40.84973859538978
  0
ARC
  5
321
330
1F
100
AcDbEntity
  8
1
  6
Continuous
 62
     3
100
AcDbCircle
 10
-66.5000000000122
 20
0.00000000001239
 30
0.0
 40
14.74999999999999
100
AcDbArc
 50
40.84973859538978
 51
49.1502614046103
  0
ARC
  5
322
330
1F
100
AcDbEntity
  8
1
  6
Continuous
 62
     3
100
AcDbCircle
 10
-66.5000000000122
 20
0.00000000001239
 30
0.0
 40
14.74999999999999
100
AcDbArc
 50
49.1502614046103
 51
85.84973859538977
  0
ARC
  5
323
330
1F
100
AcDbEntity
  8
1
  6
Continuous
 62
     3
100
AcDbCircle
 10
-66.5000000000122
 20
0.00000000001239
 30
0.0
 40
14.74999999999999
100
AcDbArc
 50
85.84973859538977
 51
94.15026140461029
  0
ARC
  5
324
330
1F
100
AcDbEntity
  8
1
  6
Continuous
 62
     3
100
AcDbCircle
 10
-66.5000000000122
 20
0.00000000001239
 30
0.0
 40
14.74999999999999
100
AcDbArc
 50
94.15026140461029
 51
130.8497385953898
  0
ARC
  5
325
330
1F
100
AcDbEntity
  8
1
  6
Continuous
 62
     3
100
AcDbCircle
 10
-66.5000000000122
 20
0.00000000001239
 30
0.0
 40
14.75
100
AcDbArc
 50
139.1502614046103
 51
175.8497385953897
  0
ARC
  5
326
330
1F
100
AcDbEntity
  8
1
  6
Continuous
 62
     3
100
AcDbCircle
 10
-66.5000000000122
 20
0.00000000001239
 30
0.0
 40
14.74999999999998
100
AcDbArc
 50
175.8497385953897
 51
184.1502614046102
  0
ARC
  5
327
330
1F
100
AcDbEntity
  8
1
  6
Continuous
 62
     3
100
AcDbCircle
 10
-66.5000000000122
 20
0.00000000001239
 30
0.0
 40
14.74999999999998
100
AcDbArc
 50
184.1502614046102
 51
220.8497385953897
  0
ARC
  5
328
330
1F
100
AcDbEntity
  8
1
  6
Continuous
 62
     3
100
AcDbCircle
 10
-66.5000000000122
 20
0.00000000001239
 30
0.0
 40
14.74999999999998
100
AcDbArc
 50
229.1502614046102
 51
265.8497385953897
  0
ARC
  5
329
330
1F
100
AcDbEntity
  8
1
  6
Continuous
 62
     3
100
AcDbCircle
 10
-66.5000000000122
 20
0.00000000001239
 30
0.0
 40
14.75
100
AcDbArc
 50
220.8497385953897
 51
229.1502614046102
  0
ARC
  5
32A
330
1F
100
AcDbEntity
  8
1
  6
Continuous
 62
     3
100
AcDbCircle
 10
-100.39482998979
 20
5.35756805312364
 30
0.0
 40
12.64482998977783
100
AcDbArc
 50
340.1672883822438
 51
19.83271161775624
  0
ARC
  5
32B
330
1F
100
AcDbEntity
  8
1
  6
Continuous
 62
     3
100
AcDbCircle
 10
-90.276241534424
 20
12.9536530675915
 30
0.0
 40
2.526241534411791
100
AcDbArc
 50
314.6775608774546
 51
45.32243912254702
  0
ARC
  5
32C
330
1F
100
AcDbEntity
  8
1
  6
Continuous
 62
     3
100
AcDbCircle
 10
-66.5000000000122
 20
0.00000000001239
 30
0.0
 40
16.68749999999996
100
AcDbArc
 50
242.9310272140681
 51
24.02964355068093
  0
ARC
  5
32D
330
1F
100
AcDbEntity
  8
1
  6
Continuous
 62
     3
100
AcDbCircle
 10
-0.00000000001216
 20
70.0000000000124
 30
0.0
 40
10.0
100
AcDbArc
 50
90.0
 51
180.0
  0
ARC
  5
32E
330
1F
100
AcDbEntity
  8
1
  6
Continuous
 62
     3
100
AcDbCircle
 10
19.9975824259472
 20
63.2035775536572
 30
0.0
 40
2.176338618699517
100
AcDbArc
 50
213.2948306415475
 51
270.0636467213715
  0
ARC
  5
32F
330
1F
100
AcDbEntity
  8
1
  6
Continuous
 62
     3
100
AcDbCircle
 10
19.9975824259472
 20
76.7964224463676
 30
0.0
 40
2.176338618699565
100
AcDbArc
 50
89.93635327862847
 51
146.7051693584524
  0
ARC
  5
330
330
1F
100
AcDbEntity
  8
1
  6
Continuous
 62
     3
100
AcDbCircle
 10
25.3444344991196
 20
103.454230171853
 30
0.0
 40
64.28293417230356
100
AcDbArc
 50
326.1566247969167
 51
327.8397677082521
  0
ARC
  5
331
330
1F
100
AcDbEntity
  8
1
  6
Continuous
 62
     3
100
AcDbCircle
 10
78.7125171327724
 20
70.0149987156908
 30
0.0
 40
1.290294246350691
100
AcDbArc
 50
359.3339639671784
 51
35.42263231921009
  0
ARC
  5
332
330
1F
100
AcDbEntity
  8
1
  6
Continuous
 62
     3
100
AcDbCircle
 10
78.7125171327724
 20
69.9850012843339
 30
0.0
 40
1.290294246350771
100
AcDbArc
 50
324.5773676807863
 51
0.66603603282667
  0
ARC
  5
333
330
1F
100
AcDbEntity
  8
1
  6
Continuous
 62
     3
100
AcDbCircle
 10
25.3444344991196
 20
36.5457698281722
 30
0.0
 40
64.28293417230329
100
AcDbArc
 50
32.16023229174754
 51
33.84337520308299
  0
ARC
  5
334
330
1F
100
AcDbEntity
  8
1
  6
Continuous
 62
     3
100
AcDbCircle
 10
-0.00000000001216
 20
70.0000000000124
 30
0.0
 40
3.999999999999993
100
AcDbArc
 50
38.68218745348952
 51
141.3178125465108
  0
ARC
  5
335
330
1F
100
AcDbEntity
  8
1
  6
Continuous
 62
     3
100
AcDbCircle
 10
-0.00000000001216
 20
70.0000000000124
 30
0.0
 40
4.000000000000024
100
AcDbArc
 50
218.6821874534892
 51
38.68218745348952
  0
ARC
  5
336
330
1F
100
AcDbEntity
  8
1
  6
Continuous
 62
     3
100
AcDbCircle
 10
-0.00000000001216
 20
70.0000000000124
 30
0.0
 40
4.000000000000024
100
AcDbArc
 50
141.3178125465108
 51
218.6821874534892
  0
ARC
  5
337
330
1F
100
AcDbEntity
  8
1
  6
Continuous
 62
     3
100
AcDbCircle
 10
30.4035202995716
 20
82.9536530675916
 30
0.0
 40
2.596479700416073
100
AcDbArc
 50
316.2241105215219
 51
43.77588947847646
  0
ARC
  5
338
330
1F
100
AcDbEntity
  8
1
  6
Continuous
 62
     3
100
AcDbCircle
 10
19.8879747162274
 20
75.3575680531237
 30
0.0
 40
13.11202528376035
100
AcDbArc
 50
13.99572482074371
 51
19.09808466798751
  0
ARC
  5
339
330
1F
100
AcDbEntity
  8
1
  6
Continuous
 62
     3
100
AcDbCircle
 10
30.4035202995722
 20
57.0463469324332
 30
0.0
 40
2.59647970041557
100
AcDbArc
 50
316.2241105215144
 51
43.7758894784871
  0
ARC
  5
33A
330
1F
100
AcDbEntity
  8
1
  6
Continuous
 62
     3
100
AcDbCircle
 10
19.8879747162277
 20
64.6424319469011
 30
0.0
 40
13.11202528376004
100
AcDbArc
 50
340.9019153320121
 51
346.0042751792556
  0
ARC
  5
33B
330
1F
100
AcDbEntity
  8
1
  6
Continuous
 62
     3
100
AcDbCircle
 10
-0.00000000001216
 20
70.0000000000124
 30
0.0
 40
7.699999999999991
100
AcDbArc
 50
185.2001935063464
 51
0.0
  0
ARC
  5
33C
330
1F
100
AcDbEntity
  8
1
  6
Continuous
 62
     3
100
AcDbCircle
 10
-0.00000000001216
 20
70.0000000000124
 30
0.0
 40
7.69999999999999
100
AcDbArc
 50
0.0
 51
185.2001935063464
  0
ARC
  5
33D
330
1F
100
AcDbEntity
  8
1
  6
Continuous
 62
     3
100
AcDbCircle
 10
-0.00000000001216
 20
70.0000000000124
 30
0.0
 40
11.00000000000002
100
AcDbArc
 50
162.0797868606076
 51
195.8266201318724
  0
ARC
  5
33E
330
1F
100
AcDbEntity
  8
1
  6
Continuous
 62
     3
100
AcDbCircle
 10
-0.00000000001216
 20
57.0000000000124
 30
0.0
 40
7.0
100
AcDbArc
 50
270.0
 51
342.0797868606073
  0
ARC
  5
33F
330
1F
100
AcDbEntity
  8
1
  6
Continuous
 62
     3
100
AcDbCircle
 10
-0.00000000001216
 20
57.0000000000124
 30
0.0
 40
7.000000000000005
100
AcDbArc
 50
197.9202131393926
 51
270.0
  0
ARC
  5
340
330
1F
100
AcDbEntity
  8
1
  6
Continuous
 62
     3
100
AcDbCircle
 10
-0.00000000001216
 20
83.0000000000124
 30
0.0
 40
7.0
100
AcDbArc
 50
90.0
 51
162.0797868606074
  0
ARC
  5
341
330
1F
100
AcDbEntity
  8
1
  6
Continuous
 62
     3
100
AcDbCircle
 10
-0.00000000001216
 20
83.0000000000124
 30
0.0
 40
6.999999999999992
100
AcDbArc
 50
17.92021313939261
 51
90.0
  0
ARC
  5
342
330
1F
100
AcDbEntity
  8
1
  6
Continuous
 62
     3
100
AcDbCircle
 10
-5.35756805312337
 20
104.394829989791
 30
0.0
 40
12.6448299897786
100
AcDbArc
 50
250.1672883822448
 51
289.8327116177547
  0
ARC
  5
343
330
1F
100
AcDbEntity
  8
1
  6
Continuous
 62
     3
100
AcDbCircle
 10
5.35756805309916
 20
104.394829989791
 30
0.0
 40
12.6448299897786
100
AcDbArc
 50
250.1672883822448
 51
289.8327116177547
  0
ARC
  5
344
330
1F
100
AcDbEntity
  8
1
  6
Continuous
 62
     3
100
AcDbCircle
 10
-20.276241534424
 20
82.9536530675916
 30
0.0
 40
2.526241534411856
100
AcDbArc
 50
314.6775608774528
 51
45.32243912254562
  0
ARC
  5
345
330
1F
100
AcDbEntity
  8
1
  6
Continuous
 62
     3
100
AcDbCircle
 10
-30.3948299897903
 20
75.3575680531237
 30
0.0
 40
12.64482998977813
100
AcDbArc
 50
340.167288382244
 51
19.83271161775554
  0
ARC
  5
346
330
1F
100
AcDbEntity
  8
1
  6
Continuous
 62
     3
100
AcDbCircle
 10
15.9999999999878
 20
87.0000000000124
 30
0.0
 40
0.9999999999999667
100
AcDbArc
 50
149.9999999999989
 51
180.0
  0
ARC
  5
347
330
1F
100
AcDbEntity
  8
1
  6
Continuous
 62
     3
100
AcDbCircle
 10
-20.276241534424
 20
57.0463469324333
 30
0.0
 40
2.526241534411856
100
AcDbArc
 50
314.6775608774528
 51
45.3224391225455
  0
ARC
  5
348
330
1F
100
AcDbEntity
  8
1
  6
Continuous
 62
     3
100
AcDbCircle
 10
-30.3948299897903
 20
64.6424319469011
 30
0.0
 40
12.64482998977809
100
AcDbArc
 50
340.1672883822445
 51
19.83271161775597
  0
ARC
  5
349
330
1F
100
AcDbEntity
  8
1
  6
Continuous
 62
     3
100
AcDbCircle
 10
15.9999999999878
 20
53.0000000000124
 30
0.0
 40
1.0
100
AcDbArc
 50
180.0
 51
210.0000000000011
  0
ARC
  5
34A
330
1F
100
AcDbEntity
  8
1
  6
Continuous
 62
     3
100
AcDbCircle
 10
12.9536530675671
 20
94.2762415344242
 30
0.0
 40
2.526241534411922
100
AcDbArc
 50
224.6775608774512
 51
315.322439122544
  0
ARC
  5
34B
330
1F
100
AcDbEntity
  8
1
  6
Continuous
 62
     3
100
AcDbCircle
 10
-12.9536530675913
 20
94.2762415344242
 30
0.0
 40
2.526241534411851
100
AcDbArc
 50
224.6775608774528
 51
315.3224391225473
  0
ARC
  5
34C
330
1F
100
AcDbEntity
  8
1
  6
Continuous
 62
     3
100
AcDbCircle
 10
15.7499999999878
 20
88.9843134833108
 30
0.0
 40
1.0
100
AcDbArc
 50
180.0
 51
277.1807557814585
  0
ARC
  5
34D
330
1F
100
AcDbEntity
  8
1
  6
Continuous
 62
     3
100
AcDbCircle
 10
-0.00000000001216
 20
70.0000000000124
 30
0.0
 40
11.00000000000002
100
AcDbArc
 50
74.17337986812771
 51
105.9467624304837
  0
ARC
  5
34E
330
1F
100
AcDbEntity
  8
1
  6
Continuous
 62
     3
100
AcDbCircle
 10
12.953653067567
 20
99.9874625583028
 30
0.0
 40
4.651693523465748
100
AcDbArc
 50
67.2835728422946
 51
112.7164271577065
  0
ARC
  5
34F
330
1F
100
AcDbEntity
  8
1
  6
Continuous
 62
     3
100
AcDbCircle
 10
5.3575680530991
 20
78.9563713916148
 30
0.0
 40
25.68278469015375
100
AcDbArc
 50
80.38418559906268
 51
99.61581440093731
  0
ARC
  5
350
330
1F
100
AcDbEntity
  8
1
  6
Continuous
 62
     3
100
AcDbCircle
 10
-5.35756805312343
 20
78.9563713916148
 30
0.0
 40
25.68278469015375
100
AcDbArc
 50
80.3841855990627
 51
99.61581440093731
  0
ARC
  5
351
330
1F
100
AcDbEntity
  8
1
  6
Continuous
 62
     3
100
AcDbCircle
 10
-12.9536530675913
 20
99.9874625583053
 30
0.0
 40
4.65169352346348
100
AcDbArc
 50
67.28357284228156
 51
112.7164271577184
  0
ARC
  5
352
330
1F
100
AcDbEntity
  8
1
  6
Continuous
 62
     3
100
AcDbCircle
 10
-25.9874625583025
 20
82.9536530675915
 30
0.0
 40
4.651693523466151
100
AcDbArc
 50
157.2835728422953
 51
202.7164271577035
  0
ARC
  5
353
330
1F
100
AcDbEntity
  8
1
  6
Continuous
 62
     3
100
AcDbCircle
 10
-4.95637139161303
 20
75.3575680531236
 30
0.0
 40
25.6827846901556
100
AcDbArc
 50
170.3841855990633
 51
189.6158144009365
  0
ARC
  5
354
330
1F
100
AcDbEntity
  8
1
  6
Continuous
 62
     3
100
AcDbCircle
 10
-4.95637139161303
 20
64.6424319469011
 30
0.0
 40
25.6827846901556
100
AcDbArc
 50
170.3841855990633
 51
189.6158144009365
  0
ARC
  5
355
330
1F
100
AcDbEntity
  8
1
  6
Continuous
 62
     3
100
AcDbCircle
 10
-25.9874625583025
 20
57.0463469324333
 30
0.0
 40
4.65169352346611
100
AcDbArc
 50
157.2835728422965
 51
202.7164271577047
  0
ARC
  5
356
330
1F
100
AcDbEntity
  8
1
  6
Continuous
 62
     3
100
AcDbCircle
 10
-4.95637139161303
 20
5.35756805312363
 30
0.0
 40
25.68278469015559
100
AcDbArc
 50
170.3841855990633
 51
189.6158144009366
  0
ARC
  5
357
330
1F
100
AcDbEntity
  8
1
  6
Continuous
 62
     3
100
AcDbCircle
 10
-4.95637139161303
 20
-5.35756805309886
 30
0.0
 40
25.68278469015559
100
AcDbArc
 50
170.3841855990634
 51
189.6158144009366
  0
ARC
  5
358
330
1F
100
AcDbEntity
  8
1
  6
Continuous
 62
     3
100
AcDbCircle
 10
-25.9874625583025
 20
12.9536530675915
 30
0.0
 40
4.65169352346615
100
AcDbArc
 50
157.2835728422953
 51
202.7164271577035
  0
ARC
  5
359
330
1F
100
AcDbEntity
  8
1
  6
Continuous
 62
     3
100
AcDbCircle
 10
-25.9874625583025
 20
-12.9536530675668
 30
0.0
 40
4.651693523466149
100
AcDbArc
 50
157.2835728422953
 51
202.7164271577035
  0
ARC
  5
35A
330
1F
100
AcDbEntity
  8
1
  6
Continuous
 62
     3
100
AcDbCircle
 10
-75.4563713916131
 20
5.35756805312363
 30
0.0
 40
25.68278469015542
100
AcDbArc
 50
170.3841855990633
 51
189.6158144009366
  0
ARC
  5
35B
330
1F
100
AcDbEntity
  8
1
  6
Continuous
 62
     3
100
AcDbCircle
 10
-96.4874625583026
 20
12.9536530675915
 30
0.0
 40
4.65169352346597
100
AcDbArc
 50
157.2835728422944
 51
202.7164271577045
  0
ARC
  5
35C
330
1F
100
AcDbEntity
  8
1
  6
Continuous
 62
     3
100
AcDbCircle
 10
-75.4563713916131
 20
-5.35756805309886
 30
0.0
 40
25.68278469015542
100
AcDbArc
 50
170.3841855990633
 51
189.6158144009367
  0
ARC
  5
35D
330
1F
100
AcDbEntity
  8
1
  6
Continuous
 62
     3
100
AcDbCircle
 10
-96.4874625583026
 20
-12.9536530675668
 30
0.0
 40
4.651693523465969
100
AcDbArc
 50
157.2835728422944
 51
202.7164271577045
  0
ARC
  5
35E
330
1F
100
AcDbEntity
  8
1
  6
Continuous
 62
     3
100
AcDbCircle
 10
-0.00000000001216
 20
70.0000000000124
 30
0.0
 40
2.750000000000019
100
AcDbArc
 50
3.12677611358162
 51
65.38002267134328
  0
ARC
  5
35F
330
1F
100
AcDbEntity
  8
1
  6
Continuous
 62
     3
100
AcDbCircle
 10
-0.00000000001216
 20
70.0000000000124
 30
0.0
 40
3.323500000000013
100
AcDbArc
 50
311.2170341295008
 51
48.78296587049919
  0
ARC
  5
360
330
1F
100
AcDbEntity
  8
1
  6
Continuous
 62
     3
100
AcDbCircle
 10
-0.00000000001216
 20
70.0000000000124
 30
0.0
 40
2.749999999999988
100
AcDbArc
 50
294.6199773286565
 51
356.8732238864202
  0
ARC
  5
361
330
1F
100
AcDbEntity
  8
1
  6
Continuous
 62
     3
100
AcDbCircle
 10
-0.00000000001216
 20
70.0000000000124
 30
0.0
 40
2.749999999999988
100
AcDbArc
 50
114.6199773286565
 51
245.3800226713435
  0
ARC
  5
362
330
1F
100
AcDbEntity
  8
1
  6
Continuous
 62
     3
100
AcDbCircle
 10
-0.00000000001216
 20
70.0000000000124
 30
0.0
 40
3.323500000000013
100
AcDbArc
 50
131.2170341295008
 51
228.7829658704992
  0
ARC
  5
363
330
1F
100
AcDbEntity
  8
1
  6
Continuous
 62
     3
100
AcDbCircle
 10
-0.00000000001216
 20
70.0000000000124
 30
0.0
 40
2.750000000000014
100
AcDbArc
 50
356.8732238864202
 51
3.12677611358162
  0
CIRCLE
  5
364
330
1F
100
AcDbEntity
  8
1
  6
Continuous
 62
     3
100
AcDbCircle
 10
-66.5000000000122
 20
0.00000000001239
 30
0.0
 40
9.270836405748994
  0
CIRCLE
  5
365
330
1F
100
AcDbEntity
  8
1
  6
Continuous
 62
     3
100
AcDbCircle
 10
-66.5000000000122
 20
0.00000000001239
 30
0.0
 40
10.7
  0
CIRCLE
  5
366
330
1F
100
AcDbEntity
  8
1
  6
Continuous
 62
     3
100
AcDbCircle
 10
-66.5000000000122
 20
0.00000000001239
 30
0.0
 40
8.784223451029995
  0
CIRCLE
  5
367
330
1F
100
AcDbEntity
  8
1
  6
Continuous
 62
     3
100
AcDbCircle
 10
-66.5000000000122
 20
0.00000000001239
 30
0.0
 40
5.999999999999993
  0
CIRCLE
  5
368
330
1F
100
AcDbEntity
  8
1
  6
Continuous
 62
     3
100
AcDbCircle
 10
-66.5000000000122
 20
0.00000000001239
 30
0.0
 40
4.999999999999993
  0
CIRCLE
  5
369
330
1F
100
AcDbEntity
  8
1
  6
Continuous
 62
     3
100
AcDbCircle
 10
-66.5000000000122
 20
0.00000000001239
 30
0.0
 40
13.49999999999989
  0
CIRCLE
  5
36A
102
{ACAD_REACTORS
330
37D
102
}
330
1F
100
AcDbEntity
  8
1
  6
Continuous
 62
     3
100
AcDbCircle
 10
65.3097266238394
 20
72.8465825766524
 30
0.0
 40
0.6263590671360078
  0
CIRCLE
  5
36B
330
1F
100
AcDbEntity
  8
1
  6
Continuous
 62
     3
100
AcDbCircle
 10
-0.00000000001216
 20
70.0000000000124
 30
0.0
 40
6.50000000000003
  0
ARC
  5
36C
330
1F
100
AcDbEntity
  8
1
  6
Continuous
 62
     3
100
AcDbCircle
 10
7.19999999998782
 20
27.1000000000124
 30
0.0
 40
0.5
100
AcDbArc
 50
0.0
 51
90.0000000000001
  0
ARC
  5
36D
330
1F
100
AcDbEntity
  8
1
  6
Continuous
 62
     3
100
AcDbCircle
 10
-7.20000000001218
 20
27.1000000000124
 30
0.0
 40
0.5
100
AcDbArc
 50
90.0
 51
180.0
  0
ARC
  5
36E
330
1F
100
AcDbEntity
  8
1
  6
Continuous
 62
     3
100
AcDbCircle
 10
-7.20000000001218
 20
26.1000000000124
 30
0.0
 40
0.5
100
AcDbArc
 50
180.0
 51
269.9999999999996
  0
ARC
  5
36F
330
1F
100
AcDbEntity
  8
1
  6
Continuous
 62
     3
100
AcDbCircle
 10
7.19999999998782
 20
26.1000000000124
 30
0.0
 40
0.5
100
AcDbArc
 50
270.0000000000001
 51
0.0
  0
ARC
  5
370
330
1F
100
AcDbEntity
  8
1
  6
Continuous
 62
     3
100
AcDbCircle
 10
-59.3000000000122
 20
27.1000000000124
 30
0.0
 40
0.5
100
AcDbArc
 50
0.0
 51
90.0
  0
ARC
  5
371
330
1F
100
AcDbEntity
  8
1
  6
Continuous
 62
     3
100
AcDbCircle
 10
-59.3000000000122
 20
26.1000000000124
 30
0.0
 40
0.5
100
AcDbArc
 50
270.0
 51
0.0
  0
ARC
  5
372
330
1F
100
AcDbEntity
  8
1
  6
Continuous
 62
     3
100
AcDbCircle
 10
-73.7000000000122
 20
26.1000000000124
 30
0.0
 40
0.5
100
AcDbArc
 50
180.0
 51
270.0
  0
ARC
  5
373
330
1F
100
AcDbEntity
  8
1
  6
Continuous
 62
     3
100
AcDbCircle
 10
-73.7000000000122
 20
27.1000000000124
 30
0.0
 40
0.5
100
AcDbArc
 50
90.0
 51
180.0
  0
HATCH
  5
374
330
1F
100
AcDbEntity
  8
1
  6
Continuous
 62
     4
100
AcDbHatch
 10
0.0
 20
0.0
 30
0.0
210
0.0
220
0.0
230
1.0
  2
_USER
 70
     0
 71
     1
 91
        1
 92
        1
 93
        4
 72
     1
 10
65.7368348631993
 20
70.0000000000124
 11
64.8826183844794
 21
70.0000000000124
 72
     1
 10
64.8826183844794
 20
70.0000000000124
 11
64.8826183844792
 21
71.5942909819004
 72
     1
 10
64.8826183844792
 20
71.5942909819004
 11
65.7368348631993
 21
71.5942909819004
 72
     1
 10
65.7368348631993
 20
71.5942909819004
 11
65.7368348631993
 21
70.0000000000124
 97
        4
330
145
330
142
330
143
330
144
 75
     1
 76
     0
 52
90.00000000000001
 41
0.1
 77
     0
 78
     1
 53
90.00000000000001
 43
0.0
 44
0.0
 45
-0.1
 46
0.0
 79
     0
 98
        1
 10
0.0
 20
0.0
  0
HATCH
  5
375
330
1F
100
AcDbEntity
  8
1
  6
Continuous
 62
     4
100
AcDbHatch
 10
0.0
 20
0.0
 30
0.0
210
0.0
220
0.0
230
1.0
  2
_USER
 70
     0
 71
     1
 91
        2
 92
        1
 93
        8
 72
     1
 10
63.1130751638907
 20
70.0000000000124
 11
62.839816885798
 21
70.4554304635004
 72
     1
 10
62.839816885798
 20
70.4554304635004
 11
61.3158656229098
 21
70.4554304635004
 72
     1
 10
61.3158656229098
 20
70.4554304635004
 11
61.0198358216426
 21
70.0000000000124
 72
     1
 10
61.0198358216426
 20
70.0000000000124
 11
60.4481267165321
 21
70.0000000000124
 72
     1
 10
60.4481267165321
 20
70.0000000000124
 11
61.7434419308682
 21
71.9927926374524
 72
     1
 10
61.7434419308682
 20
71.9927926374524
 11
62.952073448908
 21
71.9927926374524
 72
     1
 10
62.952073448908
 20
71.9927926374524
 11
64.147749031372
 21
70.0000000000124
 72
     1
 10
64.147749031372
 20
70.0000000000124
 11
63.1130751638907
 21
70.0000000000124
 97
        8
330
14E
330
14F
330
150
330
149
330
14A
330
14B
330
14C
330
14D
 92
       16
 93
        3
 72
     1
 10
62.7030171309436
 20
70.6834300549243
 11
61.4640653573352
 21
70.6834300549243
 72
     1
 10
61.4640653573352
 20
70.6834300549243
 11
62.1083202796118
 21
71.6745914738108
 72
     1
 10
62.1083202796118
 20
71.6745914738108
 11
62.7030171309436
 21
70.6834300549243
 97
        3
330
146
330
148
330
147
 75
     1
 76
     0
 52
90.00000000000001
 41
0.1
 77
     0
 78
     1
 53
90.00000000000001
 43
0.0
 44
0.0
 45
-0.1
 46
0.0
 79
     0
 98
        1
 10
0.0
 20
0.0
  0
HATCH
  5
376
330
1F
100
AcDbEntity
  8
1
  6
Continuous
 62
     4
100
AcDbHatch
 10
0.0
 20
0.0
 30
0.0
210
0.0
220
0.0
230
1.0
  2
_USER
 70
     0
 71
     1
 91
        1
 92
        1
 93
       15
 72
     1
 10
59.6454524140473
 20
70.0000000000124
 11
58.7912359353274
 21
70.0000000000124
 72
     1
 10
58.7912359353274
 20
70.0000000000124
 11
58.7912359353274
 21
71.6965846374524
 72
     1
 10
58.7912359353274
 20
71.6965846374524
 11
58.5634292347146
 21
71.6965846374524
 72
     1
 10
58.5634292347146
 20
71.6965846374524
 11
57.9784000493905
 21
70.0000000000124
 72
     1
 10
57.9784000493905
 20
70.0000000000124
 11
56.9254683595466
 21
70.0000000000124
 72
     1
 10
56.9254683595466
 20
70.0000000000124
 11
56.28193625569
 21
71.6965846374524
 72
     1
 10
56.28193625569
 20
71.6965846374524
 11
56.0589375140795
 21
71.6965846374524
 72
     1
 10
56.0589375140795
 20
71.6965846374524
 11
56.0589375140795
 21
70.0000000000124
 72
     1
 10
56.0589375140795
 20
70.0000000000124
 11
55.5462938829752
 21
70.0000000000124
 72
     1
 10
55.5462938829752
 20
70.0000000000124
 11
55.5462938829752
 21
71.9927926374524
 72
     1
 10
55.5462938829752
 20
71.9927926374524
 11
57.0643777625561
 21
71.9927926374524
 72
     1
 10
57.0643777625561
 20
71.9927926374524
 11
57.5958731485114
 21
70.2920074023956
 72
     1
 10
57.5958731485114
 20
70.2920074023956
 11
58.1273685344665
 21
71.9927926374524
 72
     1
 10
58.1273685344665
 20
71.9927926374524
 11
59.6454524140473
 21
71.9927926374524
 72
     1
 10
59.6454524140473
 20
71.9927926374524
 11
59.6454524140473
 21
70.0000000000124
 97
       15
330
158
330
159
330
15A
330
15B
330
151
330
152
330
153
330
141
330
13E
330
154
330
155
330
140
330
13F
330
156
330
157
 75
     1
 76
     0
 52
90.00000000000001
 41
0.1
 77
     0
 78
     1
 53
90.00000000000001
 43
0.0
 44
0.0
 45
-0.1
 46
0.0
 79
     0
 98
        1
 10
0.0
 20
0.0
  0
HATCH
  5
377
330
1F
100
AcDbEntity
  8
1
  6
Continuous
 62
     4
100
AcDbHatch
 10
0.0
 20
0.0
 30
0.0
210
0.0
220
0.0
230
1.0
  2
_USER
 70
     0
 71
     1
 91
        2
 92
        1
 93
        8
 72
     1
 10
54.8114245298679
 20
70.0000000000124
 11
53.7767506623868
 21
70.0000000000124
 72
     1
 10
53.7767506623868
 20
70.0000000000124
 11
53.5034923842938
 21
70.4554304635004
 72
     1
 10
53.5034923842938
 20
70.4554304635004
 11
51.9795411214057
 21
70.4554304635004
 72
     1
 10
51.9795411214057
 20
70.4554304635004
 11
51.6835113201384
 21
70.0000000000124
 72
     1
 10
51.6835113201384
 20
70.0000000000124
 11
51.1118022150281
 21
70.0000000000124
 72
     1
 10
51.1118022150281
 20
70.0000000000124
 11
52.4071174293642
 21
71.9927926374524
 72
     1
 10
52.4071174293642
 20
71.9927926374524
 11
53.615748947404
 21
71.9927926374524
 72
     1
 10
53.615748947404
 20
71.9927926374524
 11
54.8114245298679
 21
70.0000000000124
 97
        8
330
166
330
15F
330
160
330
161
330
162
330
163
330
164
330
165
 92
       16
 93
        3
 72
     1
 10
52.1277408558313
 20
70.6834300549243
 11
52.7719957781076
 21
71.6745914738108
 72
     1
 10
52.7719957781076
 20
71.6745914738108
 11
53.3666926294396
 21
70.6834300549243
 72
     1
 10
53.3666926294396
 20
70.6834300549243
 11
52.1277408558313
 21
70.6834300549243
 97
        3
330
15C
330
15E
330
15D
 75
     1
 76
     0
 52
90.00000000000001
 41
0.1
 77
     0
 78
     1
 53
90.00000000000001
 43
0.0
 44
0.0
 45
-0.1
 46
0.0
 79
     0
 98
        1
 10
0.0
 20
0.0
  0
HATCH
  5
378
330
1F
100
AcDbEntity
  8
1
  6
Continuous
 62
     4
100
AcDbHatch
 10
0.0
 20
0.0
 30
0.0
210
0.0
220
0.0
230
1.0
  2
_USER
 70
     0
 71
     1
 91
        1
 92
        1
 93
       12
 72
     1
 10
47.9181179792313
 20
71.1388605184124
 11
49.4549114338234
 21
71.1388605184124
 72
     1
 10
49.4549114338234
 20
71.1388605184124
 11
49.4549114338234
 21
71.9927926374524
 72
     1
 10
49.4549114338234
 20
71.9927926374524
 11
50.3091279125434
 21
71.9927926374524
 72
     1
 10
50.3091279125434
 20
71.9927926374524
 11
50.3091279125434
 21
70.0000000000124
 72
     1
 10
50.3091279125434
 20
70.0000000000124
 11
49.4549114338234
 21
70.0000000000124
 72
     1
 10
49.4549114338234
 20
70.0000000000124
 11
49.4549114338234
 21
70.8539321190524
 72
     1
 10
49.4549114338234
 20
70.8539321190524
 11
47.9181179792313
 21
70.8539321190524
 72
     1
 10
47.9181179792313
 20
70.8539321190524
 11
47.9181179792313
 21
70.0000000000124
 72
     1
 10
47.9181179792313
 20
70.0000000000124
 11
47.0639015005113
 21
70.0000000000124
 72
     1
 10
47.0639015005113
 20
70.0000000000124
 11
47.0639015005113
 21
71.9927926374524
 72
     1
 10
47.0639015005113
 20
71.9927926374524
 11
47.9181179792313
 21
71.9927926374524
 72
     1
 10
47.9181179792313
 20
71.9927926374524
 11
47.9181179792313
 21
71.1388605184124
 97
       12
330
172
330
167
330
168
330
169
330
16A
330
16B
330
16C
330
16D
330
16E
330
16F
330
170
330
171
 75
     1
 76
     0
 52
90.00000000000001
 41
0.1
 77
     0
 78
     1
 53
90.00000000000001
 43
0.0
 44
0.0
 45
-0.1
 46
0.0
 79
     0
 98
        1
 10
0.0
 20
0.0
  0
HATCH
  5
379
330
1F
100
AcDbEntity
  8
1
  6
Continuous
 62
     4
100
AcDbHatch
 10
0.0
 20
0.0
 30
0.0
210
0.0
220
0.0
230
1.0
  2
_USER
 70
     0
 71
     1
 91
        1
 92
        1
 93
        4
 72
     1
 10
44.9999999999878
 20
71.9875000000124
 11
43.4999999999878
 21
71.9875000000124
 72
     1
 10
43.4999999999878
 20
71.9875000000124
 11
43.4999999999878
 21
68.0125000000123
 72
     1
 10
43.4999999999878
 20
68.0125000000123
 11
44.9999999999878
 21
68.0125000000123
 72
     1
 10
44.9999999999878
 20
68.0125000000123
 11
44.9999999999878
 21
71.9875000000124
 97
        4
330
174
330
173
330
176
330
175
 75
     1
 76
     0
 52
90.00000000000001
 41
0.1
 77
     0
 78
     1
 53
90.00000000000001
 43
0.0
 44
0.0
 45
-0.1
 46
0.0
 79
     0
 98
        1
 10
0.0
 20
0.0
  0
HATCH
  5
37A
330
1F
100
AcDbEntity
  8
1
  6
Continuous
 62
     4
100
AcDbHatch
 10
0.0
 20
0.0
 30
0.0
210
0.0
220
0.0
230
1.0
  2
_USER
 70
     0
 71
     1
 91
        1
 92
        1
 93
        4
 72
     1
 10
42.7499999999878
 20
71.9875000000124
 11
41.2499999999878
 21
71.9875000000124
 72
     1
 10
41.2499999999878
 20
71.9875000000124
 11
41.2499999999878
 21
68.0125000000123
 72
     1
 10
41.2499999999878
 20
68.0125000000123
 11
42.7499999999878
 21
68.0125000000123
 72
     1
 10
42.7499999999878
 20
68.0125000000123
 11
42.7499999999878
 21
71.9875000000124
 97
        4
330
178
330
177
330
17A
330
179
 75
     1
 76
     0
 52
90.00000000000001
 41
0.1
 77
     0
 78
     1
 53
90.00000000000001
 43
0.0
 44
0.0
 45
-0.1
 46
0.0
 79
     0
 98
        1
 10
0.0
 20
0.0
  0
HATCH
  5
37B
330
1F
100
AcDbEntity
  8
1
  6
Continuous
 62
     4
100
AcDbHatch
 10
0.0
 20
0.0
 30
0.0
210
0.0
220
0.0
230
1.0
  2
_USER
 70
     0
 71
     1
 91
        1
 92
        1
 93
        4
 72
     1
 10
40.4999999999878
 20
71.9875000000124
 11
38.9999999999878
 21
71.9875000000124
 72
     1
 10
38.9999999999878
 20
71.9875000000124
 11
38.9999999999878
 21
68.0125000000123
 72
     1
 10
38.9999999999878
 20
68.0125000000123
 11
40.4999999999878
 21
68.0125000000123
 72
     1
 10
40.4999999999878
 20
68.0125000000123
 11
40.4999999999878
 21
71.9875000000124
 97
        4
330
17C
330
17B
330
17E
330
17D
 75
     1
 76
     0
 52
90.00000000000001
 41
0.1
 77
     0
 78
     1
 53
90.00000000000001
 43
0.0
 44
0.0
 45
-0.1
 46
0.0
 79
     0
 98
        1
 10
0.0
 20
0.0
  0
HATCH
  5
37C
330
1F
100
AcDbEntity
  8
1
  6
Continuous
 62
     4
100
AcDbHatch
 10
0.0
 20
0.0
 30
0.0
210
0.0
220
0.0
230
1.0
  2
_USER
 70
     0
 71
     1
 91
        1
 92
        1
 93
       14
 72
     1
 10
36.5999999999878
 20
71.5000000000124
 11
36.5999999999878
 21
68.9000000000124
 72
     2
 10
34.5999999999878
 20
68.9000000000124
 40
2.0
 50
0.0
 51
90.0
 73
     0
 72
     1
 10
34.5999999999878
 20
66.9000000000124
 11
32.9999999999878
 21
66.9000000000124
 72
     1
 10
32.9999999999878
 20
66.9000000000124
 11
32.9999999999878
 21
66.0000000000124
 72
     1
 10
32.9999999999878
 20
66.0000000000124
 11
29.9999999999878
 21
67.4000000000124
 72
     1
 10
29.9999999999878
 20
67.4000000000124
 11
32.9999999999878
 21
68.8000000000123
 72
     1
 10
32.9999999999878
 20
68.8000000000123
 11
32.9999999999878
 21
67.9000000000124
 72
     1
 10
32.9999999999878
 20
67.9000000000124
 11
34.3999999999877
 21
67.9000000000124
 72
     2
 10
34.3999999999877
 20
69.1000000000124
 40
1.200000000000003
 50
270.0
 51
360.0
 73
     1
 72
     1
 10
35.5999999999878
 20
69.1000000000124
 11
35.5999999999878
 21
71.5000000000124
 72
     1
 10
35.5999999999878
 20
71.5000000000124
 11
34.6999999999878
 21
71.5000000000124
 72
     1
 10
34.6999999999878
 20
71.5000000000124
 11
36.0999999999878
 21
74.5000000000124
 72
     1
 10
36.0999999999878
 20
74.5000000000124
 11
37.4999999999878
 21
71.5000000000124
 72
     1
 10
37.4999999999878
 20
71.5000000000124
 11
36.5999999999878
 21
71.5000000000124
 97
       14
330
184
330
185
330
187
330
188
330
2E6
330
183
330
181
330
17F
330
180
330
182
330
18A
330
2E7
330
189
330
186
 75
     1
 76
     0
 52
90.00000000000001
 41
0.1
 77
     0
 78
     1
 53
90.00000000000001
 43
0.0
 44
0.0
 45
-0.1
 46
0.0
 79
     0
 98
        1
 10
0.0
 20
0.0
  0
HATCH
  5
37D
330
1F
100
AcDbEntity
  8
1
  6
Continuous
 62
     4
100
AcDbHatch
 10
0.0
 20
0.0
 30
0.0
210
0.0
220
0.0
230
1.0
  2
_USER
 70
     0
 71
     1
 91
        1
 92
        1
 93
        1
 72
     2
 10
65.3097266238394
 20
72.8465825766524
 40
0.6263590671360078
 50
0.0
 51
360.0
 73
     1
 97
        1
330
36A
 75
     1
 76
     0
 52
90.00000000000001
 41
0.1
 77
     0
 78
     1
 53
90.00000000000001
 43
0.0
 44
0.0
 45
-0.1
 46
0.0
 79
     0
 98
        1
 10
0.0
 20
0.0
  0
ENDSEC
  0
SECTION
  2
OBJECTS
  0
DICTIONARY
  5
C
330
0
100
AcDbDictionary
281
     1
  3
ACAD_GROUP
350
D
  3
ACAD_LAYOUT
350
1A
  3
ACAD_MATERIAL
350
43
  3
ACAD_MLEADERSTYLE
350
380
  3
ACAD_MLINESTYLE
350
17
  3
ACAD_PLOTSETTINGS
350
19
  3
ACAD_PLOTSTYLENAME
350
E
  3
ACAD_SCALELIST
350
47
  3
ACAD_VISUALSTYLE
350
2A
  3
AcDbVariableDictionary
350
37E
  0
DICTIONARY
  5
D
102
{ACAD_REACTORS
330
C
102
}
330
C
100
AcDbDictionary
281
     1
  0
DICTIONARY
  5
1A
102
{ACAD_REACTORS
330
C
102
}
330
C
100
AcDbDictionary
281
     1
  3
Layout1
350
1E
  3
Layout2
350
26
  3
Model
350
22
  0
DICTIONARY
  5
43
102
{ACAD_REACTORS
330
C
102
}
330
C
100
AcDbDictionary
281
     1
  3
ByBlock
350
45
  3
ByLayer
350
44
  3
Global
350
46
  0
DICTIONARY
  5
380
102
{ACAD_REACTORS
330
C
102
}
330
C
100
AcDbDictionary
281
     1
  0
DICTIONARY
  5
17
102
{ACAD_REACTORS
330
C
102
}
330
C
100
AcDbDictionary
281
     1
  3
Standard
350
18
  0
DICTIONARY
  5
19
102
{ACAD_REACTORS
330
C
102
}
330
C
100
AcDbDictionary
281
     1
  0
ACDBDICTIONARYWDFLT
  5
E
102
{ACAD_REACTORS
330
C
102
}
330
C
100
AcDbDictionary
281
     1
  3
Normal
350
F
100
AcDbDictionaryWithDefault
340
F
  0
DICTIONARY
  5
47
102
{ACAD_REACTORS
330
C
102
}
330
C
100
AcDbDictionary
281
     1
  3
A0
350
48
  3
A1
350
49
  3
A2
350
4A
  3
A3
350
4B
  3
A4
350
4C
  3
A5
350
4D
  3
A6
350
4E
  3
A7
350
4F
  3
A8
350
50
  3
A9
350
51
  3
B0
350
52
  3
B1
350
53
  3
B2
350
54
  3
B3
350
55
  3
B4
350
56
  3
B5
350
57
  3
B6
350
58
  3
B7
350
59
  3
B8
350
5A
  3
B9
350
5B
  3
C0
350
5C
  3
C1
350
5D
  3
C2
350
5E
  3
C3
350
5F
  3
C4
350
60
  3
C5
350
61
  3
C6
350
62
  3
C7
350
63
  3
C8
350
64
  3
C9
350
65
  3
D0
350
66
  3
D1
350
67
  3
D2
350
68
  0
DICTIONARY
  5
2A
102
{ACAD_REACTORS
330
C
102
}
330
C
100
AcDbDictionary
281
     1
  3
2dWireframe
350
2F
  3
Basic
350
32
  3
Brighten
350
36
  3
ColorChange
350
3A
  3
Conceptual
350
34
  3
Dim
350
35
  3
EdgeColorOff
350
3D
  3
Facepattern
350
39
  3
Flat
350
2B
  3
FlatWithEdges
350
2C
  3
Gouraud
350
2D
  3
GouraudWithEdges
350
2E
  3
Hidden
350
31
  3
JitterOff
350
3B
  3
Linepattern
350
38
  3
OverhangOff
350
3C
  3
Realistic
350
33
  3
Shaded
350
42
  3
Shaded with edges
350
41
  3
Shades of Gray
350
3E
  3
Sketchy
350
3F
  3
Thicken
350
37
  3
Wireframe
350
30
  3
X-Ray
350
40
  0
DICTIONARY
  5
37E
102
{ACAD_REACTORS
330
C
102
}
330
C
100
AcDbDictionary
281
     1
  3
CANNOSCALE
350
385
  3
DIMASSOC
350
383
  3
HIDETEXT
350
384
  3
MSLTSCALE
350
386
  0
LAYOUT
  5
1E
102
{ACAD_REACTORS
330
1A
102
}
330
1A
100
AcDbPlotSettings
  1

  2
none_device
  4

  6

 40
0.0
 41
0.0
 42
0.0
 43
0.0
 44
0.0
 45
0.0
 46
0.0
 47
0.0
 48
0.0
 49
0.0
140
0.0
141
0.0
142
1.0
143
1.0
 70
   688
 72
     0
 73
     0
 74
     5
  7

 75
    16
147
1.0
148
0.0
149
0.0
100
AcDbLayout
  1
Layout1
 70
     1
 71
     1
 10
0.0
 20
0.0
 11
12.0
 21
9.0
 12
0.0
 22
0.0
 32
0.0
 14
1.00000000000000E+20
 24
1.00000000000000E+20
 34
1.00000000000000E+20
 15
-1.00000000000000E+20
 25
-1.00000000000000E+20
 35
-1.00000000000000E+20
146
0.0
 13
0.0
 23
0.0
 33
0.0
 16
1.0
 26
0.0
 36
0.0
 17
0.0
 27
1.0
 37
0.0
 76
     0
330
1B
  0
LAYOUT
  5
26
102
{ACAD_REACTORS
330
1A
102
}
330
1A
100
AcDbPlotSettings
  1

  2
none_device
  4

  6

 40
0.0
 41
0.0
 42
0.0
 43
0.0
 44
0.0
 45
0.0
 46
0.0
 47
0.0
 48
0.0
 49
0.0
140
0.0
141
0.0
142
1.0
143
1.0
 70
   688
 72
     0
 73
     0
 74
     5
  7

 75
    16
147
1.0
148
0.0
149
0.0
100
AcDbLayout
  1
Layout2
 70
     1
 71
     2
 10
0.0
 20
0.0
 11
0.0
 21
0.0
 12
0.0
 22
0.0
 32
0.0
 14
0.0
 24
0.0
 34
0.0
 15
0.0
 25
0.0
 35
0.0
146
0.0
 13
0.0
 23
0.0
 33
0.0
 16
1.0
 26
0.0
 36
0.0
 17
0.0
 27
1.0
 37
0.0
 76
     0
330
23
  0
LAYOUT
  5
22
102
{ACAD_REACTORS
330
1A
102
}
330
1A
100
AcDbPlotSettings
  1

  2
none_device
  4
Letter_(8.50_x_11.00_Inches)
  6

 40
6.35
 41
6.35
 42
6.35000508
 43
6.35000508
 44
215.9
 45
279.4
 46
0.0
 47
0.0
 48
0.0
 49
0.0
140
0.0
141
0.0
142
1.0
143
1.0
 70
  1712
 72
     0
 73
     0
 74
     0
  7

 75
     0
147
1.0
148
0.0
149
0.0
100
AcDbLayout
  1
Model
 70
     1
 71
     0
 10
0.0
 20
0.0
 11
12.0
 21
9.0
 12
0.0
 22
0.0
 32
0.0
 14
-102.500000000012
 24
-32.1387041432245
 34
0.0
 15
82.0027242016933
 25
107.000000000012
 35
0.0
146
0.0
 13
0.0
 23
0.0
 33
0.0
 16
1.0
 26
0.0
 36
0.0
 17
0.0
 27
1.0
 37
0.0
 76
     0
330
1F
331
29
  0
MATERIAL
  5
45
102
{ACAD_REACTORS
330
43
102
}
102
{ACAD_XDICTIONARY
360
3B9
102
}
330
43
100
AcDbMaterial
  1
ByBlock
  0
MATERIAL
  5
44
102
{ACAD_REACTORS
330
43
102
}
102
{ACAD_XDICTIONARY
360
3B7
102
}
330
43
100
AcDbMaterial
  1
ByLayer
  0
MATERIAL
  5
46
102
{ACAD_REACTORS
330
43
102
}
102
{ACAD_XDICTIONARY
360
3BB
102
}
330
43
100
AcDbMaterial
  1
Global
  0
MLINESTYLE
  5
18
102
{ACAD_REACTORS
330
17
102
}
330
17
100
AcDbMlineStyle
  2
Standard
 70
     0
  3

 62
   256
 51
90.0
 52
90.0
 71
     2
 49
0.5
 62
   256
  6
BYLAYER
 49
-0.5
 62
   256
  6
BYLAYER
  0
ACDBPLACEHOLDER
  5
F
102
{ACAD_REACTORS
330
E
102
}
330
E
  0
SCALE
  5
48
102
{ACAD_REACTORS
330
47
102
}
330
47
100
AcDbScale
 70
     0
300
1:1
140
1.0
141
1.0
290
     1
  0
SCALE
  5
49
102
{ACAD_REACTORS
330
47
102
}
330
47
100
AcDbScale
 70
     0
300
1:2
140
1.0
141
2.0
290
     0
  0
SCALE
  5
4A
102
{ACAD_REACTORS
330
47
102
}
330
47
100
AcDbScale
 70
     0
300
1:4
140
1.0
141
4.0
290
     0
  0
SCALE
  5
4B
102
{ACAD_REACTORS
330
47
102
}
330
47
100
AcDbScale
 70
     0
300
1:5
140
1.0
141
5.0
290
     0
  0
SCALE
  5
4C
102
{ACAD_REACTORS
330
47
102
}
330
47
100
AcDbScale
 70
     0
300
1:8
140
1.0
141
8.0
290
     0
  0
SCALE
  5
4D
102
{ACAD_REACTORS
330
47
102
}
330
47
100
AcDbScale
 70
     0
300
1:10
140
1.0
141
10.0
290
     0
  0
SCALE
  5
4E
102
{ACAD_REACTORS
330
47
102
}
330
47
100
AcDbScale
 70
     0
300
1:16
140
1.0
141
16.0
290
     0
  0
SCALE
  5
4F
102
{ACAD_REACTORS
330
47
102
}
330
47
100
AcDbScale
 70
     0
300
1:20
140
1.0
141
20.0
290
     0
  0
SCALE
  5
50
102
{ACAD_REACTORS
330
47
102
}
330
47
100
AcDbScale
 70
     0
300
1:30
140
1.0
141
30.0
290
     0
  0
SCALE
  5
51
102
{ACAD_REACTORS
330
47
102
}
330
47
100
AcDbScale
 70
     0
300
1:40
140
1.0
141
40.0
290
     0
  0
SCALE
  5
52
102
{ACAD_REACTORS
330
47
102
}
330
47
100
AcDbScale
 70
     0
300
1:50
140
1.0
141
50.0
290
     0
  0
SCALE
  5
53
102
{ACAD_REACTORS
330
47
102
}
330
47
100
AcDbScale
 70
     0
300
1:100
140
1.0
141
100.0
290
     0
  0
SCALE
  5
54
102
{ACAD_REACTORS
330
47
102
}
330
47
100
AcDbScale
 70
     0
300
2:1
140
2.0
141
1.0
290
     0
  0
SCALE
  5
55
102
{ACAD_REACTORS
330
47
102
}
330
47
100
AcDbScale
 70
     0
300
4:1
140
4.0
141
1.0
290
     0
  0
SCALE
  5
56
102
{ACAD_REACTORS
330
47
102
}
330
47
100
AcDbScale
 70
     0
300
8:1
140
8.0
141
1.0
290
     0
  0
SCALE
  5
57
102
{ACAD_REACTORS
330
47
102
}
330
47
100
AcDbScale
 70
     0
300
10:1
140
10.0
141
1.0
290
     0
  0
SCALE
  5
58
102
{ACAD_REACTORS
330
47
102
}
330
47
100
AcDbScale
 70
     0
300
100:1
140
100.0
141
1.0
290
     0
  0
SCALE
  5
59
102
{ACAD_REACTORS
330
47
102
}
330
47
100
AcDbScale
 70
     0
300
1/128" = 1'-0"
140
0.0078125
141
12.0
290
     0
  0
SCALE
  5
5A
102
{ACAD_REACTORS
330
47
102
}
330
47
100
AcDbScale
 70
     0
300
1/64" = 1'-0"
140
0.015625
141
12.0
290
     0
  0
SCALE
  5
5B
102
{ACAD_REACTORS
330
47
102
}
330
47
100
AcDbScale
 70
     0
300
1/32" = 1'-0"
140
0.03125
141
12.0
290
     0
  0
SCALE
  5
5C
102
{ACAD_REACTORS
330
47
102
}
330
47
100
AcDbScale
 70
     0
300
1/16" = 1'-0"
140
0.0625
141
12.0
290
     0
  0
SCALE
  5
5D
102
{ACAD_REACTORS
330
47
102
}
330
47
100
AcDbScale
 70
     0
300
3/32" = 1'-0"
140
0.09375
141
12.0
290
     0
  0
SCALE
  5
5E
102
{ACAD_REACTORS
330
47
102
}
330
47
100
AcDbScale
 70
     0
300
1/8" = 1'-0"
140
0.125
141
12.0
290
     0
  0
SCALE
  5
5F
102
{ACAD_REACTORS
330
47
102
}
330
47
100
AcDbScale
 70
     0
300
3/16" = 1'-0"
140
0.1875
141
12.0
290
     0
  0
SCALE
  5
60
102
{ACAD_REACTORS
330
47
102
}
330
47
100
AcDbScale
 70
     0
300
1/4" = 1'-0"
140
0.25
141
12.0
290
     0
  0
SCALE
  5
61
102
{ACAD_REACTORS
330
47
102
}
330
47
100
AcDbScale
 70
     0
300
3/8" = 1'-0"
140
0.375
141
12.0
290
     0
  0
SCALE
  5
62
102
{ACAD_REACTORS
330
47
102
}
330
47
100
AcDbScale
 70
     0
300
1/2" = 1'-0"
140
0.5
141
12.0
290
     0
  0
SCALE
  5
63
102
{ACAD_REACTORS
330
47
102
}
330
47
100
AcDbScale
 70
     0
300
3/4" = 1'-0"
140
0.75
141
12.0
290
     0
  0
SCALE
  5
64
102
{ACAD_REACTORS
330
47
102
}
330
47
100
AcDbScale
 70
     0
300
1" = 1'-0"
140
1.0
141
12.0
290
     0
  0
SCALE
  5
65
102
{ACAD_REACTORS
330
47
102
}
330
47
100
AcDbScale
 70
     0
300
1-1/2" = 1'-0"
140
1.5
141
12.0
290
     0
  0
SCALE
  5
66
102
{ACAD_REACTORS
330
47
102
}
330
47
100
AcDbScale
 70
     0
300
3" = 1'-0"
140
3.0
141
12.0
290
     0
  0
SCALE
  5
67
102
{ACAD_REACTORS
330
47
102
}
330
47
100
AcDbScale
 70
     0
300
6" = 1'-0"
140
6.0
141
12.0
290
     0
  0
SCALE
  5
68
102
{ACAD_REACTORS
330
47
102
}
330
47
100
AcDbScale
 70
     0
300
1'-0" = 1'-0"
140
12.0
141
12.0
290
     0
  0
VISUALSTYLE
  5
2F
102
{ACAD_REACTORS
330
2A
102
}
102
{ACAD_XDICTIONARY
360
38F
102
}
330
2A
100
AcDbVisualStyle
  2
2dWireframe
 70
     4
 71
     0
 72
     2
 73
     0
 90
        0
 40
0.6
 41
30.0
 62
     5
 63
     7
 74
     1
 91
        4
 64
     7
 65
   257
 75
     1
175
     1
 42
1.0
 92
        0
 66
   257
 43
1.0
 76
     1
 77
     6
 78
     2
 67
     7
 79
     5
170
     0
171
     0
290
     0
174
     0
 93
        1
 44
0.0
173
     0
291
     0
 45
0.0
1001
ACAD
1000
AcDbSavedByObjectVersion
1070
     0
  0
VISUALSTYLE
  5
32
102
{ACAD_REACTORS
330
2A
102
}
102
{ACAD_XDICTIONARY
360
395
102
}
330
2A
100
AcDbVisualStyle
  2
Basic
 70
     7
 71
     1
 72
     0
 73
     1
 90
        0
 40
0.6
 41
30.0
 62
     5
 63
     7
 74
     0
 91
        4
 64
     7
 65
   257
 75
     1
175
     1
 42
1.0
 92
        8
 66
     7
 43
1.0
 76
     1
 77
     6
 78
     2
 67
     7
 79
     5
170
     0
171
     0
290
     0
174
     0
 93
        1
 44
0.0
173
     0
291
     1
 45
0.0
1001
ACAD
1000
AcDbSavedByObjectVersion
1070
     0
  0
VISUALSTYLE
  5
36
102
{ACAD_REACTORS
330
2A
102
}
102
{ACAD_XDICTIONARY
360
39D
102
}
330
2A
100
AcDbVisualStyle
  2
Brighten
 70
    12
 71
     2
 72
     2
 73
     0
 90
        0
 40
0.6
 41
30.0
 62
     5
 63
     7
 74
     1
 91
        4
 64
     7
 65
   257
 75
     1
175
     1
 42
1.0
 92
        8
 66
     7
 43
1.0
 76
     1
 77
     6
 78
     2
 67
     7
 79
     5
170
     0
171
     0
290
     0
174
     0
 93
        1
 44
50.0
173
     0
291
     1
 45
0.0
1001
ACAD
1000
AcDbSavedByObjectVersion
1070
     0
  0
VISUALSTYLE
  5
3A
102
{ACAD_REACTORS
330
2A
102
}
102
{ACAD_XDICTIONARY
360
3A5
102
}
330
2A
100
AcDbVisualStyle
  2
ColorChange
 70
    16
 71
     2
 72
     2
 73
     3
 90
        0
 40
0.6
 41
30.0
 62
     5
 63
     8
 74
     1
 91
        4
 64
     7
 65
   257
 75
     1
175
     1
 42
1.0
 92
        8
 66
     8
 43
1.0
 76
     1
 77
     6
 78
     2
 67
     7
 79
     5
170
     0
171
     0
290
     0
174
     0
 93
        1
 44
0.0
173
     0
291
     1
 45
0.0
1001
ACAD
1000
AcDbSavedByObjectVersion
1070
     0
  0
VISUALSTYLE
  5
34
102
{ACAD_REACTORS
330
2A
102
}
102
{ACAD_XDICTIONARY
360
399
102
}
330
2A
100
AcDbVisualStyle
  2
Conceptual
 70
     9
 71
     3
 72
     2
 73
     0
 90
        0
 40
0.6
 41
30.0
 62
     5
 63
     7
 74
     2
 91
        2
 64
     7
 65
   257
 75
     1
175
     1
 42
179.0
 92
        8
 66
     7
 43
1.0
 76
     1
 77
     6
 78
     2
 67
     7
 79
     3
170
     0
171
     0
290
     0
174
     0
 93
        1
 44
0.0
173
     0
291
     0
 45
0.0
1001
ACAD
1000
AcDbSavedByObjectVersion
1070
     0
  0
VISUALSTYLE
  5
35
102
{ACAD_REACTORS
330
2A
102
}
102
{ACAD_XDICTIONARY
360
39B
102
}
330
2A
100
AcDbVisualStyle
  2
Dim
 70
    11
 71
     2
 72
     2
 73
     0
 90
        0
 40
0.6
 41
30.0
 62
     5
 63
     7
 74
     1
 91
        4
 64
     7
 65
   257
 75
     1
175
     1
 42
1.0
 92
        8
 66
     7
 43
1.0
 76
     1
 77
     6
 78
     2
 67
     7
 79
     5
170
     0
171
     0
290
     0
174
     0
 93
        1
 44
-50.0
173
     0
291
     1
 45
0.0
1001
ACAD
1000
AcDbSavedByObjectVersion
1070
     0
  0
VISUALSTYLE
  5
3D
102
{ACAD_REACTORS
330
2A
102
}
102
{ACAD_XDICTIONARY
360
3AB
102
}
330
2A
100
AcDbVisualStyle
  2
EdgeColorOff
 70
    22
 71
     2
 72
     2
 73
     0
 90
        0
 40
0.6
 41
30.0
 62
     5
 63
     7
 74
     1
 91
        4
 64
     7
 65
   257
 75
     1
175
     1
 42
1.0
 92
        8
 66
     7
 43
1.0
 76
     1
 77
     6
 78
     2
 67
     7
 79
     5
170
     0
171
     0
290
     0
174
     0
 93
        1
 44
0.0
173
     0
291
     1
 45
0.0
1001
ACAD
1000
AcDbSavedByObjectVersion
1070
     0
  0
VISUALSTYLE
  5
39
102
{ACAD_REACTORS
330
2A
102
}
102
{ACAD_XDICTIONARY
360
3A3
102
}
330
2A
100
AcDbVisualStyle
  2
Facepattern
 70
    15
 71
     2
 72
     2
 73
     0
 90
        0
 40
0.6
 41
30.0
 62
     5
 63
     7
 74
     1
 91
        4
 64
     7
 65
   257
 75
     1
175
     1
 42
1.0
 92
        8
 66
     7
 43
1.0
 76
     1
 77
     6
 78
     2
 67
     7
 79
     5
170
     0
171
     0
290
     0
174
     0
 93
        1
 44
0.0
173
     0
291
     1
 45
0.0
1001
ACAD
1000
AcDbSavedByObjectVersion
1070
     0
  0
VISUALSTYLE
  5
2B
102
{ACAD_REACTORS
330
2A
102
}
102
{ACAD_XDICTIONARY
360
387
102
}
330
2A
100
AcDbVisualStyle
  2
Flat
 70
     0
 71
     2
 72
     1
 73
     1
 90
        2
 40
0.6
 41
30.0
 62
     5
 63
     7
 74
     0
 91
        0
 64
     7
 65
   257
 75
     1
175
     1
 42
1.0
 92
        8
 66
     7
 43
1.0
 76
     1
 77
     6
 78
     2
 67
     7
 79
     5
170
     0
171
     0
290
     0
174
     0
 93
       13
 44
0.0
173
     0
291
     1
 45
0.0
1001
ACAD
1000
AcDbSavedByObjectVersion
1070
     0
  0
VISUALSTYLE
  5
2C
102
{ACAD_REACTORS
330
2A
102
}
102
{ACAD_XDICTIONARY
360
389
102
}
330
2A
100
AcDbVisualStyle
  2
FlatWithEdges
 70
     1
 71
     2
 72
     1
 73
     1
 90
        2
 40
0.6
 41
30.0
 62
     5
 63
     7
 74
     1
 91
        0
 64
     7
 65
   257
 75
     1
175
     1
 42
1.0
 92
        0
 66
   257
 43
1.0
 76
     1
 77
     6
 78
     2
 67
     7
 79
     5
170
     0
171
     0
290
     0
174
     0
 93
       13
 44
0.0
173
     0
291
     1
 45
0.0
1001
ACAD
1000
AcDbSavedByObjectVersion
1070
     0
  0
VISUALSTYLE
  5
2D
102
{ACAD_REACTORS
330
2A
102
}
102
{ACAD_XDICTIONARY
360
38B
102
}
330
2A
100
AcDbVisualStyle
  2
Gouraud
 70
     2
 71
     2
 72
     2
 73
     1
 90
        2
 40
0.6
 41
30.0
 62
     5
 63
     7
 74
     0
 91
        0
 64
     7
 65
   257
 75
     1
175
     1
 42
1.0
 92
        0
 66
     7
 43
1.0
 76
     1
 77
     6
 78
     2
 67
     7
 79
     5
170
     0
171
     0
290
     0
174
     0
 93
       13
 44
0.0
173
     0
291
     1
 45
0.0
1001
ACAD
1000
AcDbSavedByObjectVersion
1070
     0
  0
VISUALSTYLE
  5
2E
102
{ACAD_REACTORS
330
2A
102
}
102
{ACAD_XDICTIONARY
360
38D
102
}
330
2A
100
AcDbVisualStyle
  2
GouraudWithEdges
 70
     3
 71
     2
 72
     2
 73
     1
 90
        2
 40
0.6
 41
30.0
 62
     5
 63
     7
 74
     1
 91
        0
 64
     7
 65
   257
 75
     1
175
     1
 42
1.0
 92
        0
 66
   257
 43
1.0
 76
     1
 77
     6
 78
     2
 67
     7
 79
     5
170
     0
171
     0
290
     0
174
     0
 93
       13
 44
0.0
173
     0
291
     1
 45
0.0
1001
ACAD
1000
AcDbSavedByObjectVersion
1070
     0
  0
VISUALSTYLE
  5
31
102
{ACAD_REACTORS
330
2A
102
}
102
{ACAD_XDICTIONARY
360
393
102
}
330
2A
100
AcDbVisualStyle
  2
Hidden
 70
     6
 71
     1
 72
     2
 73
     2
 90
        0
 40
0.6
 41
30.0
 62
     5
 63
     7
 74
     2
 91
        2
 64
     7
 65
   257
 75
     2
175
     1
 42
40.0
 92
        0
 66
   257
 43
1.0
 76
     1
 77
     6
 78
     2
 67
     7
 79
     3
170
     0
171
     0
290
     0
174
     0
 93
        1
 44
0.0
173
     0
291
     0
 45
0.0
1001
ACAD
1000
AcDbSavedByObjectVersion
1070
     0
  0
VISUALSTYLE
  5
3B
102
{ACAD_REACTORS
330
2A
102
}
102
{ACAD_XDICTIONARY
360
3A7
102
}
330
2A
100
AcDbVisualStyle
  2
JitterOff
 70
    20
 71
     2
 72
     2
 73
     0
 90
        0
 40
0.6
 41
30.0
 62
     5
 63
     7
 74
     1
 91
        4
 64
     7
 65
   257
 75
     1
175
     1
 42
1.0
 92
       10
 66
     7
 43
1.0
 76
     1
 77
     6
 78
     2
 67
     7
 79
     5
170
     0
171
     0
290
     0
174
     0
 93
        1
 44
0.0
173
     0
291
     1
 45
0.0
1001
ACAD
1000
AcDbSavedByObjectVersion
1070
     0
  0
VISUALSTYLE
  5
38
102
{ACAD_REACTORS
330
2A
102
}
102
{ACAD_XDICTIONARY
360
3A1
102
}
330
2A
100
AcDbVisualStyle
  2
Linepattern
 70
    14
 71
     2
 72
     2
 73
     0
 90
        0
 40
0.6
 41
30.0
 62
     5
 63
     7
 74
     1
 91
        4
 64
     7
 65
   257
 75
     7
175
     7
 42
1.0
 92
        8
 66
     7
 43
1.0
 76
     1
 77
     6
 78
     2
 67
     7
 79
     5
170
     0
171
     0
290
     0
174
     0
 93
        1
 44
0.0
173
     0
291
     1
 45
0.0
1001
ACAD
1000
AcDbSavedByObjectVersion
1070
     0
  0
VISUALSTYLE
  5
3C
102
{ACAD_REACTORS
330
2A
102
}
102
{ACAD_XDICTIONARY
360
3A9
102
}
330
2A
100
AcDbVisualStyle
  2
OverhangOff
 70
    21
 71
     2
 72
     2
 73
     0
 90
        0
 40
0.6
 41
30.0
 62
     5
 63
     7
 74
     1
 91
        4
 64
     7
 65
   257
 75
     1
175
     1
 42
1.0
 92
        9
 66
     7
 43
1.0
 76
     1
 77
     6
 78
     2
 67
     7
 79
     5
170
     0
171
     0
290
     0
174
     0
 93
        1
 44
0.0
173
     0
291
     1
 45
0.0
1001
ACAD
1000
AcDbSavedByObjectVersion
1070
     0
  0
VISUALSTYLE
  5
33
102
{ACAD_REACTORS
330
2A
102
}
102
{ACAD_XDICTIONARY
360
397
102
}
330
2A
100
AcDbVisualStyle
  2
Realistic
 70
     8
 71
     2
 72
     3
 73
     0
 90
        2
 40
0.6
 41
30.0
 62
     5
 63
     7
 74
     0
 91
        0
 64
     7
 65
   257
 75
     1
175
     1
 42
1.0
 92
        8
 66
   257
 43
1.0
 76
     1
 77
     6
 78
     2
 67
     7
 79
     3
170
     0
171
     0
290
     0
174
     0
 93
       13
 44
0.0
173
     0
291
     0
 45
0.0
1001
ACAD
1000
AcDbSavedByObjectVersion
1070
     0
  0
VISUALSTYLE
  5
42
102
{ACAD_REACTORS
330
2A
102
}
102
{ACAD_XDICTIONARY
360
3B5
102
}
330
2A
100
AcDbVisualStyle
  2
Shaded
 70
    27
 71
     2
 72
     2
 73
     1
 90
        2
 40
0.6
 41
30.0
 62
     5
 63
     7
 74
     0
 91
        4
 64
     7
 65
   257
 75
     1
175
     1
 42
1.0
 92
        8
 66
   257
 43
1.0
 76
     1
 77
     6
 78
     2
 67
     8
 79
     3
170
     0
171
     0
290
     0
174
     0
 93
        5
 44
0.0
173
     0
291
     0
 45
0.0
1001
ACAD
1000
AcDbSavedByObjectVersion
1070
     0
  0
VISUALSTYLE
  5
41
102
{ACAD_REACTORS
330
2A
102
}
102
{ACAD_XDICTIONARY
360
3B3
102
}
330
2A
100
AcDbVisualStyle
  2
Shaded with edges
 70
    26
 71
     2
 72
     2
 73
     1
 90
        2
 40
0.6
 41
30.0
 62
     5
 63
     7
 74
     1
 91
       10
 64
     7
 65
   257
 75
     2
175
     1
 42
1.0
 92
        8
 66
   257
 43
1.0
 76
     1
 77
     6
 78
     2
 67
     7
 79
     3
170
     0
171
     0
290
     0
174
     0
 93
        5
 44
0.0
173
     0
291
     0
 45
0.0
1001
ACAD
1000
AcDbSavedByObjectVersion
1070
     0
  0
VISUALSTYLE
  5
3E
102
{ACAD_REACTORS
330
2A
102
}
102
{ACAD_XDICTIONARY
360
3AD
102
}
330
2A
100
AcDbVisualStyle
  2
Shades of Gray
 70
    23
 71
     2
 72
     2
 73
     3
 90
        0
 40
0.6
 41
30.0
 62
     5
 63
     7
 74
     2
 91
        2
 64
     7
 65
     7
 75
     1
175
     1
 42
40.0
 92
        8
 66
     7
 43
1.0
 76
     1
 77
     6
 78
     2
 67
     7
 79
     3
170
     0
171
     0
290
     0
174
     0
 93
        1
 44
0.0
173
     0
291
     0
 45
0.0
1001
ACAD
1000
AcDbSavedByObjectVersion
1070
     0
  0
VISUALSTYLE
  5
3F
102
{ACAD_REACTORS
330
2A
102
}
102
{ACAD_XDICTIONARY
360
3AF
102
}
330
2A
100
AcDbVisualStyle
  2
Sketchy
 70
    24
 71
     1
 72
     2
 73
     2
 90
        0
 40
0.6
 41
30.0
 62
     5
 63
     7
 74
     2
 91
        2
 64
     7
 65
     7
 75
     1
175
     1
 42
40.0
 92
       11
 66
     7
 43
1.0
 76
     1
 77
     6
 78
     2
 67
     7
 79
     6
170
     0
171
     0
290
     0
174
     0
 93
        1
 44
0.0
173
     0
291
     0
 45
0.0
1001
ACAD
1000
AcDbSavedByObjectVersion
1070
     0
  0
VISUALSTYLE
  5
37
102
{ACAD_REACTORS
330
2A
102
}
102
{ACAD_XDICTIONARY
360
39F
102
}
330
2A
100
AcDbVisualStyle
  2
Thicken
 70
    13
 71
     2
 72
     2
 73
     0
 90
        0
 40
0.6
 41
30.0
 62
     5
 63
     7
 74
     1
 91
        4
 64
     7
 65
   257
 75
     1
175
     1
 42
1.0
 92
       12
 66
     7
 43
1.0
 76
     1
 77
     6
 78
     2
 67
     7
 79
     5
170
     0
171
     0
290
     0
174
     0
 93
        1
 44
0.0
173
     0
291
     1
 45
0.0
1001
ACAD
1000
AcDbSavedByObjectVersion
1070
     0
  0
VISUALSTYLE
  5
30
102
{ACAD_REACTORS
330
2A
102
}
102
{ACAD_XDICTIONARY
360
391
102
}
330
2A
100
AcDbVisualStyle
  2
Wireframe
 70
     5
 71
     0
 72
     2
 73
     0
 90
        0
 40
0.6
 41
30.0
 62
     5
 63
     7
 74
     1
 91
        4
 64
     7
 65
   257
 75
     1
175
     1
 42
1.0
 92
        0
 66
   257
 43
1.0
 76
     1
 77
     6
 78
     2
 67
     7
 79
     3
170
     0
171
     0
290
     0
174
     0
 93
        1
 44
0.0
173
     0
291
     0
 45
0.0
1001
ACAD
1000
AcDbSavedByObjectVersion
1070
     0
  0
VISUALSTYLE
  5
40
102
{ACAD_REACTORS
330
2A
102
}
102
{ACAD_XDICTIONARY
360
3B1
102
}
330
2A
100
AcDbVisualStyle
  2
X-Ray
 70
    25
 71
     2
 72
     2
 73
     1
 90
        1
 40
0.5
 41
30.0
 62
     5
 63
     7
 74
     1
 91
        0
 64
     7
 65
   257
 75
     1
175
     1
 42
1.0
 92
        8
 66
     7
 43
1.0
 76
     1
 77
     6
 78
     2
 67
     7
 79
     3
170
     0
171
     0
290
     0
174
     0
 93
       13
 44
0.0
173
     0
291
     0
 45
0.0
1001
ACAD
1000
AcDbSavedByObjectVersion
1070
     0
  0
DICTIONARYVAR
  5
385
102
{ACAD_REACTORS
330
37E
102
}
330
37E
100
DictionaryVariables
280
     0
  1
1:1
  0
DICTIONARYVAR
  5
383
102
{ACAD_REACTORS
330
37E
102
}
330
37E
100
DictionaryVariables
280
     0
  1
2
  0
DICTIONARYVAR
  5
384
102
{ACAD_REACTORS
330
37E
102
}
330
37E
100
DictionaryVariables
280
     0
  1
1
  0
DICTIONARYVAR
  5
386
102
{ACAD_REACTORS
330
37E
102
}
330
37E
100
DictionaryVariables
280
     0
  1
1
  0
DICTIONARY
  5
3B9
330
45
100
AcDbDictionary
280
     1
281
     1
  3
ACAD_XREC_ROUNDTRIP
360
3BA
  0
DICTIONARY
  5
3B7
330
44
100
AcDbDictionary
280
     1
281
     1
  3
ACAD_XREC_ROUNDTRIP
360
3B8
  0
DICTIONARY
  5
3BB
330
46
100
AcDbDictionary
280
     1
281
     1
  3
ACAD_XREC_ROUNDTRIP
360
3BC
  0
DICTIONARY
  5
38F
330
2F
100
AcDbDictionary
280
     1
281
     1
  3
ACAD_XREC_ROUNDTRIP
360
390
  0
DICTIONARY
  5
395
330
32
100
AcDbDictionary
280
     1
281
     1
  3
ACAD_XREC_ROUNDTRIP
360
396
  0
DICTIONARY
  5
39D
330
36
100
AcDbDictionary
280
     1
281
     1
  3
ACAD_XREC_ROUNDTRIP
360
39E
  0
DICTIONARY
  5
3A5
330
3A
100
AcDbDictionary
280
     1
281
     1
  3
ACAD_XREC_ROUNDTRIP
360
3A6
  0
DICTIONARY
  5
399
330
34
100
AcDbDictionary
280
     1
281
     1
  3
ACAD_XREC_ROUNDTRIP
360
39A
  0
DICTIONARY
  5
39B
330
35
100
AcDbDictionary
280
     1
281
     1
  3
ACAD_XREC_ROUNDTRIP
360
39C
  0
DICTIONARY
  5
3AB
330
3D
100
AcDbDictionary
280
     1
281
     1
  3
ACAD_XREC_ROUNDTRIP
360
3AC
  0
DICTIONARY
  5
3A3
330
39
100
AcDbDictionary
280
     1
281
     1
  3
ACAD_XREC_ROUNDTRIP
360
3A4
  0
DICTIONARY
  5
387
330
2B
100
AcDbDictionary
280
     1
281
     1
  3
ACAD_XREC_ROUNDTRIP
360
388
  0
DICTIONARY
  5
389
330
2C
100
AcDbDictionary
280
     1
281
     1
  3
ACAD_XREC_ROUNDTRIP
360
38A
  0
DICTIONARY
  5
38B
330
2D
100
AcDbDictionary
280
     1
281
     1
  3
ACAD_XREC_ROUNDTRIP
360
38C
  0
DICTIONARY
  5
38D
330
2E
100
AcDbDictionary
280
     1
281
     1
  3
ACAD_XREC_ROUNDTRIP
360
38E
  0
DICTIONARY
  5
393
330
31
100
AcDbDictionary
280
     1
281
     1
  3
ACAD_XREC_ROUNDTRIP
360
394
  0
DICTIONARY
  5
3A7
330
3B
100
AcDbDictionary
280
     1
281
     1
  3
ACAD_XREC_ROUNDTRIP
360
3A8
  0
DICTIONARY
  5
3A1
330
38
100
AcDbDictionary
280
     1
281
     1
  3
ACAD_XREC_ROUNDTRIP
360
3A2
  0
DICTIONARY
  5
3A9
330
3C
100
AcDbDictionary
280
     1
281
     1
  3
ACAD_XREC_ROUNDTRIP
360
3AA
  0
DICTIONARY
  5
397
330
33
100
AcDbDictionary
280
     1
281
     1
  3
ACAD_XREC_ROUNDTRIP
360
398
  0
DICTIONARY
  5
3B5
330
42
100
AcDbDictionary
280
     1
281
     1
  3
ACAD_XREC_ROUNDTRIP
360
3B6
  0
DICTIONARY
  5
3B3
330
41
100
AcDbDictionary
280
     1
281
     1
  3
ACAD_XREC_ROUNDTRIP
360
3B4
  0
DICTIONARY
  5
3AD
330
3E
100
AcDbDictionary
280
     1
281
     1
  3
ACAD_XREC_ROUNDTRIP
360
3AE
  0
DICTIONARY
  5
3AF
330
3F
100
AcDbDictionary
280
     1
281
     1
  3
ACAD_XREC_ROUNDTRIP
360
3B0
  0
DICTIONARY
  5
39F
330
37
100
AcDbDictionary
280
     1
281
     1
  3
ACAD_XREC_ROUNDTRIP
360
3A0
  0
DICTIONARY
  5
391
330
30
100
AcDbDictionary
280
     1
281
     1
  3
ACAD_XREC_ROUNDTRIP
360
392
  0
DICTIONARY
  5
3B1
330
40
100
AcDbDictionary
280
     1
281
     1
  3
ACAD_XREC_ROUNDTRIP
360
3B2
  0
XRECORD
  5
3BA
102
{ACAD_REACTORS
330
3B9
102
}
330
3B9
100
AcDbXrecord
280
     1
102
MATERIAL
148
0.0
149
0.0
149
0.0
 93
        0
 94
      127
282
     0
 72
     1
 77
     1
171
     1
175
     1
179
     1
273
     0
  0
XRECORD
  5
3B8
102
{ACAD_REACTORS
330
3B7
102
}
330
3B7
100
AcDbXrecord
280
     1
102
MATERIAL
148
0.0
149
0.0
149
0.0
 93
        0
 94
      127
282
     0
 72
     1
 77
     1
171
     1
175
     1
179
     1
273
     0
  0
XRECORD
  5
3BC
102
{ACAD_REACTORS
330
3BB
102
}
330
3BB
100
AcDbXrecord
280
     1
102
MATERIAL
148
0.0
149
0.0
149
0.0
 93
        0
 94
      127
282
     0
 72
     1
 77
     1
171
     1
175
     1
179
     1
273
     0
  0
XRECORD
  5
390
102
{ACAD_REACTORS
330
38F
102
}
330
38F
100
AcDbXrecord
280
     1
102
RTVSPropertyOp0
 70
     1
102
RTVSPropertyOp1
 70
     1
102
RTVSPropertyOp2
 70
     1
102
RTVSPropertyOp3
 70
     1
102
RTVSPropertyOp4
 70
     1
102
RTVSPropertyOp5
 70
     1
102
RTVSPropertyOp6
 70
     1
102
RTVSPropertyOp7
 70
     1
102
RTVSPropertyOp8
 70
     1
102
RTVSPropertyOp9
 70
     1
102
RTVSPropertyOp10
 70
     1
102
RTVSPropertyOp11
 70
     1
102
RTVSPropertyOp12
 70
     1
102
RTVSPropertyOp13
 70
     1
102
RTVSPropertyOp14
 70
     1
102
RTVSPropertyOp15
 70
     1
102
RTVSPropertyOp16
 70
     1
102
RTVSPropertyOp17
 70
     1
102
RTVSPropertyOp18
 70
     1
102
RTVSPropertyOp19
 70
     1
102
RTVSPropertyOp20
 70
     1
102
RTVSPropertyOp21
 70
     1
102
RTVSPropertyOp22
 70
     1
102
RTVSPropertyOp23
 70
     1
102
RTVSPropertyOp24
 70
     1
102
RTVSPropertyOp25
 70
     1
102
RTVSPropertyOp26
 70
     1
102
RTVSPropertyOp27
 70
     1
102
RTVSPropertyOp28
 70
     1
102
RTVSPropertyOp29
 70
     1
102
RTVSPropertyOp30
 70
     1
102
RTVSPropertyOp31
 70
     1
102
RTVSPropertyOp32
 70
     1
102
RTVSPropertyOp33
 70
     1
102
RTVSPropertyOp34
 70
     1
102
RTVSPropertyOp35
 70
     1
102
RTVSPropertyOp36
 70
     1
102
RTVSPropertyOp37
 70
     1
102
RTVSPropertyOp38
 70
     1
102
RTVSPropertyOp39
 70
     1
102
RTVSPropertyOp40
 70
     1
102
RTVSPropertyOp41
 70
     1
102
RTVSPropertyOp42
 70
     1
102
RTVSPropertyOp43
 70
     1
102
RTVSPropertyOp44
 70
     1
102
RTVSPropertyOp45
 70
     1
102
RTVSPropertyOp46
 70
     1
102
RTVSPropertyOp47
 70
     1
102
RTVSPropertyOp48
 70
     1
102
RTVSPropertyOp49
 70
     1
102
RTVSPropertyOp50
 70
     1
102
RTVSPropertyOp51
 70
     0
102
RTVSPropertyOp52
 70
     0
102
RTVSPropertyOp53
 70
     1
102
RTVSPropertyOp54
 70
     1
102
RTVSPropertyOp55
 70
     1
102
RTVSPropertyOp56
 70
     1
102
RTVSPropertyOp57
 70
     1
102
RTVSPost2010Prop28
280
     1
102
RTVSPost2010PropOp28
 70
     1
102
RTVSPost2010Prop29
280
     1
102
RTVSPost2010PropOp29
 70
     1
102
RTVSPost2010Prop30
280
     0
102
RTVSPost2010PropOp30
 70
     1
102
RTVSPost2010Prop31
280
     0
102
RTVSPost2010PropOp31
 70
     1
102
RTVSPost2010Prop32
280
     0
102
RTVSPost2010PropOp32
 70
     1
102
RTVSPost2010Prop33
280
     0
102
RTVSPost2010PropOp33
 70
     1
102
RTVSPost2010Prop34
280
     0
102
RTVSPost2010PropOp34
 70
     1
102
RTVSPost2010Prop35
280
     0
102
RTVSPost2010PropOp35
 70
     1
102
RTVSPost2010Prop36
280
     0
102
RTVSPost2010PropOp36
 70
     1
102
RTVSPost2010Prop37
 90
       50
102
RTVSPost2010PropOp37
 70
     1
102
RTVSPost2010Prop38
140
0.0
102
RTVSPost2010PropOp38
 70
     1
102
RTVSPost2010Prop39
140
1.0
102
RTVSPost2010PropOp39
 70
     1
102
RTVSPost2010Prop40
 90
        0
102
RTVSPost2010PropOp40
 70
     1
102
RTVSPost2010Prop41ColorIndex
 90
       18
102
RTVSPost2010Prop41ColorRGB
 90
        0
102
RTVSPost2010PropOp41
 70
     1
102
RTVSPost2010Prop42
 90
       50
102
RTVSPost2010PropOp42
 70
     1
102
RTVSPost2010Prop43
 90
        3
102
RTVSPost2010PropOp43
 70
     1
102
RTVSPost2010Prop44ColorIndex
 90
        5
102
RTVSPost2010Prop44ColorRGB
 90
      255
102
RTVSPost2010PropOp44
 70
     1
102
RTVSPost2010Prop45
280
     0
102
RTVSPost2010PropOp45
 70
     1
102
RTVSPost2010Prop46
 90
       50
102
RTVSPost2010PropOp46
 70
     1
102
RTVSPost2010Prop47
 90
       50
102
RTVSPost2010PropOp47
 70
     1
102
RTVSPost2010Prop48
 90
       50
102
RTVSPost2010PropOp48
 70
     1
102
RTVSPost2010Prop49
280
     0
102
RTVSPost2010PropOp49
 70
     1
102
RTVSPost2010Prop50
 90
       50
102
RTVSPost2010PropOp50
 70
     1
102
RTVSPost2010Prop51ColorIndex
 90
      256
102
RTVSPost2010Prop51ColorRGB
 90
-16777216
102
RTVSPost2010PropOp51
 70
     0
102
RTVSPost2010Prop52
140
1.0
102
RTVSPost2010PropOp52
 70
     0
102
RTVSPost2010Prop53
 90
        2
102
RTVSPost2010PropOp53
 70
     1
102
RTVSPost2010Prop54
  1
strokes_ogs.tif
102
RTVSPost2010PropOp54
 70
     1
102
RTVSPost2010Prop55
280
     0
102
RTVSPost2010PropOp55
 70
     1
102
RTVSPost2010Prop56
140
1.0
102
RTVSPost2010PropOp56
 70
     1
102
RTVSPost2010Prop57
140
1.0
102
RTVSPost2010PropOp57
 70
     1
  0
XRECORD
  5
396
102
{ACAD_REACTORS
330
395
102
}
330
395
100
AcDbXrecord
280
     1
102
RTVSPropertyOp0
 70
     1
102
RTVSPropertyOp1
 70
     1
102
RTVSPropertyOp2
 70
     1
102
RTVSPropertyOp3
 70
     1
102
RTVSPropertyOp4
 70
     1
102
RTVSPropertyOp5
 70
     1
102
RTVSPropertyOp6
 70
     1
102
RTVSPropertyOp7
 70
     1
102
RTVSPropertyOp8
 70
     1
102
RTVSPropertyOp9
 70
     1
102
RTVSPropertyOp10
 70
     1
102
RTVSPropertyOp11
 70
     1
102
RTVSPropertyOp12
 70
     1
102
RTVSPropertyOp13
 70
     1
102
RTVSPropertyOp14
 70
     1
102
RTVSPropertyOp15
 70
     1
102
RTVSPropertyOp16
 70
     1
102
RTVSPropertyOp17
 70
     1
102
RTVSPropertyOp18
 70
     1
102
RTVSPropertyOp19
 70
     1
102
RTVSPropertyOp20
 70
     1
102
RTVSPropertyOp21
 70
     1
102
RTVSPropertyOp22
 70
     1
102
RTVSPropertyOp23
 70
     1
102
RTVSPropertyOp24
 70
     1
102
RTVSPropertyOp25
 70
     1
102
RTVSPropertyOp26
 70
     1
102
RTVSPropertyOp27
 70
     1
102
RTVSPropertyOp28
 70
     1
102
RTVSPropertyOp29
 70
     1
102
RTVSPropertyOp30
 70
     1
102
RTVSPropertyOp31
 70
     1
102
RTVSPropertyOp32
 70
     1
102
RTVSPropertyOp33
 70
     1
102
RTVSPropertyOp34
 70
     1
102
RTVSPropertyOp35
 70
     1
102
RTVSPropertyOp36
 70
     1
102
RTVSPropertyOp37
 70
     1
102
RTVSPropertyOp38
 70
     1
102
RTVSPropertyOp39
 70
     1
102
RTVSPropertyOp40
 70
     1
102
RTVSPropertyOp41
 70
     1
102
RTVSPropertyOp42
 70
     1
102
RTVSPropertyOp43
 70
     1
102
RTVSPropertyOp44
 70
     1
102
RTVSPropertyOp45
 70
     1
102
RTVSPropertyOp46
 70
     1
102
RTVSPropertyOp47
 70
     1
102
RTVSPropertyOp48
 70
     1
102
RTVSPropertyOp49
 70
     1
102
RTVSPropertyOp50
 70
     1
102
RTVSPropertyOp51
 70
     0
102
RTVSPropertyOp52
 70
     0
102
RTVSPropertyOp53
 70
     1
102
RTVSPropertyOp54
 70
     1
102
RTVSPropertyOp55
 70
     1
102
RTVSPropertyOp56
 70
     1
102
RTVSPropertyOp57
 70
     1
102
RTVSPost2010Prop28
280
     0
102
RTVSPost2010PropOp28
 70
     1
102
RTVSPost2010Prop29
280
     1
102
RTVSPost2010PropOp29
 70
     1
102
RTVSPost2010Prop30
280
     1
102
RTVSPost2010PropOp30
 70
     1
102
RTVSPost2010Prop31
280
     0
102
RTVSPost2010PropOp31
 70
     1
102
RTVSPost2010Prop32
280
     0
102
RTVSPost2010PropOp32
 70
     1
102
RTVSPost2010Prop33
280
     0
102
RTVSPost2010PropOp33
 70
     1
102
RTVSPost2010Prop34
280
     0
102
RTVSPost2010PropOp34
 70
     1
102
RTVSPost2010Prop35
280
     0
102
RTVSPost2010PropOp35
 70
     1
102
RTVSPost2010Prop36
280
     0
102
RTVSPost2010PropOp36
 70
     1
102
RTVSPost2010Prop37
 90
       50
102
RTVSPost2010PropOp37
 70
     1
102
RTVSPost2010Prop38
140
0.0
102
RTVSPost2010PropOp38
 70
     1
102
RTVSPost2010Prop39
140
1.0
102
RTVSPost2010PropOp39
 70
     1
102
RTVSPost2010Prop40
 90
        0
102
RTVSPost2010PropOp40
 70
     1
102
RTVSPost2010Prop41ColorIndex
 90
       18
102
RTVSPost2010Prop41ColorRGB
 90
        0
102
RTVSPost2010PropOp41
 70
     1
102
RTVSPost2010Prop42
 90
       50
102
RTVSPost2010PropOp42
 70
     1
102
RTVSPost2010Prop43
 90
        3
102
RTVSPost2010PropOp43
 70
     1
102
RTVSPost2010Prop44ColorIndex
 90
        5
102
RTVSPost2010Prop44ColorRGB
 90
      255
102
RTVSPost2010PropOp44
 70
     1
102
RTVSPost2010Prop45
280
     0
102
RTVSPost2010PropOp45
 70
     1
102
RTVSPost2010Prop46
 90
       50
102
RTVSPost2010PropOp46
 70
     1
102
RTVSPost2010Prop47
 90
       50
102
RTVSPost2010PropOp47
 70
     1
102
RTVSPost2010Prop48
 90
       50
102
RTVSPost2010PropOp48
 70
     1
102
RTVSPost2010Prop49
280
     0
102
RTVSPost2010PropOp49
 70
     1
102
RTVSPost2010Prop50
 90
       50
102
RTVSPost2010PropOp50
 70
     1
102
RTVSPost2010Prop51ColorIndex
 90
      256
102
RTVSPost2010Prop51ColorRGB
 90
-16777216
102
RTVSPost2010PropOp51
 70
     0
102
RTVSPost2010Prop52
140
1.0
102
RTVSPost2010PropOp52
 70
     0
102
RTVSPost2010Prop53
 90
        2
102
RTVSPost2010PropOp53
 70
     1
102
RTVSPost2010Prop54
  1
strokes_ogs.tif
102
RTVSPost2010PropOp54
 70
     1
102
RTVSPost2010Prop55
280
     0
102
RTVSPost2010PropOp55
 70
     1
102
RTVSPost2010Prop56
140
1.0
102
RTVSPost2010PropOp56
 70
     1
102
RTVSPost2010Prop57
140
1.0
102
RTVSPost2010PropOp57
 70
     1
  0
XRECORD
  5
39E
102
{ACAD_REACTORS
330
39D
102
}
330
39D
100
AcDbXrecord
280
     1
102
RTVSPropertyOp0
 70
     1
102
RTVSPropertyOp1
 70
     1
102
RTVSPropertyOp2
 70
     1
102
RTVSPropertyOp3
 70
     1
102
RTVSPropertyOp4
 70
     1
102
RTVSPropertyOp5
 70
     1
102
RTVSPropertyOp6
 70
     1
102
RTVSPropertyOp7
 70
     1
102
RTVSPropertyOp8
 70
     1
102
RTVSPropertyOp9
 70
     1
102
RTVSPropertyOp10
 70
     1
102
RTVSPropertyOp11
 70
     1
102
RTVSPropertyOp12
 70
     1
102
RTVSPropertyOp13
 70
     1
102
RTVSPropertyOp14
 70
     1
102
RTVSPropertyOp15
 70
     1
102
RTVSPropertyOp16
 70
     1
102
RTVSPropertyOp17
 70
     1
102
RTVSPropertyOp18
 70
     1
102
RTVSPropertyOp19
 70
     1
102
RTVSPropertyOp20
 70
     1
102
RTVSPropertyOp21
 70
     1
102
RTVSPropertyOp22
 70
     1
102
RTVSPropertyOp23
 70
     1
102
RTVSPropertyOp24
 70
     1
102
RTVSPropertyOp25
 70
     1
102
RTVSPropertyOp26
 70
     1
102
RTVSPropertyOp27
 70
     1
102
RTVSPropertyOp28
 70
     1
102
RTVSPropertyOp29
 70
     1
102
RTVSPropertyOp30
 70
     1
102
RTVSPropertyOp31
 70
     1
102
RTVSPropertyOp32
 70
     1
102
RTVSPropertyOp33
 70
     1
102
RTVSPropertyOp34
 70
     1
102
RTVSPropertyOp35
 70
     1
102
RTVSPropertyOp36
 70
     1
102
RTVSPropertyOp37
 70
     1
102
RTVSPropertyOp38
 70
     1
102
RTVSPropertyOp39
 70
     1
102
RTVSPropertyOp40
 70
     1
102
RTVSPropertyOp41
 70
     1
102
RTVSPropertyOp42
 70
     1
102
RTVSPropertyOp43
 70
     1
102
RTVSPropertyOp44
 70
     1
102
RTVSPropertyOp45
 70
     1
102
RTVSPropertyOp46
 70
     1
102
RTVSPropertyOp47
 70
     1
102
RTVSPropertyOp48
 70
     1
102
RTVSPropertyOp49
 70
     1
102
RTVSPropertyOp50
 70
     1
102
RTVSPropertyOp51
 70
     0
102
RTVSPropertyOp52
 70
     0
102
RTVSPropertyOp53
 70
     1
102
RTVSPropertyOp54
 70
     1
102
RTVSPropertyOp55
 70
     1
102
RTVSPropertyOp56
 70
     1
102
RTVSPropertyOp57
 70
     1
102
RTVSPost2010Prop28
280
     0
102
RTVSPost2010PropOp28
 70
     1
102
RTVSPost2010Prop29
280
     1
102
RTVSPost2010PropOp29
 70
     1
102
RTVSPost2010Prop30
280
     1
102
RTVSPost2010PropOp30
 70
     1
102
RTVSPost2010Prop31
280
     0
102
RTVSPost2010PropOp31
 70
     1
102
RTVSPost2010Prop32
280
     0
102
RTVSPost2010PropOp32
 70
     1
102
RTVSPost2010Prop33
280
     0
102
RTVSPost2010PropOp33
 70
     1
102
RTVSPost2010Prop34
280
     0
102
RTVSPost2010PropOp34
 70
     1
102
RTVSPost2010Prop35
280
     0
102
RTVSPost2010PropOp35
 70
     1
102
RTVSPost2010Prop36
280
     0
102
RTVSPost2010PropOp36
 70
     1
102
RTVSPost2010Prop37
 90
       50
102
RTVSPost2010PropOp37
 70
     1
102
RTVSPost2010Prop38
140
0.0
102
RTVSPost2010PropOp38
 70
     1
102
RTVSPost2010Prop39
140
1.0
102
RTVSPost2010PropOp39
 70
     1
102
RTVSPost2010Prop40
 90
        0
102
RTVSPost2010PropOp40
 70
     1
102
RTVSPost2010Prop41ColorIndex
 90
       18
102
RTVSPost2010Prop41ColorRGB
 90
        0
102
RTVSPost2010PropOp41
 70
     1
102
RTVSPost2010Prop42
 90
       50
102
RTVSPost2010PropOp42
 70
     1
102
RTVSPost2010Prop43
 90
        3
102
RTVSPost2010PropOp43
 70
     1
102
RTVSPost2010Prop44ColorIndex
 90
        5
102
RTVSPost2010Prop44ColorRGB
 90
      255
102
RTVSPost2010PropOp44
 70
     1
102
RTVSPost2010Prop45
280
     0
102
RTVSPost2010PropOp45
 70
     1
102
RTVSPost2010Prop46
 90
       50
102
RTVSPost2010PropOp46
 70
     1
102
RTVSPost2010Prop47
 90
       50
102
RTVSPost2010PropOp47
 70
     1
102
RTVSPost2010Prop48
 90
       50
102
RTVSPost2010PropOp48
 70
     1
102
RTVSPost2010Prop49
280
     0
102
RTVSPost2010PropOp49
 70
     1
102
RTVSPost2010Prop50
 90
       50
102
RTVSPost2010PropOp50
 70
     1
102
RTVSPost2010Prop51ColorIndex
 90
      256
102
RTVSPost2010Prop51ColorRGB
 90
-16777216
102
RTVSPost2010PropOp51
 70
     0
102
RTVSPost2010Prop52
140
1.0
102
RTVSPost2010PropOp52
 70
     0
102
RTVSPost2010Prop53
 90
        2
102
RTVSPost2010PropOp53
 70
     1
102
RTVSPost2010Prop54
  1
strokes_ogs.tif
102
RTVSPost2010PropOp54
 70
     1
102
RTVSPost2010Prop55
280
     0
102
RTVSPost2010PropOp55
 70
     1
102
RTVSPost2010Prop56
140
1.0
102
RTVSPost2010PropOp56
 70
     1
102
RTVSPost2010Prop57
140
1.0
102
RTVSPost2010PropOp57
 70
     1
  0
XRECORD
  5
3A6
102
{ACAD_REACTORS
330
3A5
102
}
330
3A5
100
AcDbXrecord
280
     1
102
RTVSPropertyOp0
 70
     1
102
RTVSPropertyOp1
 70
     1
102
RTVSPropertyOp2
 70
     1
102
RTVSPropertyOp3
 70
     1
102
RTVSPropertyOp4
 70
     1
102
RTVSPropertyOp5
 70
     1
102
RTVSPropertyOp6
 70
     1
102
RTVSPropertyOp7
 70
     1
102
RTVSPropertyOp8
 70
     1
102
RTVSPropertyOp9
 70
     1
102
RTVSPropertyOp10
 70
     1
102
RTVSPropertyOp11
 70
     1
102
RTVSPropertyOp12
 70
     1
102
RTVSPropertyOp13
 70
     1
102
RTVSPropertyOp14
 70
     1
102
RTVSPropertyOp15
 70
     1
102
RTVSPropertyOp16
 70
     1
102
RTVSPropertyOp17
 70
     1
102
RTVSPropertyOp18
 70
     1
102
RTVSPropertyOp19
 70
     1
102
RTVSPropertyOp20
 70
     1
102
RTVSPropertyOp21
 70
     1
102
RTVSPropertyOp22
 70
     1
102
RTVSPropertyOp23
 70
     1
102
RTVSPropertyOp24
 70
     1
102
RTVSPropertyOp25
 70
     1
102
RTVSPropertyOp26
 70
     1
102
RTVSPropertyOp27
 70
     1
102
RTVSPropertyOp28
 70
     1
102
RTVSPropertyOp29
 70
     1
102
RTVSPropertyOp30
 70
     1
102
RTVSPropertyOp31
 70
     1
102
RTVSPropertyOp32
 70
     1
102
RTVSPropertyOp33
 70
     1
102
RTVSPropertyOp34
 70
     1
102
RTVSPropertyOp35
 70
     1
102
RTVSPropertyOp36
 70
     1
102
RTVSPropertyOp37
 70
     1
102
RTVSPropertyOp38
 70
     1
102
RTVSPropertyOp39
 70
     1
102
RTVSPropertyOp40
 70
     1
102
RTVSPropertyOp41
 70
     1
102
RTVSPropertyOp42
 70
     1
102
RTVSPropertyOp43
 70
     1
102
RTVSPropertyOp44
 70
     1
102
RTVSPropertyOp45
 70
     1
102
RTVSPropertyOp46
 70
     1
102
RTVSPropertyOp47
 70
     1
102
RTVSPropertyOp48
 70
     1
102
RTVSPropertyOp49
 70
     1
102
RTVSPropertyOp50
 70
     1
102
RTVSPropertyOp51
 70
     0
102
RTVSPropertyOp52
 70
     0
102
RTVSPropertyOp53
 70
     1
102
RTVSPropertyOp54
 70
     1
102
RTVSPropertyOp55
 70
     1
102
RTVSPropertyOp56
 70
     1
102
RTVSPropertyOp57
 70
     1
102
RTVSPost2010Prop28
280
     0
102
RTVSPost2010PropOp28
 70
     1
102
RTVSPost2010Prop29
280
     1
102
RTVSPost2010PropOp29
 70
     1
102
RTVSPost2010Prop30
280
     1
102
RTVSPost2010PropOp30
 70
     1
102
RTVSPost2010Prop31
280
     0
102
RTVSPost2010PropOp31
 70
     1
102
RTVSPost2010Prop32
280
     0
102
RTVSPost2010PropOp32
 70
     1
102
RTVSPost2010Prop33
280
     0
102
RTVSPost2010PropOp33
 70
     1
102
RTVSPost2010Prop34
280
     0
102
RTVSPost2010PropOp34
 70
     1
102
RTVSPost2010Prop35
280
     0
102
RTVSPost2010PropOp35
 70
     1
102
RTVSPost2010Prop36
280
     0
102
RTVSPost2010PropOp36
 70
     1
102
RTVSPost2010Prop37
 90
       50
102
RTVSPost2010PropOp37
 70
     1
102
RTVSPost2010Prop38
140
0.0
102
RTVSPost2010PropOp38
 70
     1
102
RTVSPost2010Prop39
140
1.0
102
RTVSPost2010PropOp39
 70
     1
102
RTVSPost2010Prop40
 90
        0
102
RTVSPost2010PropOp40
 70
     1
102
RTVSPost2010Prop41ColorIndex
 90
       18
102
RTVSPost2010Prop41ColorRGB
 90
        0
102
RTVSPost2010PropOp41
 70
     1
102
RTVSPost2010Prop42
 90
       50
102
RTVSPost2010PropOp42
 70
     1
102
RTVSPost2010Prop43
 90
        3
102
RTVSPost2010PropOp43
 70
     1
102
RTVSPost2010Prop44ColorIndex
 90
        5
102
RTVSPost2010Prop44ColorRGB
 90
      255
102
RTVSPost2010PropOp44
 70
     1
102
RTVSPost2010Prop45
280
     0
102
RTVSPost2010PropOp45
 70
     1
102
RTVSPost2010Prop46
 90
       50
102
RTVSPost2010PropOp46
 70
     1
102
RTVSPost2010Prop47
 90
       50
102
RTVSPost2010PropOp47
 70
     1
102
RTVSPost2010Prop48
 90
       50
102
RTVSPost2010PropOp48
 70
     1
102
RTVSPost2010Prop49
280
     0
102
RTVSPost2010PropOp49
 70
     1
102
RTVSPost2010Prop50
 90
       50
102
RTVSPost2010PropOp50
 70
     1
102
RTVSPost2010Prop51ColorIndex
 90
      256
102
RTVSPost2010Prop51ColorRGB
 90
-16777216
102
RTVSPost2010PropOp51
 70
     0
102
RTVSPost2010Prop52
140
1.0
102
RTVSPost2010PropOp52
 70
     0
102
RTVSPost2010Prop53
 90
        2
102
RTVSPost2010PropOp53
 70
     1
102
RTVSPost2010Prop54
  1
strokes_ogs.tif
102
RTVSPost2010PropOp54
 70
     1
102
RTVSPost2010Prop55
280
     0
102
RTVSPost2010PropOp55
 70
     1
102
RTVSPost2010Prop56
140
1.0
102
RTVSPost2010PropOp56
 70
     1
102
RTVSPost2010Prop57
140
1.0
102
RTVSPost2010PropOp57
 70
     1
  0
XRECORD
  5
39A
102
{ACAD_REACTORS
330
399
102
}
330
399
100
AcDbXrecord
280
     1
102
RTVSPropertyOp0
 70
     1
102
RTVSPropertyOp1
 70
     1
102
RTVSPropertyOp2
 70
     1
102
RTVSPropertyOp3
 70
     1
102
RTVSPropertyOp4
 70
     1
102
RTVSPropertyOp5
 70
     1
102
RTVSPropertyOp6
 70
     1
102
RTVSPropertyOp7
 70
     1
102
RTVSPropertyOp8
 70
     1
102
RTVSPropertyOp9
 70
     1
102
RTVSPropertyOp10
 70
     1
102
RTVSPropertyOp11
 70
     1
102
RTVSPropertyOp12
 70
     1
102
RTVSPropertyOp13
 70
     1
102
RTVSPropertyOp14
 70
     1
102
RTVSPropertyOp15
 70
     1
102
RTVSPropertyOp16
 70
     1
102
RTVSPropertyOp17
 70
     1
102
RTVSPropertyOp18
 70
     1
102
RTVSPropertyOp19
 70
     1
102
RTVSPropertyOp20
 70
     1
102
RTVSPropertyOp21
 70
     1
102
RTVSPropertyOp22
 70
     1
102
RTVSPropertyOp23
 70
     1
102
RTVSPropertyOp24
 70
     1
102
RTVSPropertyOp25
 70
     1
102
RTVSPropertyOp26
 70
     1
102
RTVSPropertyOp27
 70
     1
102
RTVSPropertyOp28
 70
     1
102
RTVSPropertyOp29
 70
     1
102
RTVSPropertyOp30
 70
     1
102
RTVSPropertyOp31
 70
     1
102
RTVSPropertyOp32
 70
     1
102
RTVSPropertyOp33
 70
     1
102
RTVSPropertyOp34
 70
     1
102
RTVSPropertyOp35
 70
     1
102
RTVSPropertyOp36
 70
     1
102
RTVSPropertyOp37
 70
     1
102
RTVSPropertyOp38
 70
     1
102
RTVSPropertyOp39
 70
     1
102
RTVSPropertyOp40
 70
     1
102
RTVSPropertyOp41
 70
     1
102
RTVSPropertyOp42
 70
     1
102
RTVSPropertyOp43
 70
     1
102
RTVSPropertyOp44
 70
     1
102
RTVSPropertyOp45
 70
     1
102
RTVSPropertyOp46
 70
     1
102
RTVSPropertyOp47
 70
     1
102
RTVSPropertyOp48
 70
     1
102
RTVSPropertyOp49
 70
     1
102
RTVSPropertyOp50
 70
     1
102
RTVSPropertyOp51
 70
     0
102
RTVSPropertyOp52
 70
     0
102
RTVSPropertyOp53
 70
     1
102
RTVSPropertyOp54
 70
     1
102
RTVSPropertyOp55
 70
     1
102
RTVSPropertyOp56
 70
     1
102
RTVSPropertyOp57
 70
     1
102
RTVSPost2010Prop28
280
     0
102
RTVSPost2010PropOp28
 70
     1
102
RTVSPost2010Prop29
280
     1
102
RTVSPost2010PropOp29
 70
     1
102
RTVSPost2010Prop30
280
     1
102
RTVSPost2010PropOp30
 70
     1
102
RTVSPost2010Prop31
280
     0
102
RTVSPost2010PropOp31
 70
     1
102
RTVSPost2010Prop32
280
     0
102
RTVSPost2010PropOp32
 70
     1
102
RTVSPost2010Prop33
280
     0
102
RTVSPost2010PropOp33
 70
     1
102
RTVSPost2010Prop34
280
     0
102
RTVSPost2010PropOp34
 70
     1
102
RTVSPost2010Prop35
280
     0
102
RTVSPost2010PropOp35
 70
     1
102
RTVSPost2010Prop36
280
     0
102
RTVSPost2010PropOp36
 70
     1
102
RTVSPost2010Prop37
 90
       50
102
RTVSPost2010PropOp37
 70
     1
102
RTVSPost2010Prop38
140
0.0
102
RTVSPost2010PropOp38
 70
     1
102
RTVSPost2010Prop39
140
1.0
102
RTVSPost2010PropOp39
 70
     1
102
RTVSPost2010Prop40
 90
        0
102
RTVSPost2010PropOp40
 70
     1
102
RTVSPost2010Prop41ColorIndex
 90
       18
102
RTVSPost2010Prop41ColorRGB
 90
        0
102
RTVSPost2010PropOp41
 70
     1
102
RTVSPost2010Prop42
 90
       50
102
RTVSPost2010PropOp42
 70
     1
102
RTVSPost2010Prop43
 90
        3
102
RTVSPost2010PropOp43
 70
     1
102
RTVSPost2010Prop44ColorIndex
 90
        5
102
RTVSPost2010Prop44ColorRGB
 90
      255
102
RTVSPost2010PropOp44
 70
     1
102
RTVSPost2010Prop45
280
     0
102
RTVSPost2010PropOp45
 70
     1
102
RTVSPost2010Prop46
 90
       50
102
RTVSPost2010PropOp46
 70
     1
102
RTVSPost2010Prop47
 90
       50
102
RTVSPost2010PropOp47
 70
     1
102
RTVSPost2010Prop48
 90
       50
102
RTVSPost2010PropOp48
 70
     1
102
RTVSPost2010Prop49
280
     0
102
RTVSPost2010PropOp49
 70
     1
102
RTVSPost2010Prop50
 90
       50
102
RTVSPost2010PropOp50
 70
     1
102
RTVSPost2010Prop51ColorIndex
 90
      256
102
RTVSPost2010Prop51ColorRGB
 90
-16777216
102
RTVSPost2010PropOp51
 70
     0
102
RTVSPost2010Prop52
140
1.0
102
RTVSPost2010PropOp52
 70
     0
102
RTVSPost2010Prop53
 90
        2
102
RTVSPost2010PropOp53
 70
     1
102
RTVSPost2010Prop54
  1
strokes_ogs.tif
102
RTVSPost2010PropOp54
 70
     1
102
RTVSPost2010Prop55
280
     0
102
RTVSPost2010PropOp55
 70
     1
102
RTVSPost2010Prop56
140
1.0
102
RTVSPost2010PropOp56
 70
     1
102
RTVSPost2010Prop57
140
1.0
102
RTVSPost2010PropOp57
 70
     1
  0
XRECORD
  5
39C
102
{ACAD_REACTORS
330
39B
102
}
330
39B
100
AcDbXrecord
280
     1
102
RTVSPropertyOp0
 70
     1
102
RTVSPropertyOp1
 70
     1
102
RTVSPropertyOp2
 70
     1
102
RTVSPropertyOp3
 70
     1
102
RTVSPropertyOp4
 70
     1
102
RTVSPropertyOp5
 70
     1
102
RTVSPropertyOp6
 70
     1
102
RTVSPropertyOp7
 70
     1
102
RTVSPropertyOp8
 70
     1
102
RTVSPropertyOp9
 70
     1
102
RTVSPropertyOp10
 70
     1
102
RTVSPropertyOp11
 70
     1
102
RTVSPropertyOp12
 70
     1
102
RTVSPropertyOp13
 70
     1
102
RTVSPropertyOp14
 70
     1
102
RTVSPropertyOp15
 70
     1
102
RTVSPropertyOp16
 70
     1
102
RTVSPropertyOp17
 70
     1
102
RTVSPropertyOp18
 70
     1
102
RTVSPropertyOp19
 70
     1
102
RTVSPropertyOp20
 70
     1
102
RTVSPropertyOp21
 70
     1
102
RTVSPropertyOp22
 70
     1
102
RTVSPropertyOp23
 70
     1
102
RTVSPropertyOp24
 70
     1
102
RTVSPropertyOp25
 70
     1
102
RTVSPropertyOp26
 70
     1
102
RTVSPropertyOp27
 70
     1
102
RTVSPropertyOp28
 70
     1
102
RTVSPropertyOp29
 70
     1
102
RTVSPropertyOp30
 70
     1
102
RTVSPropertyOp31
 70
     1
102
RTVSPropertyOp32
 70
     1
102
RTVSPropertyOp33
 70
     1
102
RTVSPropertyOp34
 70
     1
102
RTVSPropertyOp35
 70
     1
102
RTVSPropertyOp36
 70
     1
102
RTVSPropertyOp37
 70
     1
102
RTVSPropertyOp38
 70
     1
102
RTVSPropertyOp39
 70
     1
102
RTVSPropertyOp40
 70
     1
102
RTVSPropertyOp41
 70
     1
102
RTVSPropertyOp42
 70
     1
102
RTVSPropertyOp43
 70
     1
102
RTVSPropertyOp44
 70
     1
102
RTVSPropertyOp45
 70
     1
102
RTVSPropertyOp46
 70
     1
102
RTVSPropertyOp47
 70
     1
102
RTVSPropertyOp48
 70
     1
102
RTVSPropertyOp49
 70
     1
102
RTVSPropertyOp50
 70
     1
102
RTVSPropertyOp51
 70
     0
102
RTVSPropertyOp52
 70
     0
102
RTVSPropertyOp53
 70
     1
102
RTVSPropertyOp54
 70
     1
102
RTVSPropertyOp55
 70
     1
102
RTVSPropertyOp56
 70
     1
102
RTVSPropertyOp57
 70
     1
102
RTVSPost2010Prop28
280
     0
102
RTVSPost2010PropOp28
 70
     1
102
RTVSPost2010Prop29
280
     1
102
RTVSPost2010PropOp29
 70
     1
102
RTVSPost2010Prop30
280
     1
102
RTVSPost2010PropOp30
 70
     1
102
RTVSPost2010Prop31
280
     0
102
RTVSPost2010PropOp31
 70
     1
102
RTVSPost2010Prop32
280
     0
102
RTVSPost2010PropOp32
 70
     1
102
RTVSPost2010Prop33
280
     0
102
RTVSPost2010PropOp33
 70
     1
102
RTVSPost2010Prop34
280
     0
102
RTVSPost2010PropOp34
 70
     1
102
RTVSPost2010Prop35
280
     0
102
RTVSPost2010PropOp35
 70
     1
102
RTVSPost2010Prop36
280
     0
102
RTVSPost2010PropOp36
 70
     1
102
RTVSPost2010Prop37
 90
       50
102
RTVSPost2010PropOp37
 70
     1
102
RTVSPost2010Prop38
140
0.0
102
RTVSPost2010PropOp38
 70
     1
102
RTVSPost2010Prop39
140
1.0
102
RTVSPost2010PropOp39
 70
     1
102
RTVSPost2010Prop40
 90
        0
102
RTVSPost2010PropOp40
 70
     1
102
RTVSPost2010Prop41ColorIndex
 90
       18
102
RTVSPost2010Prop41ColorRGB
 90
        0
102
RTVSPost2010PropOp41
 70
     1
102
RTVSPost2010Prop42
 90
       50
102
RTVSPost2010PropOp42
 70
     1
102
RTVSPost2010Prop43
 90
        3
102
RTVSPost2010PropOp43
 70
     1
102
RTVSPost2010Prop44ColorIndex
 90
        5
102
RTVSPost2010Prop44ColorRGB
 90
      255
102
RTVSPost2010PropOp44
 70
     1
102
RTVSPost2010Prop45
280
     0
102
RTVSPost2010PropOp45
 70
     1
102
RTVSPost2010Prop46
 90
       50
102
RTVSPost2010PropOp46
 70
     1
102
RTVSPost2010Prop47
 90
       50
102
RTVSPost2010PropOp47
 70
     1
102
RTVSPost2010Prop48
 90
       50
102
RTVSPost2010PropOp48
 70
     1
102
RTVSPost2010Prop49
280
     0
102
RTVSPost2010PropOp49
 70
     1
102
RTVSPost2010Prop50
 90
       50
102
RTVSPost2010PropOp50
 70
     1
102
RTVSPost2010Prop51ColorIndex
 90
      256
102
RTVSPost2010Prop51ColorRGB
 90
-16777216
102
RTVSPost2010PropOp51
 70
     0
102
RTVSPost2010Prop52
140
1.0
102
RTVSPost2010PropOp52
 70
     0
102
RTVSPost2010Prop53
 90
        2
102
RTVSPost2010PropOp53
 70
     1
102
RTVSPost2010Prop54
  1
strokes_ogs.tif
102
RTVSPost2010PropOp54
 70
     1
102
RTVSPost2010Prop55
280
     0
102
RTVSPost2010PropOp55
 70
     1
102
RTVSPost2010Prop56
140
1.0
102
RTVSPost2010PropOp56
 70
     1
102
RTVSPost2010Prop57
140
1.0
102
RTVSPost2010PropOp57
 70
     1
  0
XRECORD
  5
3AC
102
{ACAD_REACTORS
330
3AB
102
}
330
3AB
100
AcDbXrecord
280
     1
102
RTVSPropertyOp0
 70
     0
102
RTVSPropertyOp1
 70
     0
102
RTVSPropertyOp2
 70
     0
102
RTVSPropertyOp3
 70
     0
102
RTVSPropertyOp4
 70
     0
102
RTVSPropertyOp5
 70
     0
102
RTVSPropertyOp6
 70
     0
102
RTVSPropertyOp7
 70
     0
102
RTVSPropertyOp8
 70
     0
102
RTVSPropertyOp9
 70
     0
102
RTVSPropertyOp10
 70
     0
102
RTVSPropertyOp11
 70
     0
102
RTVSPropertyOp12
 70
     0
102
RTVSPropertyOp13
 70
     0
102
RTVSPropertyOp14
 70
     2
102
RTVSPropertyOp15
 70
     0
102
RTVSPropertyOp16
 70
     0
102
RTVSPropertyOp17
 70
     0
102
RTVSPropertyOp18
 70
     0
102
RTVSPropertyOp19
 70
     0
102
RTVSPropertyOp20
 70
     0
102
RTVSPropertyOp21
 70
     0
102
RTVSPropertyOp22
 70
     0
102
RTVSPropertyOp23
 70
     0
102
RTVSPropertyOp24
 70
     0
102
RTVSPropertyOp25
 70
     0
102
RTVSPropertyOp26
 70
     0
102
RTVSPropertyOp27
 70
     0
102
RTVSPropertyOp28
 70
     0
102
RTVSPropertyOp29
 70
     0
102
RTVSPropertyOp30
 70
     0
102
RTVSPropertyOp31
 70
     0
102
RTVSPropertyOp32
 70
     0
102
RTVSPropertyOp33
 70
     0
102
RTVSPropertyOp34
 70
     0
102
RTVSPropertyOp35
 70
     0
102
RTVSPropertyOp36
 70
     0
102
RTVSPropertyOp37
 70
     0
102
RTVSPropertyOp38
 70
     0
102
RTVSPropertyOp39
 70
     0
102
RTVSPropertyOp40
 70
     0
102
RTVSPropertyOp41
 70
     0
102
RTVSPropertyOp42
 70
     0
102
RTVSPropertyOp43
 70
     0
102
RTVSPropertyOp44
 70
     0
102
RTVSPropertyOp45
 70
     0
102
RTVSPropertyOp46
 70
     0
102
RTVSPropertyOp47
 70
     0
102
RTVSPropertyOp48
 70
     0
102
RTVSPropertyOp49
 70
     0
102
RTVSPropertyOp50
 70
     0
102
RTVSPropertyOp51
 70
     0
102
RTVSPropertyOp52
 70
     0
102
RTVSPropertyOp53
 70
     0
102
RTVSPropertyOp54
 70
     0
102
RTVSPropertyOp55
 70
     0
102
RTVSPropertyOp56
 70
     0
102
RTVSPropertyOp57
 70
     0
102
RTVSPost2010Prop28
280
     0
102
RTVSPost2010PropOp28
 70
     0
102
RTVSPost2010Prop29
280
     1
102
RTVSPost2010PropOp29
 70
     0
102
RTVSPost2010Prop30
280
     1
102
RTVSPost2010PropOp30
 70
     0
102
RTVSPost2010Prop31
280
     0
102
RTVSPost2010PropOp31
 70
     0
102
RTVSPost2010Prop32
280
     0
102
RTVSPost2010PropOp32
 70
     0
102
RTVSPost2010Prop33
280
     0
102
RTVSPost2010PropOp33
 70
     0
102
RTVSPost2010Prop34
280
     0
102
RTVSPost2010PropOp34
 70
     0
102
RTVSPost2010Prop35
280
     0
102
RTVSPost2010PropOp35
 70
     0
102
RTVSPost2010Prop36
280
     0
102
RTVSPost2010PropOp36
 70
     0
102
RTVSPost2010Prop37
 90
       50
102
RTVSPost2010PropOp37
 70
     0
102
RTVSPost2010Prop38
140
0.0
102
RTVSPost2010PropOp38
 70
     0
102
RTVSPost2010Prop39
140
1.0
102
RTVSPost2010PropOp39
 70
     0
102
RTVSPost2010Prop40
 90
        0
102
RTVSPost2010PropOp40
 70
     0
102
RTVSPost2010Prop41ColorIndex
 90
       18
102
RTVSPost2010Prop41ColorRGB
 90
        0
102
RTVSPost2010PropOp41
 70
     0
102
RTVSPost2010Prop42
 90
       50
102
RTVSPost2010PropOp42
 70
     0
102
RTVSPost2010Prop43
 90
        3
102
RTVSPost2010PropOp43
 70
     0
102
RTVSPost2010Prop44ColorIndex
 90
        5
102
RTVSPost2010Prop44ColorRGB
 90
      255
102
RTVSPost2010PropOp44
 70
     0
102
RTVSPost2010Prop45
280
     0
102
RTVSPost2010PropOp45
 70
     0
102
RTVSPost2010Prop46
 90
       50
102
RTVSPost2010PropOp46
 70
     0
102
RTVSPost2010Prop47
 90
       50
102
RTVSPost2010PropOp47
 70
     0
102
RTVSPost2010Prop48
 90
       50
102
RTVSPost2010PropOp48
 70
     0
102
RTVSPost2010Prop49
280
     0
102
RTVSPost2010PropOp49
 70
     0
102
RTVSPost2010Prop50
 90
       50
102
RTVSPost2010PropOp50
 70
     0
102
RTVSPost2010Prop51ColorIndex
 90
      256
102
RTVSPost2010Prop51ColorRGB
 90
-16777216
102
RTVSPost2010PropOp51
 70
     0
102
RTVSPost2010Prop52
140
1.0
102
RTVSPost2010PropOp52
 70
     0
102
RTVSPost2010Prop53
 90
        2
102
RTVSPost2010PropOp53
 70
     0
102
RTVSPost2010Prop54
  1
strokes_ogs.tif
102
RTVSPost2010PropOp54
 70
     0
102
RTVSPost2010Prop55
280
     0
102
RTVSPost2010PropOp55
 70
     0
102
RTVSPost2010Prop56
140
1.0
102
RTVSPost2010PropOp56
 70
     0
102
RTVSPost2010Prop57
140
1.0
102
RTVSPost2010PropOp57
 70
     0
  0
XRECORD
  5
3A4
102
{ACAD_REACTORS
330
3A3
102
}
330
3A3
100
AcDbXrecord
280
     1
102
RTVSPropertyOp0
 70
     1
102
RTVSPropertyOp1
 70
     1
102
RTVSPropertyOp2
 70
     1
102
RTVSPropertyOp3
 70
     1
102
RTVSPropertyOp4
 70
     1
102
RTVSPropertyOp5
 70
     1
102
RTVSPropertyOp6
 70
     1
102
RTVSPropertyOp7
 70
     1
102
RTVSPropertyOp8
 70
     1
102
RTVSPropertyOp9
 70
     1
102
RTVSPropertyOp10
 70
     1
102
RTVSPropertyOp11
 70
     1
102
RTVSPropertyOp12
 70
     1
102
RTVSPropertyOp13
 70
     1
102
RTVSPropertyOp14
 70
     1
102
RTVSPropertyOp15
 70
     1
102
RTVSPropertyOp16
 70
     1
102
RTVSPropertyOp17
 70
     1
102
RTVSPropertyOp18
 70
     1
102
RTVSPropertyOp19
 70
     1
102
RTVSPropertyOp20
 70
     1
102
RTVSPropertyOp21
 70
     1
102
RTVSPropertyOp22
 70
     1
102
RTVSPropertyOp23
 70
     1
102
RTVSPropertyOp24
 70
     1
102
RTVSPropertyOp25
 70
     1
102
RTVSPropertyOp26
 70
     1
102
RTVSPropertyOp27
 70
     1
102
RTVSPropertyOp28
 70
     1
102
RTVSPropertyOp29
 70
     1
102
RTVSPropertyOp30
 70
     1
102
RTVSPropertyOp31
 70
     1
102
RTVSPropertyOp32
 70
     1
102
RTVSPropertyOp33
 70
     1
102
RTVSPropertyOp34
 70
     1
102
RTVSPropertyOp35
 70
     1
102
RTVSPropertyOp36
 70
     1
102
RTVSPropertyOp37
 70
     1
102
RTVSPropertyOp38
 70
     1
102
RTVSPropertyOp39
 70
     1
102
RTVSPropertyOp40
 70
     1
102
RTVSPropertyOp41
 70
     1
102
RTVSPropertyOp42
 70
     1
102
RTVSPropertyOp43
 70
     1
102
RTVSPropertyOp44
 70
     1
102
RTVSPropertyOp45
 70
     1
102
RTVSPropertyOp46
 70
     1
102
RTVSPropertyOp47
 70
     1
102
RTVSPropertyOp48
 70
     1
102
RTVSPropertyOp49
 70
     1
102
RTVSPropertyOp50
 70
     1
102
RTVSPropertyOp51
 70
     0
102
RTVSPropertyOp52
 70
     0
102
RTVSPropertyOp53
 70
     1
102
RTVSPropertyOp54
 70
     1
102
RTVSPropertyOp55
 70
     1
102
RTVSPropertyOp56
 70
     1
102
RTVSPropertyOp57
 70
     1
102
RTVSPost2010Prop28
280
     0
102
RTVSPost2010PropOp28
 70
     1
102
RTVSPost2010Prop29
280
     1
102
RTVSPost2010PropOp29
 70
     1
102
RTVSPost2010Prop30
280
     1
102
RTVSPost2010PropOp30
 70
     1
102
RTVSPost2010Prop31
280
     0
102
RTVSPost2010PropOp31
 70
     1
102
RTVSPost2010Prop32
280
     0
102
RTVSPost2010PropOp32
 70
     1
102
RTVSPost2010Prop33
280
     0
102
RTVSPost2010PropOp33
 70
     1
102
RTVSPost2010Prop34
280
     0
102
RTVSPost2010PropOp34
 70
     1
102
RTVSPost2010Prop35
280
     0
102
RTVSPost2010PropOp35
 70
     1
102
RTVSPost2010Prop36
280
     0
102
RTVSPost2010PropOp36
 70
     1
102
RTVSPost2010Prop37
 90
       50
102
RTVSPost2010PropOp37
 70
     1
102
RTVSPost2010Prop38
140
0.0
102
RTVSPost2010PropOp38
 70
     1
102
RTVSPost2010Prop39
140
1.0
102
RTVSPost2010PropOp39
 70
     1
102
RTVSPost2010Prop40
 90
        0
102
RTVSPost2010PropOp40
 70
     1
102
RTVSPost2010Prop41ColorIndex
 90
       18
102
RTVSPost2010Prop41ColorRGB
 90
        0
102
RTVSPost2010PropOp41
 70
     1
102
RTVSPost2010Prop42
 90
       50
102
RTVSPost2010PropOp42
 70
     1
102
RTVSPost2010Prop43
 90
        3
102
RTVSPost2010PropOp43
 70
     1
102
RTVSPost2010Prop44ColorIndex
 90
        5
102
RTVSPost2010Prop44ColorRGB
 90
      255
102
RTVSPost2010PropOp44
 70
     1
102
RTVSPost2010Prop45
280
     0
102
RTVSPost2010PropOp45
 70
     1
102
RTVSPost2010Prop46
 90
       50
102
RTVSPost2010PropOp46
 70
     1
102
RTVSPost2010Prop47
 90
       50
102
RTVSPost2010PropOp47
 70
     1
102
RTVSPost2010Prop48
 90
       50
102
RTVSPost2010PropOp48
 70
     1
102
RTVSPost2010Prop49
280
     0
102
RTVSPost2010PropOp49
 70
     1
102
RTVSPost2010Prop50
 90
       50
102
RTVSPost2010PropOp50
 70
     1
102
RTVSPost2010Prop51ColorIndex
 90
      256
102
RTVSPost2010Prop51ColorRGB
 90
-16777216
102
RTVSPost2010PropOp51
 70
     0
102
RTVSPost2010Prop52
140
1.0
102
RTVSPost2010PropOp52
 70
     0
102
RTVSPost2010Prop53
 90
        2
102
RTVSPost2010PropOp53
 70
     1
102
RTVSPost2010Prop54
  1
strokes_ogs.tif
102
RTVSPost2010PropOp54
 70
     1
102
RTVSPost2010Prop55
280
     0
102
RTVSPost2010PropOp55
 70
     1
102
RTVSPost2010Prop56
140
1.0
102
RTVSPost2010PropOp56
 70
     1
102
RTVSPost2010Prop57
140
1.0
102
RTVSPost2010PropOp57
 70
     1
  0
XRECORD
  5
388
102
{ACAD_REACTORS
330
387
102
}
330
387
100
AcDbXrecord
280
     1
102
RTVSPropertyOp0
 70
     1
102
RTVSPropertyOp1
 70
     1
102
RTVSPropertyOp2
 70
     1
102
RTVSPropertyOp3
 70
     1
102
RTVSPropertyOp4
 70
     1
102
RTVSPropertyOp5
 70
     1
102
RTVSPropertyOp6
 70
     1
102
RTVSPropertyOp7
 70
     1
102
RTVSPropertyOp8
 70
     1
102
RTVSPropertyOp9
 70
     1
102
RTVSPropertyOp10
 70
     1
102
RTVSPropertyOp11
 70
     1
102
RTVSPropertyOp12
 70
     1
102
RTVSPropertyOp13
 70
     1
102
RTVSPropertyOp14
 70
     1
102
RTVSPropertyOp15
 70
     1
102
RTVSPropertyOp16
 70
     1
102
RTVSPropertyOp17
 70
     1
102
RTVSPropertyOp18
 70
     1
102
RTVSPropertyOp19
 70
     1
102
RTVSPropertyOp20
 70
     1
102
RTVSPropertyOp21
 70
     1
102
RTVSPropertyOp22
 70
     1
102
RTVSPropertyOp23
 70
     1
102
RTVSPropertyOp24
 70
     1
102
RTVSPropertyOp25
 70
     1
102
RTVSPropertyOp26
 70
     1
102
RTVSPropertyOp27
 70
     1
102
RTVSPropertyOp28
 70
     1
102
RTVSPropertyOp29
 70
     1
102
RTVSPropertyOp30
 70
     1
102
RTVSPropertyOp31
 70
     1
102
RTVSPropertyOp32
 70
     1
102
RTVSPropertyOp33
 70
     1
102
RTVSPropertyOp34
 70
     1
102
RTVSPropertyOp35
 70
     1
102
RTVSPropertyOp36
 70
     1
102
RTVSPropertyOp37
 70
     1
102
RTVSPropertyOp38
 70
     1
102
RTVSPropertyOp39
 70
     1
102
RTVSPropertyOp40
 70
     1
102
RTVSPropertyOp41
 70
     1
102
RTVSPropertyOp42
 70
     1
102
RTVSPropertyOp43
 70
     1
102
RTVSPropertyOp44
 70
     1
102
RTVSPropertyOp45
 70
     1
102
RTVSPropertyOp46
 70
     1
102
RTVSPropertyOp47
 70
     1
102
RTVSPropertyOp48
 70
     1
102
RTVSPropertyOp49
 70
     1
102
RTVSPropertyOp50
 70
     1
102
RTVSPropertyOp51
 70
     0
102
RTVSPropertyOp52
 70
     0
102
RTVSPropertyOp53
 70
     1
102
RTVSPropertyOp54
 70
     1
102
RTVSPropertyOp55
 70
     1
102
RTVSPropertyOp56
 70
     1
102
RTVSPropertyOp57
 70
     1
102
RTVSPost2010Prop28
280
     0
102
RTVSPost2010PropOp28
 70
     1
102
RTVSPost2010Prop29
280
     1
102
RTVSPost2010PropOp29
 70
     1
102
RTVSPost2010Prop30
280
     1
102
RTVSPost2010PropOp30
 70
     1
102
RTVSPost2010Prop31
280
     0
102
RTVSPost2010PropOp31
 70
     1
102
RTVSPost2010Prop32
280
     0
102
RTVSPost2010PropOp32
 70
     1
102
RTVSPost2010Prop33
280
     0
102
RTVSPost2010PropOp33
 70
     1
102
RTVSPost2010Prop34
280
     0
102
RTVSPost2010PropOp34
 70
     1
102
RTVSPost2010Prop35
280
     0
102
RTVSPost2010PropOp35
 70
     1
102
RTVSPost2010Prop36
280
     0
102
RTVSPost2010PropOp36
 70
     1
102
RTVSPost2010Prop37
 90
       50
102
RTVSPost2010PropOp37
 70
     1
102
RTVSPost2010Prop38
140
0.0
102
RTVSPost2010PropOp38
 70
     1
102
RTVSPost2010Prop39
140
1.0
102
RTVSPost2010PropOp39
 70
     1
102
RTVSPost2010Prop40
 90
        0
102
RTVSPost2010PropOp40
 70
     1
102
RTVSPost2010Prop41ColorIndex
 90
       18
102
RTVSPost2010Prop41ColorRGB
 90
        0
102
RTVSPost2010PropOp41
 70
     1
102
RTVSPost2010Prop42
 90
       50
102
RTVSPost2010PropOp42
 70
     1
102
RTVSPost2010Prop43
 90
        3
102
RTVSPost2010PropOp43
 70
     1
102
RTVSPost2010Prop44ColorIndex
 90
        5
102
RTVSPost2010Prop44ColorRGB
 90
      255
102
RTVSPost2010PropOp44
 70
     1
102
RTVSPost2010Prop45
280
     0
102
RTVSPost2010PropOp45
 70
     1
102
RTVSPost2010Prop46
 90
       50
102
RTVSPost2010PropOp46
 70
     1
102
RTVSPost2010Prop47
 90
       50
102
RTVSPost2010PropOp47
 70
     1
102
RTVSPost2010Prop48
 90
       50
102
RTVSPost2010PropOp48
 70
     1
102
RTVSPost2010Prop49
280
     0
102
RTVSPost2010PropOp49
 70
     1
102
RTVSPost2010Prop50
 90
       50
102
RTVSPost2010PropOp50
 70
     1
102
RTVSPost2010Prop51ColorIndex
 90
      256
102
RTVSPost2010Prop51ColorRGB
 90
-16777216
102
RTVSPost2010PropOp51
 70
     0
102
RTVSPost2010Prop52
140
1.0
102
RTVSPost2010PropOp52
 70
     0
102
RTVSPost2010Prop53
 90
        2
102
RTVSPost2010PropOp53
 70
     1
102
RTVSPost2010Prop54
  1
strokes_ogs.tif
102
RTVSPost2010PropOp54
 70
     1
102
RTVSPost2010Prop55
280
     0
102
RTVSPost2010PropOp55
 70
     1
102
RTVSPost2010Prop56
140
1.0
102
RTVSPost2010PropOp56
 70
     1
102
RTVSPost2010Prop57
140
1.0
102
RTVSPost2010PropOp57
 70
     1
  0
XRECORD
  5
38A
102
{ACAD_REACTORS
330
389
102
}
330
389
100
AcDbXrecord
280
     1
102
RTVSPropertyOp0
 70
     1
102
RTVSPropertyOp1
 70
     1
102
RTVSPropertyOp2
 70
     1
102
RTVSPropertyOp3
 70
     1
102
RTVSPropertyOp4
 70
     1
102
RTVSPropertyOp5
 70
     1
102
RTVSPropertyOp6
 70
     1
102
RTVSPropertyOp7
 70
     1
102
RTVSPropertyOp8
 70
     1
102
RTVSPropertyOp9
 70
     1
102
RTVSPropertyOp10
 70
     1
102
RTVSPropertyOp11
 70
     1
102
RTVSPropertyOp12
 70
     1
102
RTVSPropertyOp13
 70
     1
102
RTVSPropertyOp14
 70
     1
102
RTVSPropertyOp15
 70
     1
102
RTVSPropertyOp16
 70
     1
102
RTVSPropertyOp17
 70
     1
102
RTVSPropertyOp18
 70
     1
102
RTVSPropertyOp19
 70
     1
102
RTVSPropertyOp20
 70
     1
102
RTVSPropertyOp21
 70
     1
102
RTVSPropertyOp22
 70
     1
102
RTVSPropertyOp23
 70
     1
102
RTVSPropertyOp24
 70
     1
102
RTVSPropertyOp25
 70
     1
102
RTVSPropertyOp26
 70
     1
102
RTVSPropertyOp27
 70
     1
102
RTVSPropertyOp28
 70
     1
102
RTVSPropertyOp29
 70
     1
102
RTVSPropertyOp30
 70
     1
102
RTVSPropertyOp31
 70
     1
102
RTVSPropertyOp32
 70
     1
102
RTVSPropertyOp33
 70
     1
102
RTVSPropertyOp34
 70
     1
102
RTVSPropertyOp35
 70
     1
102
RTVSPropertyOp36
 70
     1
102
RTVSPropertyOp37
 70
     1
102
RTVSPropertyOp38
 70
     1
102
RTVSPropertyOp39
 70
     1
102
RTVSPropertyOp40
 70
     1
102
RTVSPropertyOp41
 70
     1
102
RTVSPropertyOp42
 70
     1
102
RTVSPropertyOp43
 70
     1
102
RTVSPropertyOp44
 70
     1
102
RTVSPropertyOp45
 70
     1
102
RTVSPropertyOp46
 70
     1
102
RTVSPropertyOp47
 70
     1
102
RTVSPropertyOp48
 70
     1
102
RTVSPropertyOp49
 70
     1
102
RTVSPropertyOp50
 70
     1
102
RTVSPropertyOp51
 70
     0
102
RTVSPropertyOp52
 70
     0
102
RTVSPropertyOp53
 70
     1
102
RTVSPropertyOp54
 70
     1
102
RTVSPropertyOp55
 70
     1
102
RTVSPropertyOp56
 70
     1
102
RTVSPropertyOp57
 70
     1
102
RTVSPost2010Prop28
280
     0
102
RTVSPost2010PropOp28
 70
     1
102
RTVSPost2010Prop29
280
     1
102
RTVSPost2010PropOp29
 70
     1
102
RTVSPost2010Prop30
280
     1
102
RTVSPost2010PropOp30
 70
     1
102
RTVSPost2010Prop31
280
     0
102
RTVSPost2010PropOp31
 70
     1
102
RTVSPost2010Prop32
280
     0
102
RTVSPost2010PropOp32
 70
     1
102
RTVSPost2010Prop33
280
     0
102
RTVSPost2010PropOp33
 70
     1
102
RTVSPost2010Prop34
280
     0
102
RTVSPost2010PropOp34
 70
     1
102
RTVSPost2010Prop35
280
     0
102
RTVSPost2010PropOp35
 70
     1
102
RTVSPost2010Prop36
280
     0
102
RTVSPost2010PropOp36
 70
     1
102
RTVSPost2010Prop37
 90
       50
102
RTVSPost2010PropOp37
 70
     1
102
RTVSPost2010Prop38
140
0.0
102
RTVSPost2010PropOp38
 70
     1
102
RTVSPost2010Prop39
140
1.0
102
RTVSPost2010PropOp39
 70
     1
102
RTVSPost2010Prop40
 90
        0
102
RTVSPost2010PropOp40
 70
     1
102
RTVSPost2010Prop41ColorIndex
 90
       18
102
RTVSPost2010Prop41ColorRGB
 90
        0
102
RTVSPost2010PropOp41
 70
     1
102
RTVSPost2010Prop42
 90
       50
102
RTVSPost2010PropOp42
 70
     1
102
RTVSPost2010Prop43
 90
        3
102
RTVSPost2010PropOp43
 70
     1
102
RTVSPost2010Prop44ColorIndex
 90
        5
102
RTVSPost2010Prop44ColorRGB
 90
      255
102
RTVSPost2010PropOp44
 70
     1
102
RTVSPost2010Prop45
280
     0
102
RTVSPost2010PropOp45
 70
     1
102
RTVSPost2010Prop46
 90
       50
102
RTVSPost2010PropOp46
 70
     1
102
RTVSPost2010Prop47
 90
       50
102
RTVSPost2010PropOp47
 70
     1
102
RTVSPost2010Prop48
 90
       50
102
RTVSPost2010PropOp48
 70
     1
102
RTVSPost2010Prop49
280
     0
102
RTVSPost2010PropOp49
 70
     1
102
RTVSPost2010Prop50
 90
       50
102
RTVSPost2010PropOp50
 70
     1
102
RTVSPost2010Prop51ColorIndex
 90
      256
102
RTVSPost2010Prop51ColorRGB
 90
-16777216
102
RTVSPost2010PropOp51
 70
     0
102
RTVSPost2010Prop52
140
1.0
102
RTVSPost2010PropOp52
 70
     0
102
RTVSPost2010Prop53
 90
        2
102
RTVSPost2010PropOp53
 70
     1
102
RTVSPost2010Prop54
  1
strokes_ogs.tif
102
RTVSPost2010PropOp54
 70
     1
102
RTVSPost2010Prop55
280
     0
102
RTVSPost2010PropOp55
 70
     1
102
RTVSPost2010Prop56
140
1.0
102
RTVSPost2010PropOp56
 70
     1
102
RTVSPost2010Prop57
140
1.0
102
RTVSPost2010PropOp57
 70
     1
  0
XRECORD
  5
38C
102
{ACAD_REACTORS
330
38B
102
}
330
38B
100
AcDbXrecord
280
     1
102
RTVSPropertyOp0
 70
     1
102
RTVSPropertyOp1
 70
     1
102
RTVSPropertyOp2
 70
     1
102
RTVSPropertyOp3
 70
     1
102
RTVSPropertyOp4
 70
     1
102
RTVSPropertyOp5
 70
     1
102
RTVSPropertyOp6
 70
     1
102
RTVSPropertyOp7
 70
     1
102
RTVSPropertyOp8
 70
     1
102
RTVSPropertyOp9
 70
     1
102
RTVSPropertyOp10
 70
     1
102
RTVSPropertyOp11
 70
     1
102
RTVSPropertyOp12
 70
     1
102
RTVSPropertyOp13
 70
     1
102
RTVSPropertyOp14
 70
     1
102
RTVSPropertyOp15
 70
     1
102
RTVSPropertyOp16
 70
     1
102
RTVSPropertyOp17
 70
     1
102
RTVSPropertyOp18
 70
     1
102
RTVSPropertyOp19
 70
     1
102
RTVSPropertyOp20
 70
     1
102
RTVSPropertyOp21
 70
     1
102
RTVSPropertyOp22
 70
     1
102
RTVSPropertyOp23
 70
     1
102
RTVSPropertyOp24
 70
     1
102
RTVSPropertyOp25
 70
     1
102
RTVSPropertyOp26
 70
     1
102
RTVSPropertyOp27
 70
     1
102
RTVSPropertyOp28
 70
     1
102
RTVSPropertyOp29
 70
     1
102
RTVSPropertyOp30
 70
     1
102
RTVSPropertyOp31
 70
     1
102
RTVSPropertyOp32
 70
     1
102
RTVSPropertyOp33
 70
     1
102
RTVSPropertyOp34
 70
     1
102
RTVSPropertyOp35
 70
     1
102
RTVSPropertyOp36
 70
     1
102
RTVSPropertyOp37
 70
     1
102
RTVSPropertyOp38
 70
     1
102
RTVSPropertyOp39
 70
     1
102
RTVSPropertyOp40
 70
     1
102
RTVSPropertyOp41
 70
     1
102
RTVSPropertyOp42
 70
     1
102
RTVSPropertyOp43
 70
     1
102
RTVSPropertyOp44
 70
     1
102
RTVSPropertyOp45
 70
     1
102
RTVSPropertyOp46
 70
     1
102
RTVSPropertyOp47
 70
     1
102
RTVSPropertyOp48
 70
     1
102
RTVSPropertyOp49
 70
     1
102
RTVSPropertyOp50
 70
     1
102
RTVSPropertyOp51
 70
     0
102
RTVSPropertyOp52
 70
     0
102
RTVSPropertyOp53
 70
     1
102
RTVSPropertyOp54
 70
     1
102
RTVSPropertyOp55
 70
     1
102
RTVSPropertyOp56
 70
     1
102
RTVSPropertyOp57
 70
     1
102
RTVSPost2010Prop28
280
     0
102
RTVSPost2010PropOp28
 70
     1
102
RTVSPost2010Prop29
280
     1
102
RTVSPost2010PropOp29
 70
     1
102
RTVSPost2010Prop30
280
     1
102
RTVSPost2010PropOp30
 70
     1
102
RTVSPost2010Prop31
280
     0
102
RTVSPost2010PropOp31
 70
     1
102
RTVSPost2010Prop32
280
     0
102
RTVSPost2010PropOp32
 70
     1
102
RTVSPost2010Prop33
280
     0
102
RTVSPost2010PropOp33
 70
     1
102
RTVSPost2010Prop34
280
     0
102
RTVSPost2010PropOp34
 70
     1
102
RTVSPost2010Prop35
280
     0
102
RTVSPost2010PropOp35
 70
     1
102
RTVSPost2010Prop36
280
     0
102
RTVSPost2010PropOp36
 70
     1
102
RTVSPost2010Prop37
 90
       50
102
RTVSPost2010PropOp37
 70
     1
102
RTVSPost2010Prop38
140
0.0
102
RTVSPost2010PropOp38
 70
     1
102
RTVSPost2010Prop39
140
1.0
102
RTVSPost2010PropOp39
 70
     1
102
RTVSPost2010Prop40
 90
        0
102
RTVSPost2010PropOp40
 70
     1
102
RTVSPost2010Prop41ColorIndex
 90
       18
102
RTVSPost2010Prop41ColorRGB
 90
        0
102
RTVSPost2010PropOp41
 70
     1
102
RTVSPost2010Prop42
 90
       50
102
RTVSPost2010PropOp42
 70
     1
102
RTVSPost2010Prop43
 90
        3
102
RTVSPost2010PropOp43
 70
     1
102
RTVSPost2010Prop44ColorIndex
 90
        5
102
RTVSPost2010Prop44ColorRGB
 90
      255
102
RTVSPost2010PropOp44
 70
     1
102
RTVSPost2010Prop45
280
     0
102
RTVSPost2010PropOp45
 70
     1
102
RTVSPost2010Prop46
 90
       50
102
RTVSPost2010PropOp46
 70
     1
102
RTVSPost2010Prop47
 90
       50
102
RTVSPost2010PropOp47
 70
     1
102
RTVSPost2010Prop48
 90
       50
102
RTVSPost2010PropOp48
 70
     1
102
RTVSPost2010Prop49
280
     0
102
RTVSPost2010PropOp49
 70
     1
102
RTVSPost2010Prop50
 90
       50
102
RTVSPost2010PropOp50
 70
     1
102
RTVSPost2010Prop51ColorIndex
 90
      256
102
RTVSPost2010Prop51ColorRGB
 90
-16777216
102
RTVSPost2010PropOp51
 70
     0
102
RTVSPost2010Prop52
140
1.0
102
RTVSPost2010PropOp52
 70
     0
102
RTVSPost2010Prop53
 90
        2
102
RTVSPost2010PropOp53
 70
     1
102
RTVSPost2010Prop54
  1
strokes_ogs.tif
102
RTVSPost2010PropOp54
 70
     1
102
RTVSPost2010Prop55
280
     0
102
RTVSPost2010PropOp55
 70
     1
102
RTVSPost2010Prop56
140
1.0
102
RTVSPost2010PropOp56
 70
     1
102
RTVSPost2010Prop57
140
1.0
102
RTVSPost2010PropOp57
 70
     1
  0
XRECORD
  5
38E
102
{ACAD_REACTORS
330
38D
102
}
330
38D
100
AcDbXrecord
280
     1
102
RTVSPropertyOp0
 70
     1
102
RTVSPropertyOp1
 70
     1
102
RTVSPropertyOp2
 70
     1
102
RTVSPropertyOp3
 70
     1
102
RTVSPropertyOp4
 70
     1
102
RTVSPropertyOp5
 70
     1
102
RTVSPropertyOp6
 70
     1
102
RTVSPropertyOp7
 70
     1
102
RTVSPropertyOp8
 70
     1
102
RTVSPropertyOp9
 70
     1
102
RTVSPropertyOp10
 70
     1
102
RTVSPropertyOp11
 70
     1
102
RTVSPropertyOp12
 70
     1
102
RTVSPropertyOp13
 70
     1
102
RTVSPropertyOp14
 70
     1
102
RTVSPropertyOp15
 70
     1
102
RTVSPropertyOp16
 70
     1
102
RTVSPropertyOp17
 70
     1
102
RTVSPropertyOp18
 70
     1
102
RTVSPropertyOp19
 70
     1
102
RTVSPropertyOp20
 70
     1
102
RTVSPropertyOp21
 70
     1
102
RTVSPropertyOp22
 70
     1
102
RTVSPropertyOp23
 70
     1
102
RTVSPropertyOp24
 70
     1
102
RTVSPropertyOp25
 70
     1
102
RTVSPropertyOp26
 70
     1
102
RTVSPropertyOp27
 70
     1
102
RTVSPropertyOp28
 70
     1
102
RTVSPropertyOp29
 70
     1
102
RTVSPropertyOp30
 70
     1
102
RTVSPropertyOp31
 70
     1
102
RTVSPropertyOp32
 70
     1
102
RTVSPropertyOp33
 70
     1
102
RTVSPropertyOp34
 70
     1
102
RTVSPropertyOp35
 70
     1
102
RTVSPropertyOp36
 70
     1
102
RTVSPropertyOp37
 70
     1
102
RTVSPropertyOp38
 70
     1
102
RTVSPropertyOp39
 70
     1
102
RTVSPropertyOp40
 70
     1
102
RTVSPropertyOp41
 70
     1
102
RTVSPropertyOp42
 70
     1
102
RTVSPropertyOp43
 70
     1
102
RTVSPropertyOp44
 70
     1
102
RTVSPropertyOp45
 70
     1
102
RTVSPropertyOp46
 70
     1
102
RTVSPropertyOp47
 70
     1
102
RTVSPropertyOp48
 70
     1
102
RTVSPropertyOp49
 70
     1
102
RTVSPropertyOp50
 70
     1
102
RTVSPropertyOp51
 70
     0
102
RTVSPropertyOp52
 70
     0
102
RTVSPropertyOp53
 70
     1
102
RTVSPropertyOp54
 70
     1
102
RTVSPropertyOp55
 70
     1
102
RTVSPropertyOp56
 70
     1
102
RTVSPropertyOp57
 70
     1
102
RTVSPost2010Prop28
280
     0
102
RTVSPost2010PropOp28
 70
     1
102
RTVSPost2010Prop29
280
     1
102
RTVSPost2010PropOp29
 70
     1
102
RTVSPost2010Prop30
280
     1
102
RTVSPost2010PropOp30
 70
     1
102
RTVSPost2010Prop31
280
     0
102
RTVSPost2010PropOp31
 70
     1
102
RTVSPost2010Prop32
280
     0
102
RTVSPost2010PropOp32
 70
     1
102
RTVSPost2010Prop33
280
     0
102
RTVSPost2010PropOp33
 70
     1
102
RTVSPost2010Prop34
280
     0
102
RTVSPost2010PropOp34
 70
     1
102
RTVSPost2010Prop35
280
     0
102
RTVSPost2010PropOp35
 70
     1
102
RTVSPost2010Prop36
280
     0
102
RTVSPost2010PropOp36
 70
     1
102
RTVSPost2010Prop37
 90
       50
102
RTVSPost2010PropOp37
 70
     1
102
RTVSPost2010Prop38
140
0.0
102
RTVSPost2010PropOp38
 70
     1
102
RTVSPost2010Prop39
140
1.0
102
RTVSPost2010PropOp39
 70
     1
102
RTVSPost2010Prop40
 90
        0
102
RTVSPost2010PropOp40
 70
     1
102
RTVSPost2010Prop41ColorIndex
 90
       18
102
RTVSPost2010Prop41ColorRGB
 90
        0
102
RTVSPost2010PropOp41
 70
     1
102
RTVSPost2010Prop42
 90
       50
102
RTVSPost2010PropOp42
 70
     1
102
RTVSPost2010Prop43
 90
        3
102
RTVSPost2010PropOp43
 70
     1
102
RTVSPost2010Prop44ColorIndex
 90
        5
102
RTVSPost2010Prop44ColorRGB
 90
      255
102
RTVSPost2010PropOp44
 70
     1
102
RTVSPost2010Prop45
280
     0
102
RTVSPost2010PropOp45
 70
     1
102
RTVSPost2010Prop46
 90
       50
102
RTVSPost2010PropOp46
 70
     1
102
RTVSPost2010Prop47
 90
       50
102
RTVSPost2010PropOp47
 70
     1
102
RTVSPost2010Prop48
 90
       50
102
RTVSPost2010PropOp48
 70
     1
102
RTVSPost2010Prop49
280
     0
102
RTVSPost2010PropOp49
 70
     1
102
RTVSPost2010Prop50
 90
       50
102
RTVSPost2010PropOp50
 70
     1
102
RTVSPost2010Prop51ColorIndex
 90
      256
102
RTVSPost2010Prop51ColorRGB
 90
-16777216
102
RTVSPost2010PropOp51
 70
     0
102
RTVSPost2010Prop52
140
1.0
102
RTVSPost2010PropOp52
 70
     0
102
RTVSPost2010Prop53
 90
        2
102
RTVSPost2010PropOp53
 70
     1
102
RTVSPost2010Prop54
  1
strokes_ogs.tif
102
RTVSPost2010PropOp54
 70
     1
102
RTVSPost2010Prop55
280
     0
102
RTVSPost2010PropOp55
 70
     1
102
RTVSPost2010Prop56
140
1.0
102
RTVSPost2010PropOp56
 70
     1
102
RTVSPost2010Prop57
140
1.0
102
RTVSPost2010PropOp57
 70
     1
  0
XRECORD
  5
394
102
{ACAD_REACTORS
330
393
102
}
330
393
100
AcDbXrecord
280
     1
102
RTVSPropertyOp0
 70
     1
102
RTVSPropertyOp1
 70
     1
102
RTVSPropertyOp2
 70
     1
102
RTVSPropertyOp3
 70
     1
102
RTVSPropertyOp4
 70
     1
102
RTVSPropertyOp5
 70
     1
102
RTVSPropertyOp6
 70
     1
102
RTVSPropertyOp7
 70
     1
102
RTVSPropertyOp8
 70
     1
102
RTVSPropertyOp9
 70
     1
102
RTVSPropertyOp10
 70
     1
102
RTVSPropertyOp11
 70
     1
102
RTVSPropertyOp12
 70
     1
102
RTVSPropertyOp13
 70
     1
102
RTVSPropertyOp14
 70
     1
102
RTVSPropertyOp15
 70
     1
102
RTVSPropertyOp16
 70
     1
102
RTVSPropertyOp17
 70
     1
102
RTVSPropertyOp18
 70
     1
102
RTVSPropertyOp19
 70
     1
102
RTVSPropertyOp20
 70
     1
102
RTVSPropertyOp21
 70
     1
102
RTVSPropertyOp22
 70
     1
102
RTVSPropertyOp23
 70
     1
102
RTVSPropertyOp24
 70
     1
102
RTVSPropertyOp25
 70
     1
102
RTVSPropertyOp26
 70
     1
102
RTVSPropertyOp27
 70
     1
102
RTVSPropertyOp28
 70
     1
102
RTVSPropertyOp29
 70
     1
102
RTVSPropertyOp30
 70
     1
102
RTVSPropertyOp31
 70
     1
102
RTVSPropertyOp32
 70
     1
102
RTVSPropertyOp33
 70
     1
102
RTVSPropertyOp34
 70
     1
102
RTVSPropertyOp35
 70
     1
102
RTVSPropertyOp36
 70
     1
102
RTVSPropertyOp37
 70
     1
102
RTVSPropertyOp38
 70
     1
102
RTVSPropertyOp39
 70
     1
102
RTVSPropertyOp40
 70
     1
102
RTVSPropertyOp41
 70
     1
102
RTVSPropertyOp42
 70
     1
102
RTVSPropertyOp43
 70
     1
102
RTVSPropertyOp44
 70
     1
102
RTVSPropertyOp45
 70
     1
102
RTVSPropertyOp46
 70
     1
102
RTVSPropertyOp47
 70
     1
102
RTVSPropertyOp48
 70
     1
102
RTVSPropertyOp49
 70
     1
102
RTVSPropertyOp50
 70
     1
102
RTVSPropertyOp51
 70
     0
102
RTVSPropertyOp52
 70
     0
102
RTVSPropertyOp53
 70
     1
102
RTVSPropertyOp54
 70
     1
102
RTVSPropertyOp55
 70
     1
102
RTVSPropertyOp56
 70
     1
102
RTVSPropertyOp57
 70
     1
102
RTVSPost2010Prop28
280
     0
102
RTVSPost2010PropOp28
 70
     1
102
RTVSPost2010Prop29
280
     1
102
RTVSPost2010PropOp29
 70
     1
102
RTVSPost2010Prop30
280
     1
102
RTVSPost2010PropOp30
 70
     1
102
RTVSPost2010Prop31
280
     0
102
RTVSPost2010PropOp31
 70
     1
102
RTVSPost2010Prop32
280
     0
102
RTVSPost2010PropOp32
 70
     1
102
RTVSPost2010Prop33
280
     0
102
RTVSPost2010PropOp33
 70
     1
102
RTVSPost2010Prop34
280
     0
102
RTVSPost2010PropOp34
 70
     1
102
RTVSPost2010Prop35
280
     0
102
RTVSPost2010PropOp35
 70
     1
102
RTVSPost2010Prop36
280
     0
102
RTVSPost2010PropOp36
 70
     1
102
RTVSPost2010Prop37
 90
       50
102
RTVSPost2010PropOp37
 70
     1
102
RTVSPost2010Prop38
140
0.0
102
RTVSPost2010PropOp38
 70
     1
102
RTVSPost2010Prop39
140
1.0
102
RTVSPost2010PropOp39
 70
     1
102
RTVSPost2010Prop40
 90
        0
102
RTVSPost2010PropOp40
 70
     1
102
RTVSPost2010Prop41ColorIndex
 90
       18
102
RTVSPost2010Prop41ColorRGB
 90
        0
102
RTVSPost2010PropOp41
 70
     1
102
RTVSPost2010Prop42
 90
       50
102
RTVSPost2010PropOp42
 70
     1
102
RTVSPost2010Prop43
 90
        3
102
RTVSPost2010PropOp43
 70
     1
102
RTVSPost2010Prop44ColorIndex
 90
        5
102
RTVSPost2010Prop44ColorRGB
 90
      255
102
RTVSPost2010PropOp44
 70
     1
102
RTVSPost2010Prop45
280
     0
102
RTVSPost2010PropOp45
 70
     1
102
RTVSPost2010Prop46
 90
       50
102
RTVSPost2010PropOp46
 70
     1
102
RTVSPost2010Prop47
 90
       50
102
RTVSPost2010PropOp47
 70
     1
102
RTVSPost2010Prop48
 90
       50
102
RTVSPost2010PropOp48
 70
     1
102
RTVSPost2010Prop49
280
     0
102
RTVSPost2010PropOp49
 70
     1
102
RTVSPost2010Prop50
 90
       50
102
RTVSPost2010PropOp50
 70
     1
102
RTVSPost2010Prop51ColorIndex
 90
      256
102
RTVSPost2010Prop51ColorRGB
 90
-16777216
102
RTVSPost2010PropOp51
 70
     0
102
RTVSPost2010Prop52
140
1.0
102
RTVSPost2010PropOp52
 70
     0
102
RTVSPost2010Prop53
 90
        2
102
RTVSPost2010PropOp53
 70
     1
102
RTVSPost2010Prop54
  1
strokes_ogs.tif
102
RTVSPost2010PropOp54
 70
     1
102
RTVSPost2010Prop55
280
     0
102
RTVSPost2010PropOp55
 70
     1
102
RTVSPost2010Prop56
140
1.0
102
RTVSPost2010PropOp56
 70
     1
102
RTVSPost2010Prop57
140
1.0
102
RTVSPost2010PropOp57
 70
     1
  0
XRECORD
  5
3A8
102
{ACAD_REACTORS
330
3A7
102
}
330
3A7
100
AcDbXrecord
280
     1
102
RTVSPropertyOp0
 70
     0
102
RTVSPropertyOp1
 70
     0
102
RTVSPropertyOp2
 70
     0
102
RTVSPropertyOp3
 70
     0
102
RTVSPropertyOp4
 70
     0
102
RTVSPropertyOp5
 70
     0
102
RTVSPropertyOp6
 70
     0
102
RTVSPropertyOp7
 70
     0
102
RTVSPropertyOp8
 70
     0
102
RTVSPropertyOp9
 70
     0
102
RTVSPropertyOp10
 70
     0
102
RTVSPropertyOp11
 70
     0
102
RTVSPropertyOp12
 70
     0
102
RTVSPropertyOp13
 70
     0
102
RTVSPropertyOp14
 70
     2
102
RTVSPropertyOp15
 70
     0
102
RTVSPropertyOp16
 70
     0
102
RTVSPropertyOp17
 70
     0
102
RTVSPropertyOp18
 70
     0
102
RTVSPropertyOp19
 70
     0
102
RTVSPropertyOp20
 70
     0
102
RTVSPropertyOp21
 70
     0
102
RTVSPropertyOp22
 70
     0
102
RTVSPropertyOp23
 70
     0
102
RTVSPropertyOp24
 70
     0
102
RTVSPropertyOp25
 70
     0
102
RTVSPropertyOp26
 70
     0
102
RTVSPropertyOp27
 70
     0
102
RTVSPropertyOp28
 70
     0
102
RTVSPropertyOp29
 70
     0
102
RTVSPropertyOp30
 70
     0
102
RTVSPropertyOp31
 70
     0
102
RTVSPropertyOp32
 70
     0
102
RTVSPropertyOp33
 70
     0
102
RTVSPropertyOp34
 70
     0
102
RTVSPropertyOp35
 70
     0
102
RTVSPropertyOp36
 70
     0
102
RTVSPropertyOp37
 70
     0
102
RTVSPropertyOp38
 70
     0
102
RTVSPropertyOp39
 70
     0
102
RTVSPropertyOp40
 70
     0
102
RTVSPropertyOp41
 70
     0
102
RTVSPropertyOp42
 70
     0
102
RTVSPropertyOp43
 70
     0
102
RTVSPropertyOp44
 70
     0
102
RTVSPropertyOp45
 70
     0
102
RTVSPropertyOp46
 70
     0
102
RTVSPropertyOp47
 70
     0
102
RTVSPropertyOp48
 70
     0
102
RTVSPropertyOp49
 70
     0
102
RTVSPropertyOp50
 70
     0
102
RTVSPropertyOp51
 70
     0
102
RTVSPropertyOp52
 70
     0
102
RTVSPropertyOp53
 70
     0
102
RTVSPropertyOp54
 70
     0
102
RTVSPropertyOp55
 70
     0
102
RTVSPropertyOp56
 70
     0
102
RTVSPropertyOp57
 70
     0
102
RTVSPost2010Prop28
280
     0
102
RTVSPost2010PropOp28
 70
     0
102
RTVSPost2010Prop29
280
     1
102
RTVSPost2010PropOp29
 70
     0
102
RTVSPost2010Prop30
280
     1
102
RTVSPost2010PropOp30
 70
     0
102
RTVSPost2010Prop31
280
     0
102
RTVSPost2010PropOp31
 70
     0
102
RTVSPost2010Prop32
280
     0
102
RTVSPost2010PropOp32
 70
     0
102
RTVSPost2010Prop33
280
     0
102
RTVSPost2010PropOp33
 70
     0
102
RTVSPost2010Prop34
280
     0
102
RTVSPost2010PropOp34
 70
     0
102
RTVSPost2010Prop35
280
     0
102
RTVSPost2010PropOp35
 70
     0
102
RTVSPost2010Prop36
280
     0
102
RTVSPost2010PropOp36
 70
     0
102
RTVSPost2010Prop37
 90
       50
102
RTVSPost2010PropOp37
 70
     0
102
RTVSPost2010Prop38
140
0.0
102
RTVSPost2010PropOp38
 70
     0
102
RTVSPost2010Prop39
140
1.0
102
RTVSPost2010PropOp39
 70
     0
102
RTVSPost2010Prop40
 90
        0
102
RTVSPost2010PropOp40
 70
     0
102
RTVSPost2010Prop41ColorIndex
 90
       18
102
RTVSPost2010Prop41ColorRGB
 90
        0
102
RTVSPost2010PropOp41
 70
     0
102
RTVSPost2010Prop42
 90
       50
102
RTVSPost2010PropOp42
 70
     0
102
RTVSPost2010Prop43
 90
        3
102
RTVSPost2010PropOp43
 70
     0
102
RTVSPost2010Prop44ColorIndex
 90
        5
102
RTVSPost2010Prop44ColorRGB
 90
      255
102
RTVSPost2010PropOp44
 70
     0
102
RTVSPost2010Prop45
280
     0
102
RTVSPost2010PropOp45
 70
     0
102
RTVSPost2010Prop46
 90
       50
102
RTVSPost2010PropOp46
 70
     0
102
RTVSPost2010Prop47
 90
       50
102
RTVSPost2010PropOp47
 70
     0
102
RTVSPost2010Prop48
 90
       50
102
RTVSPost2010PropOp48
 70
     0
102
RTVSPost2010Prop49
280
     0
102
RTVSPost2010PropOp49
 70
     0
102
RTVSPost2010Prop50
 90
       50
102
RTVSPost2010PropOp50
 70
     0
102
RTVSPost2010Prop51ColorIndex
 90
      256
102
RTVSPost2010Prop51ColorRGB
 90
-16777216
102
RTVSPost2010PropOp51
 70
     0
102
RTVSPost2010Prop52
140
1.0
102
RTVSPost2010PropOp52
 70
     0
102
RTVSPost2010Prop53
 90
        2
102
RTVSPost2010PropOp53
 70
     0
102
RTVSPost2010Prop54
  1
strokes_ogs.tif
102
RTVSPost2010PropOp54
 70
     0
102
RTVSPost2010Prop55
280
     0
102
RTVSPost2010PropOp55
 70
     0
102
RTVSPost2010Prop56
140
1.0
102
RTVSPost2010PropOp56
 70
     0
102
RTVSPost2010Prop57
140
1.0
102
RTVSPost2010PropOp57
 70
     0
  0
XRECORD
  5
3A2
102
{ACAD_REACTORS
330
3A1
102
}
330
3A1
100
AcDbXrecord
280
     1
102
RTVSPropertyOp0
 70
     1
102
RTVSPropertyOp1
 70
     1
102
RTVSPropertyOp2
 70
     1
102
RTVSPropertyOp3
 70
     1
102
RTVSPropertyOp4
 70
     1
102
RTVSPropertyOp5
 70
     1
102
RTVSPropertyOp6
 70
     1
102
RTVSPropertyOp7
 70
     1
102
RTVSPropertyOp8
 70
     1
102
RTVSPropertyOp9
 70
     1
102
RTVSPropertyOp10
 70
     1
102
RTVSPropertyOp11
 70
     1
102
RTVSPropertyOp12
 70
     1
102
RTVSPropertyOp13
 70
     1
102
RTVSPropertyOp14
 70
     1
102
RTVSPropertyOp15
 70
     1
102
RTVSPropertyOp16
 70
     1
102
RTVSPropertyOp17
 70
     1
102
RTVSPropertyOp18
 70
     1
102
RTVSPropertyOp19
 70
     1
102
RTVSPropertyOp20
 70
     1
102
RTVSPropertyOp21
 70
     1
102
RTVSPropertyOp22
 70
     1
102
RTVSPropertyOp23
 70
     1
102
RTVSPropertyOp24
 70
     1
102
RTVSPropertyOp25
 70
     1
102
RTVSPropertyOp26
 70
     1
102
RTVSPropertyOp27
 70
     1
102
RTVSPropertyOp28
 70
     1
102
RTVSPropertyOp29
 70
     1
102
RTVSPropertyOp30
 70
     1
102
RTVSPropertyOp31
 70
     1
102
RTVSPropertyOp32
 70
     1
102
RTVSPropertyOp33
 70
     1
102
RTVSPropertyOp34
 70
     1
102
RTVSPropertyOp35
 70
     1
102
RTVSPropertyOp36
 70
     1
102
RTVSPropertyOp37
 70
     1
102
RTVSPropertyOp38
 70
     1
102
RTVSPropertyOp39
 70
     1
102
RTVSPropertyOp40
 70
     1
102
RTVSPropertyOp41
 70
     1
102
RTVSPropertyOp42
 70
     1
102
RTVSPropertyOp43
 70
     1
102
RTVSPropertyOp44
 70
     1
102
RTVSPropertyOp45
 70
     1
102
RTVSPropertyOp46
 70
     1
102
RTVSPropertyOp47
 70
     1
102
RTVSPropertyOp48
 70
     1
102
RTVSPropertyOp49
 70
     1
102
RTVSPropertyOp50
 70
     1
102
RTVSPropertyOp51
 70
     0
102
RTVSPropertyOp52
 70
     0
102
RTVSPropertyOp53
 70
     1
102
RTVSPropertyOp54
 70
     1
102
RTVSPropertyOp55
 70
     1
102
RTVSPropertyOp56
 70
     1
102
RTVSPropertyOp57
 70
     1
102
RTVSPost2010Prop28
280
     0
102
RTVSPost2010PropOp28
 70
     1
102
RTVSPost2010Prop29
280
     1
102
RTVSPost2010PropOp29
 70
     1
102
RTVSPost2010Prop30
280
     1
102
RTVSPost2010PropOp30
 70
     1
102
RTVSPost2010Prop31
280
     0
102
RTVSPost2010PropOp31
 70
     1
102
RTVSPost2010Prop32
280
     0
102
RTVSPost2010PropOp32
 70
     1
102
RTVSPost2010Prop33
280
     0
102
RTVSPost2010PropOp33
 70
     1
102
RTVSPost2010Prop34
280
     0
102
RTVSPost2010PropOp34
 70
     1
102
RTVSPost2010Prop35
280
     0
102
RTVSPost2010PropOp35
 70
     1
102
RTVSPost2010Prop36
280
     0
102
RTVSPost2010PropOp36
 70
     1
102
RTVSPost2010Prop37
 90
       50
102
RTVSPost2010PropOp37
 70
     1
102
RTVSPost2010Prop38
140
0.0
102
RTVSPost2010PropOp38
 70
     1
102
RTVSPost2010Prop39
140
1.0
102
RTVSPost2010PropOp39
 70
     1
102
RTVSPost2010Prop40
 90
        0
102
RTVSPost2010PropOp40
 70
     1
102
RTVSPost2010Prop41ColorIndex
 90
       18
102
RTVSPost2010Prop41ColorRGB
 90
        0
102
RTVSPost2010PropOp41
 70
     1
102
RTVSPost2010Prop42
 90
       50
102
RTVSPost2010PropOp42
 70
     1
102
RTVSPost2010Prop43
 90
        3
102
RTVSPost2010PropOp43
 70
     1
102
RTVSPost2010Prop44ColorIndex
 90
        5
102
RTVSPost2010Prop44ColorRGB
 90
      255
102
RTVSPost2010PropOp44
 70
     1
102
RTVSPost2010Prop45
280
     0
102
RTVSPost2010PropOp45
 70
     1
102
RTVSPost2010Prop46
 90
       50
102
RTVSPost2010PropOp46
 70
     1
102
RTVSPost2010Prop47
 90
       50
102
RTVSPost2010PropOp47
 70
     1
102
RTVSPost2010Prop48
 90
       50
102
RTVSPost2010PropOp48
 70
     1
102
RTVSPost2010Prop49
280
     0
102
RTVSPost2010PropOp49
 70
     1
102
RTVSPost2010Prop50
 90
       50
102
RTVSPost2010PropOp50
 70
     1
102
RTVSPost2010Prop51ColorIndex
 90
      256
102
RTVSPost2010Prop51ColorRGB
 90
-16777216
102
RTVSPost2010PropOp51
 70
     0
102
RTVSPost2010Prop52
140
1.0
102
RTVSPost2010PropOp52
 70
     0
102
RTVSPost2010Prop53
 90
        2
102
RTVSPost2010PropOp53
 70
     1
102
RTVSPost2010Prop54
  1
strokes_ogs.tif
102
RTVSPost2010PropOp54
 70
     1
102
RTVSPost2010Prop55
280
     0
102
RTVSPost2010PropOp55
 70
     1
102
RTVSPost2010Prop56
140
1.0
102
RTVSPost2010PropOp56
 70
     1
102
RTVSPost2010Prop57
140
1.0
102
RTVSPost2010PropOp57
 70
     1
  0
XRECORD
  5
3AA
102
{ACAD_REACTORS
330
3A9
102
}
330
3A9
100
AcDbXrecord
280
     1
102
RTVSPropertyOp0
 70
     0
102
RTVSPropertyOp1
 70
     0
102
RTVSPropertyOp2
 70
     0
102
RTVSPropertyOp3
 70
     0
102
RTVSPropertyOp4
 70
     0
102
RTVSPropertyOp5
 70
     0
102
RTVSPropertyOp6
 70
     0
102
RTVSPropertyOp7
 70
     0
102
RTVSPropertyOp8
 70
     0
102
RTVSPropertyOp9
 70
     0
102
RTVSPropertyOp10
 70
     0
102
RTVSPropertyOp11
 70
     0
102
RTVSPropertyOp12
 70
     0
102
RTVSPropertyOp13
 70
     0
102
RTVSPropertyOp14
 70
     2
102
RTVSPropertyOp15
 70
     0
102
RTVSPropertyOp16
 70
     0
102
RTVSPropertyOp17
 70
     0
102
RTVSPropertyOp18
 70
     0
102
RTVSPropertyOp19
 70
     0
102
RTVSPropertyOp20
 70
     0
102
RTVSPropertyOp21
 70
     0
102
RTVSPropertyOp22
 70
     0
102
RTVSPropertyOp23
 70
     0
102
RTVSPropertyOp24
 70
     0
102
RTVSPropertyOp25
 70
     0
102
RTVSPropertyOp26
 70
     0
102
RTVSPropertyOp27
 70
     0
102
RTVSPropertyOp28
 70
     0
102
RTVSPropertyOp29
 70
     0
102
RTVSPropertyOp30
 70
     0
102
RTVSPropertyOp31
 70
     0
102
RTVSPropertyOp32
 70
     0
102
RTVSPropertyOp33
 70
     0
102
RTVSPropertyOp34
 70
     0
102
RTVSPropertyOp35
 70
     0
102
RTVSPropertyOp36
 70
     0
102
RTVSPropertyOp37
 70
     0
102
RTVSPropertyOp38
 70
     0
102
RTVSPropertyOp39
 70
     0
102
RTVSPropertyOp40
 70
     0
102
RTVSPropertyOp41
 70
     0
102
RTVSPropertyOp42
 70
     0
102
RTVSPropertyOp43
 70
     0
102
RTVSPropertyOp44
 70
     0
102
RTVSPropertyOp45
 70
     0
102
RTVSPropertyOp46
 70
     0
102
RTVSPropertyOp47
 70
     0
102
RTVSPropertyOp48
 70
     0
102
RTVSPropertyOp49
 70
     0
102
RTVSPropertyOp50
 70
     0
102
RTVSPropertyOp51
 70
     0
102
RTVSPropertyOp52
 70
     0
102
RTVSPropertyOp53
 70
     0
102
RTVSPropertyOp54
 70
     0
102
RTVSPropertyOp55
 70
     0
102
RTVSPropertyOp56
 70
     0
102
RTVSPropertyOp57
 70
     0
102
RTVSPost2010Prop28
280
     0
102
RTVSPost2010PropOp28
 70
     0
102
RTVSPost2010Prop29
280
     1
102
RTVSPost2010PropOp29
 70
     0
102
RTVSPost2010Prop30
280
     1
102
RTVSPost2010PropOp30
 70
     0
102
RTVSPost2010Prop31
280
     0
102
RTVSPost2010PropOp31
 70
     0
102
RTVSPost2010Prop32
280
     0
102
RTVSPost2010PropOp32
 70
     0
102
RTVSPost2010Prop33
280
     0
102
RTVSPost2010PropOp33
 70
     0
102
RTVSPost2010Prop34
280
     0
102
RTVSPost2010PropOp34
 70
     0
102
RTVSPost2010Prop35
280
     0
102
RTVSPost2010PropOp35
 70
     0
102
RTVSPost2010Prop36
280
     0
102
RTVSPost2010PropOp36
 70
     0
102
RTVSPost2010Prop37
 90
       50
102
RTVSPost2010PropOp37
 70
     0
102
RTVSPost2010Prop38
140
0.0
102
RTVSPost2010PropOp38
 70
     0
102
RTVSPost2010Prop39
140
1.0
102
RTVSPost2010PropOp39
 70
     0
102
RTVSPost2010Prop40
 90
        0
102
RTVSPost2010PropOp40
 70
     0
102
RTVSPost2010Prop41ColorIndex
 90
       18
102
RTVSPost2010Prop41ColorRGB
 90
        0
102
RTVSPost2010PropOp41
 70
     0
102
RTVSPost2010Prop42
 90
       50
102
RTVSPost2010PropOp42
 70
     0
102
RTVSPost2010Prop43
 90
        3
102
RTVSPost2010PropOp43
 70
     0
102
RTVSPost2010Prop44ColorIndex
 90
        5
102
RTVSPost2010Prop44ColorRGB
 90
      255
102
RTVSPost2010PropOp44
 70
     0
102
RTVSPost2010Prop45
280
     0
102
RTVSPost2010PropOp45
 70
     0
102
RTVSPost2010Prop46
 90
       50
102
RTVSPost2010PropOp46
 70
     0
102
RTVSPost2010Prop47
 90
       50
102
RTVSPost2010PropOp47
 70
     0
102
RTVSPost2010Prop48
 90
       50
102
RTVSPost2010PropOp48
 70
     0
102
RTVSPost2010Prop49
280
     0
102
RTVSPost2010PropOp49
 70
     0
102
RTVSPost2010Prop50
 90
       50
102
RTVSPost2010PropOp50
 70
     0
102
RTVSPost2010Prop51ColorIndex
 90
      256
102
RTVSPost2010Prop51ColorRGB
 90
-16777216
102
RTVSPost2010PropOp51
 70
     0
102
RTVSPost2010Prop52
140
1.0
102
RTVSPost2010PropOp52
 70
     0
102
RTVSPost2010Prop53
 90
        2
102
RTVSPost2010PropOp53
 70
     0
102
RTVSPost2010Prop54
  1
strokes_ogs.tif
102
RTVSPost2010PropOp54
 70
     0
102
RTVSPost2010Prop55
280
     0
102
RTVSPost2010PropOp55
 70
     0
102
RTVSPost2010Prop56
140
1.0
102
RTVSPost2010PropOp56
 70
     0
102
RTVSPost2010Prop57
140
1.0
102
RTVSPost2010PropOp57
 70
     0
  0
XRECORD
  5
398
102
{ACAD_REACTORS
330
397
102
}
330
397
100
AcDbXrecord
280
     1
102
RTVSPropertyOp0
 70
     1
102
RTVSPropertyOp1
 70
     1
102
RTVSPropertyOp2
 70
     1
102
RTVSPropertyOp3
 70
     1
102
RTVSPropertyOp4
 70
     1
102
RTVSPropertyOp5
 70
     1
102
RTVSPropertyOp6
 70
     1
102
RTVSPropertyOp7
 70
     1
102
RTVSPropertyOp8
 70
     1
102
RTVSPropertyOp9
 70
     1
102
RTVSPropertyOp10
 70
     1
102
RTVSPropertyOp11
 70
     1
102
RTVSPropertyOp12
 70
     1
102
RTVSPropertyOp13
 70
     1
102
RTVSPropertyOp14
 70
     1
102
RTVSPropertyOp15
 70
     1
102
RTVSPropertyOp16
 70
     1
102
RTVSPropertyOp17
 70
     1
102
RTVSPropertyOp18
 70
     1
102
RTVSPropertyOp19
 70
     1
102
RTVSPropertyOp20
 70
     1
102
RTVSPropertyOp21
 70
     1
102
RTVSPropertyOp22
 70
     1
102
RTVSPropertyOp23
 70
     1
102
RTVSPropertyOp24
 70
     1
102
RTVSPropertyOp25
 70
     1
102
RTVSPropertyOp26
 70
     1
102
RTVSPropertyOp27
 70
     1
102
RTVSPropertyOp28
 70
     1
102
RTVSPropertyOp29
 70
     1
102
RTVSPropertyOp30
 70
     1
102
RTVSPropertyOp31
 70
     1
102
RTVSPropertyOp32
 70
     1
102
RTVSPropertyOp33
 70
     1
102
RTVSPropertyOp34
 70
     1
102
RTVSPropertyOp35
 70
     1
102
RTVSPropertyOp36
 70
     1
102
RTVSPropertyOp37
 70
     1
102
RTVSPropertyOp38
 70
     1
102
RTVSPropertyOp39
 70
     1
102
RTVSPropertyOp40
 70
     1
102
RTVSPropertyOp41
 70
     1
102
RTVSPropertyOp42
 70
     1
102
RTVSPropertyOp43
 70
     1
102
RTVSPropertyOp44
 70
     1
102
RTVSPropertyOp45
 70
     1
102
RTVSPropertyOp46
 70
     1
102
RTVSPropertyOp47
 70
     1
102
RTVSPropertyOp48
 70
     1
102
RTVSPropertyOp49
 70
     1
102
RTVSPropertyOp50
 70
     1
102
RTVSPropertyOp51
 70
     0
102
RTVSPropertyOp52
 70
     0
102
RTVSPropertyOp53
 70
     1
102
RTVSPropertyOp54
 70
     1
102
RTVSPropertyOp55
 70
     1
102
RTVSPropertyOp56
 70
     1
102
RTVSPropertyOp57
 70
     1
102
RTVSPost2010Prop28
280
     0
102
RTVSPost2010PropOp28
 70
     1
102
RTVSPost2010Prop29
280
     1
102
RTVSPost2010PropOp29
 70
     1
102
RTVSPost2010Prop30
280
     1
102
RTVSPost2010PropOp30
 70
     1
102
RTVSPost2010Prop31
280
     0
102
RTVSPost2010PropOp31
 70
     1
102
RTVSPost2010Prop32
280
     0
102
RTVSPost2010PropOp32
 70
     1
102
RTVSPost2010Prop33
280
     0
102
RTVSPost2010PropOp33
 70
     1
102
RTVSPost2010Prop34
280
     0
102
RTVSPost2010PropOp34
 70
     1
102
RTVSPost2010Prop35
280
     0
102
RTVSPost2010PropOp35
 70
     1
102
RTVSPost2010Prop36
280
     0
102
RTVSPost2010PropOp36
 70
     1
102
RTVSPost2010Prop37
 90
       50
102
RTVSPost2010PropOp37
 70
     1
102
RTVSPost2010Prop38
140
0.0
102
RTVSPost2010PropOp38
 70
     1
102
RTVSPost2010Prop39
140
1.0
102
RTVSPost2010PropOp39
 70
     1
102
RTVSPost2010Prop40
 90
        0
102
RTVSPost2010PropOp40
 70
     1
102
RTVSPost2010Prop41ColorIndex
 90
       18
102
RTVSPost2010Prop41ColorRGB
 90
        0
102
RTVSPost2010PropOp41
 70
     1
102
RTVSPost2010Prop42
 90
       50
102
RTVSPost2010PropOp42
 70
     1
102
RTVSPost2010Prop43
 90
        3
102
RTVSPost2010PropOp43
 70
     1
102
RTVSPost2010Prop44ColorIndex
 90
        5
102
RTVSPost2010Prop44ColorRGB
 90
      255
102
RTVSPost2010PropOp44
 70
     1
102
RTVSPost2010Prop45
280
     0
102
RTVSPost2010PropOp45
 70
     1
102
RTVSPost2010Prop46
 90
       50
102
RTVSPost2010PropOp46
 70
     1
102
RTVSPost2010Prop47
 90
       50
102
RTVSPost2010PropOp47
 70
     1
102
RTVSPost2010Prop48
 90
       50
102
RTVSPost2010PropOp48
 70
     1
102
RTVSPost2010Prop49
280
     0
102
RTVSPost2010PropOp49
 70
     1
102
RTVSPost2010Prop50
 90
       50
102
RTVSPost2010PropOp50
 70
     1
102
RTVSPost2010Prop51ColorIndex
 90
      256
102
RTVSPost2010Prop51ColorRGB
 90
-16777216
102
RTVSPost2010PropOp51
 70
     0
102
RTVSPost2010Prop52
140
1.0
102
RTVSPost2010PropOp52
 70
     0
102
RTVSPost2010Prop53
 90
        2
102
RTVSPost2010PropOp53
 70
     1
102
RTVSPost2010Prop54
  1
strokes_ogs.tif
102
RTVSPost2010PropOp54
 70
     1
102
RTVSPost2010Prop55
280
     0
102
RTVSPost2010PropOp55
 70
     1
102
RTVSPost2010Prop56
140
1.0
102
RTVSPost2010PropOp56
 70
     1
102
RTVSPost2010Prop57
140
1.0
102
RTVSPost2010PropOp57
 70
     1
  0
XRECORD
  5
3B6
102
{ACAD_REACTORS
330
3B5
102
}
330
3B5
100
AcDbXrecord
280
     1
102
RTVSPropertyOp0
 70
     1
102
RTVSPropertyOp1
 70
     1
102
RTVSPropertyOp2
 70
     1
102
RTVSPropertyOp3
 70
     1
102
RTVSPropertyOp4
 70
     1
102
RTVSPropertyOp5
 70
     1
102
RTVSPropertyOp6
 70
     1
102
RTVSPropertyOp7
 70
     1
102
RTVSPropertyOp8
 70
     1
102
RTVSPropertyOp9
 70
     1
102
RTVSPropertyOp10
 70
     1
102
RTVSPropertyOp11
 70
     1
102
RTVSPropertyOp12
 70
     1
102
RTVSPropertyOp13
 70
     1
102
RTVSPropertyOp14
 70
     1
102
RTVSPropertyOp15
 70
     1
102
RTVSPropertyOp16
 70
     1
102
RTVSPropertyOp17
 70
     1
102
RTVSPropertyOp18
 70
     1
102
RTVSPropertyOp19
 70
     1
102
RTVSPropertyOp20
 70
     1
102
RTVSPropertyOp21
 70
     1
102
RTVSPropertyOp22
 70
     1
102
RTVSPropertyOp23
 70
     1
102
RTVSPropertyOp24
 70
     1
102
RTVSPropertyOp25
 70
     1
102
RTVSPropertyOp26
 70
     1
102
RTVSPropertyOp27
 70
     1
102
RTVSPropertyOp28
 70
     1
102
RTVSPropertyOp29
 70
     1
102
RTVSPropertyOp30
 70
     1
102
RTVSPropertyOp31
 70
     1
102
RTVSPropertyOp32
 70
     1
102
RTVSPropertyOp33
 70
     1
102
RTVSPropertyOp34
 70
     1
102
RTVSPropertyOp35
 70
     1
102
RTVSPropertyOp36
 70
     1
102
RTVSPropertyOp37
 70
     1
102
RTVSPropertyOp38
 70
     1
102
RTVSPropertyOp39
 70
     1
102
RTVSPropertyOp40
 70
     1
102
RTVSPropertyOp41
 70
     1
102
RTVSPropertyOp42
 70
     1
102
RTVSPropertyOp43
 70
     1
102
RTVSPropertyOp44
 70
     1
102
RTVSPropertyOp45
 70
     1
102
RTVSPropertyOp46
 70
     1
102
RTVSPropertyOp47
 70
     1
102
RTVSPropertyOp48
 70
     1
102
RTVSPropertyOp49
 70
     1
102
RTVSPropertyOp50
 70
     1
102
RTVSPropertyOp51
 70
     0
102
RTVSPropertyOp52
 70
     0
102
RTVSPropertyOp53
 70
     1
102
RTVSPropertyOp54
 70
     1
102
RTVSPropertyOp55
 70
     1
102
RTVSPropertyOp56
 70
     1
102
RTVSPropertyOp57
 70
     1
102
RTVSPost2010Prop28
280
     0
102
RTVSPost2010PropOp28
 70
     1
102
RTVSPost2010Prop29
280
     1
102
RTVSPost2010PropOp29
 70
     1
102
RTVSPost2010Prop30
280
     1
102
RTVSPost2010PropOp30
 70
     1
102
RTVSPost2010Prop31
280
     0
102
RTVSPost2010PropOp31
 70
     1
102
RTVSPost2010Prop32
280
     0
102
RTVSPost2010PropOp32
 70
     1
102
RTVSPost2010Prop33
280
     0
102
RTVSPost2010PropOp33
 70
     1
102
RTVSPost2010Prop34
280
     0
102
RTVSPost2010PropOp34
 70
     1
102
RTVSPost2010Prop35
280
     0
102
RTVSPost2010PropOp35
 70
     1
102
RTVSPost2010Prop36
280
     0
102
RTVSPost2010PropOp36
 70
     1
102
RTVSPost2010Prop37
 90
       50
102
RTVSPost2010PropOp37
 70
     1
102
RTVSPost2010Prop38
140
0.0
102
RTVSPost2010PropOp38
 70
     1
102
RTVSPost2010Prop39
140
1.0
102
RTVSPost2010PropOp39
 70
     1
102
RTVSPost2010Prop40
 90
        0
102
RTVSPost2010PropOp40
 70
     1
102
RTVSPost2010Prop41ColorIndex
 90
       18
102
RTVSPost2010Prop41ColorRGB
 90
        0
102
RTVSPost2010PropOp41
 70
     1
102
RTVSPost2010Prop42
 90
       50
102
RTVSPost2010PropOp42
 70
     1
102
RTVSPost2010Prop43
 90
        3
102
RTVSPost2010PropOp43
 70
     1
102
RTVSPost2010Prop44ColorIndex
 90
        5
102
RTVSPost2010Prop44ColorRGB
 90
      255
102
RTVSPost2010PropOp44
 70
     1
102
RTVSPost2010Prop45
280
     0
102
RTVSPost2010PropOp45
 70
     1
102
RTVSPost2010Prop46
 90
       50
102
RTVSPost2010PropOp46
 70
     1
102
RTVSPost2010Prop47
 90
       50
102
RTVSPost2010PropOp47
 70
     1
102
RTVSPost2010Prop48
 90
       50
102
RTVSPost2010PropOp48
 70
     1
102
RTVSPost2010Prop49
280
     0
102
RTVSPost2010PropOp49
 70
     1
102
RTVSPost2010Prop50
 90
       50
102
RTVSPost2010PropOp50
 70
     1
102
RTVSPost2010Prop51ColorIndex
 90
      256
102
RTVSPost2010Prop51ColorRGB
 90
-16777216
102
RTVSPost2010PropOp51
 70
     0
102
RTVSPost2010Prop52
140
1.0
102
RTVSPost2010PropOp52
 70
     0
102
RTVSPost2010Prop53
 90
        2
102
RTVSPost2010PropOp53
 70
     1
102
RTVSPost2010Prop54
  1
strokes_ogs.tif
102
RTVSPost2010PropOp54
 70
     1
102
RTVSPost2010Prop55
280
     0
102
RTVSPost2010PropOp55
 70
     1
102
RTVSPost2010Prop56
140
1.0
102
RTVSPost2010PropOp56
 70
     1
102
RTVSPost2010Prop57
140
1.0
102
RTVSPost2010PropOp57
 70
     1
  0
XRECORD
  5
3B4
102
{ACAD_REACTORS
330
3B3
102
}
330
3B3
100
AcDbXrecord
280
     1
102
RTVSPropertyOp0
 70
     1
102
RTVSPropertyOp1
 70
     1
102
RTVSPropertyOp2
 70
     1
102
RTVSPropertyOp3
 70
     1
102
RTVSPropertyOp4
 70
     1
102
RTVSPropertyOp5
 70
     1
102
RTVSPropertyOp6
 70
     1
102
RTVSPropertyOp7
 70
     1
102
RTVSPropertyOp8
 70
     1
102
RTVSPropertyOp9
 70
     1
102
RTVSPropertyOp10
 70
     1
102
RTVSPropertyOp11
 70
     1
102
RTVSPropertyOp12
 70
     1
102
RTVSPropertyOp13
 70
     1
102
RTVSPropertyOp14
 70
     1
102
RTVSPropertyOp15
 70
     1
102
RTVSPropertyOp16
 70
     1
102
RTVSPropertyOp17
 70
     1
102
RTVSPropertyOp18
 70
     1
102
RTVSPropertyOp19
 70
     1
102
RTVSPropertyOp20
 70
     1
102
RTVSPropertyOp21
 70
     1
102
RTVSPropertyOp22
 70
     1
102
RTVSPropertyOp23
 70
     1
102
RTVSPropertyOp24
 70
     1
102
RTVSPropertyOp25
 70
     1
102
RTVSPropertyOp26
 70
     1
102
RTVSPropertyOp27
 70
     1
102
RTVSPropertyOp28
 70
     1
102
RTVSPropertyOp29
 70
     1
102
RTVSPropertyOp30
 70
     1
102
RTVSPropertyOp31
 70
     1
102
RTVSPropertyOp32
 70
     1
102
RTVSPropertyOp33
 70
     1
102
RTVSPropertyOp34
 70
     1
102
RTVSPropertyOp35
 70
     1
102
RTVSPropertyOp36
 70
     1
102
RTVSPropertyOp37
 70
     1
102
RTVSPropertyOp38
 70
     1
102
RTVSPropertyOp39
 70
     1
102
RTVSPropertyOp40
 70
     1
102
RTVSPropertyOp41
 70
     1
102
RTVSPropertyOp42
 70
     1
102
RTVSPropertyOp43
 70
     1
102
RTVSPropertyOp44
 70
     1
102
RTVSPropertyOp45
 70
     1
102
RTVSPropertyOp46
 70
     1
102
RTVSPropertyOp47
 70
     1
102
RTVSPropertyOp48
 70
     1
102
RTVSPropertyOp49
 70
     1
102
RTVSPropertyOp50
 70
     1
102
RTVSPropertyOp51
 70
     0
102
RTVSPropertyOp52
 70
     0
102
RTVSPropertyOp53
 70
     1
102
RTVSPropertyOp54
 70
     1
102
RTVSPropertyOp55
 70
     1
102
RTVSPropertyOp56
 70
     1
102
RTVSPropertyOp57
 70
     1
102
RTVSPost2010Prop28
280
     0
102
RTVSPost2010PropOp28
 70
     1
102
RTVSPost2010Prop29
280
     1
102
RTVSPost2010PropOp29
 70
     1
102
RTVSPost2010Prop30
280
     1
102
RTVSPost2010PropOp30
 70
     1
102
RTVSPost2010Prop31
280
     0
102
RTVSPost2010PropOp31
 70
     1
102
RTVSPost2010Prop32
280
     0
102
RTVSPost2010PropOp32
 70
     1
102
RTVSPost2010Prop33
280
     0
102
RTVSPost2010PropOp33
 70
     1
102
RTVSPost2010Prop34
280
     0
102
RTVSPost2010PropOp34
 70
     1
102
RTVSPost2010Prop35
280
     0
102
RTVSPost2010PropOp35
 70
     1
102
RTVSPost2010Prop36
280
     0
102
RTVSPost2010PropOp36
 70
     1
102
RTVSPost2010Prop37
 90
       50
102
RTVSPost2010PropOp37
 70
     1
102
RTVSPost2010Prop38
140
0.0
102
RTVSPost2010PropOp38
 70
     1
102
RTVSPost2010Prop39
140
1.0
102
RTVSPost2010PropOp39
 70
     1
102
RTVSPost2010Prop40
 90
        0
102
RTVSPost2010PropOp40
 70
     1
102
RTVSPost2010Prop41ColorIndex
 90
       18
102
RTVSPost2010Prop41ColorRGB
 90
        0
102
RTVSPost2010PropOp41
 70
     1
102
RTVSPost2010Prop42
 90
       50
102
RTVSPost2010PropOp42
 70
     1
102
RTVSPost2010Prop43
 90
        3
102
RTVSPost2010PropOp43
 70
     1
102
RTVSPost2010Prop44ColorIndex
 90
        5
102
RTVSPost2010Prop44ColorRGB
 90
      255
102
RTVSPost2010PropOp44
 70
     1
102
RTVSPost2010Prop45
280
     0
102
RTVSPost2010PropOp45
 70
     1
102
RTVSPost2010Prop46
 90
       50
102
RTVSPost2010PropOp46
 70
     1
102
RTVSPost2010Prop47
 90
       50
102
RTVSPost2010PropOp47
 70
     1
102
RTVSPost2010Prop48
 90
       50
102
RTVSPost2010PropOp48
 70
     1
102
RTVSPost2010Prop49
280
     0
102
RTVSPost2010PropOp49
 70
     1
102
RTVSPost2010Prop50
 90
       50
102
RTVSPost2010PropOp50
 70
     1
102
RTVSPost2010Prop51ColorIndex
 90
      256
102
RTVSPost2010Prop51ColorRGB
 90
-16777216
102
RTVSPost2010PropOp51
 70
     0
102
RTVSPost2010Prop52
140
1.0
102
RTVSPost2010PropOp52
 70
     0
102
RTVSPost2010Prop53
 90
        2
102
RTVSPost2010PropOp53
 70
     1
102
RTVSPost2010Prop54
  1
strokes_ogs.tif
102
RTVSPost2010PropOp54
 70
     1
102
RTVSPost2010Prop55
280
     0
102
RTVSPost2010PropOp55
 70
     1
102
RTVSPost2010Prop56
140
1.0
102
RTVSPost2010PropOp56
 70
     1
102
RTVSPost2010Prop57
140
1.0
102
RTVSPost2010PropOp57
 70
     1
  0
XRECORD
  5
3AE
102
{ACAD_REACTORS
330
3AD
102
}
330
3AD
100
AcDbXrecord
280
     1
102
RTVSPropertyOp0
 70
     1
102
RTVSPropertyOp1
 70
     1
102
RTVSPropertyOp2
 70
     1
102
RTVSPropertyOp3
 70
     1
102
RTVSPropertyOp4
 70
     1
102
RTVSPropertyOp5
 70
     1
102
RTVSPropertyOp6
 70
     1
102
RTVSPropertyOp7
 70
     1
102
RTVSPropertyOp8
 70
     1
102
RTVSPropertyOp9
 70
     1
102
RTVSPropertyOp10
 70
     1
102
RTVSPropertyOp11
 70
     1
102
RTVSPropertyOp12
 70
     1
102
RTVSPropertyOp13
 70
     1
102
RTVSPropertyOp14
 70
     1
102
RTVSPropertyOp15
 70
     1
102
RTVSPropertyOp16
 70
     1
102
RTVSPropertyOp17
 70
     1
102
RTVSPropertyOp18
 70
     1
102
RTVSPropertyOp19
 70
     1
102
RTVSPropertyOp20
 70
     1
102
RTVSPropertyOp21
 70
     1
102
RTVSPropertyOp22
 70
     1
102
RTVSPropertyOp23
 70
     1
102
RTVSPropertyOp24
 70
     1
102
RTVSPropertyOp25
 70
     1
102
RTVSPropertyOp26
 70
     1
102
RTVSPropertyOp27
 70
     1
102
RTVSPropertyOp28
 70
     1
102
RTVSPropertyOp29
 70
     1
102
RTVSPropertyOp30
 70
     1
102
RTVSPropertyOp31
 70
     1
102
RTVSPropertyOp32
 70
     1
102
RTVSPropertyOp33
 70
     1
102
RTVSPropertyOp34
 70
     1
102
RTVSPropertyOp35
 70
     1
102
RTVSPropertyOp36
 70
     1
102
RTVSPropertyOp37
 70
     1
102
RTVSPropertyOp38
 70
     1
102
RTVSPropertyOp39
 70
     1
102
RTVSPropertyOp40
 70
     1
102
RTVSPropertyOp41
 70
     1
102
RTVSPropertyOp42
 70
     1
102
RTVSPropertyOp43
 70
     1
102
RTVSPropertyOp44
 70
     1
102
RTVSPropertyOp45
 70
     1
102
RTVSPropertyOp46
 70
     1
102
RTVSPropertyOp47
 70
     1
102
RTVSPropertyOp48
 70
     1
102
RTVSPropertyOp49
 70
     1
102
RTVSPropertyOp50
 70
     1
102
RTVSPropertyOp51
 70
     0
102
RTVSPropertyOp52
 70
     0
102
RTVSPropertyOp53
 70
     1
102
RTVSPropertyOp54
 70
     1
102
RTVSPropertyOp55
 70
     1
102
RTVSPropertyOp56
 70
     1
102
RTVSPropertyOp57
 70
     1
102
RTVSPost2010Prop28
280
     0
102
RTVSPost2010PropOp28
 70
     1
102
RTVSPost2010Prop29
280
     1
102
RTVSPost2010PropOp29
 70
     1
102
RTVSPost2010Prop30
280
     1
102
RTVSPost2010PropOp30
 70
     1
102
RTVSPost2010Prop31
280
     0
102
RTVSPost2010PropOp31
 70
     1
102
RTVSPost2010Prop32
280
     0
102
RTVSPost2010PropOp32
 70
     1
102
RTVSPost2010Prop33
280
     0
102
RTVSPost2010PropOp33
 70
     1
102
RTVSPost2010Prop34
280
     0
102
RTVSPost2010PropOp34
 70
     1
102
RTVSPost2010Prop35
280
     0
102
RTVSPost2010PropOp35
 70
     1
102
RTVSPost2010Prop36
280
     0
102
RTVSPost2010PropOp36
 70
     1
102
RTVSPost2010Prop37
 90
       50
102
RTVSPost2010PropOp37
 70
     1
102
RTVSPost2010Prop38
140
0.0
102
RTVSPost2010PropOp38
 70
     1
102
RTVSPost2010Prop39
140
1.0
102
RTVSPost2010PropOp39
 70
     1
102
RTVSPost2010Prop40
 90
        0
102
RTVSPost2010PropOp40
 70
     1
102
RTVSPost2010Prop41ColorIndex
 90
       18
102
RTVSPost2010Prop41ColorRGB
 90
        0
102
RTVSPost2010PropOp41
 70
     1
102
RTVSPost2010Prop42
 90
       50
102
RTVSPost2010PropOp42
 70
     1
102
RTVSPost2010Prop43
 90
        3
102
RTVSPost2010PropOp43
 70
     1
102
RTVSPost2010Prop44ColorIndex
 90
        5
102
RTVSPost2010Prop44ColorRGB
 90
      255
102
RTVSPost2010PropOp44
 70
     1
102
RTVSPost2010Prop45
280
     0
102
RTVSPost2010PropOp45
 70
     1
102
RTVSPost2010Prop46
 90
       50
102
RTVSPost2010PropOp46
 70
     1
102
RTVSPost2010Prop47
 90
       50
102
RTVSPost2010PropOp47
 70
     1
102
RTVSPost2010Prop48
 90
       50
102
RTVSPost2010PropOp48
 70
     1
102
RTVSPost2010Prop49
280
     0
102
RTVSPost2010PropOp49
 70
     1
102
RTVSPost2010Prop50
 90
       50
102
RTVSPost2010PropOp50
 70
     1
102
RTVSPost2010Prop51ColorIndex
 90
      256
102
RTVSPost2010Prop51ColorRGB
 90
-16777216
102
RTVSPost2010PropOp51
 70
     0
102
RTVSPost2010Prop52
140
1.0
102
RTVSPost2010PropOp52
 70
     0
102
RTVSPost2010Prop53
 90
        2
102
RTVSPost2010PropOp53
 70
     1
102
RTVSPost2010Prop54
  1
strokes_ogs.tif
102
RTVSPost2010PropOp54
 70
     1
102
RTVSPost2010Prop55
280
     0
102
RTVSPost2010PropOp55
 70
     1
102
RTVSPost2010Prop56
140
1.0
102
RTVSPost2010PropOp56
 70
     1
102
RTVSPost2010Prop57
140
1.0
102
RTVSPost2010PropOp57
 70
     1
  0
XRECORD
  5
3B0
102
{ACAD_REACTORS
330
3AF
102
}
330
3AF
100
AcDbXrecord
280
     1
102
RTVSPropertyOp0
 70
     1
102
RTVSPropertyOp1
 70
     1
102
RTVSPropertyOp2
 70
     1
102
RTVSPropertyOp3
 70
     1
102
RTVSPropertyOp4
 70
     1
102
RTVSPropertyOp5
 70
     1
102
RTVSPropertyOp6
 70
     1
102
RTVSPropertyOp7
 70
     1
102
RTVSPropertyOp8
 70
     1
102
RTVSPropertyOp9
 70
     1
102
RTVSPropertyOp10
 70
     1
102
RTVSPropertyOp11
 70
     1
102
RTVSPropertyOp12
 70
     1
102
RTVSPropertyOp13
 70
     1
102
RTVSPropertyOp14
 70
     1
102
RTVSPropertyOp15
 70
     1
102
RTVSPropertyOp16
 70
     1
102
RTVSPropertyOp17
 70
     1
102
RTVSPropertyOp18
 70
     1
102
RTVSPropertyOp19
 70
     1
102
RTVSPropertyOp20
 70
     1
102
RTVSPropertyOp21
 70
     1
102
RTVSPropertyOp22
 70
     1
102
RTVSPropertyOp23
 70
     1
102
RTVSPropertyOp24
 70
     1
102
RTVSPropertyOp25
 70
     1
102
RTVSPropertyOp26
 70
     1
102
RTVSPropertyOp27
 70
     1
102
RTVSPropertyOp28
 70
     1
102
RTVSPropertyOp29
 70
     1
102
RTVSPropertyOp30
 70
     1
102
RTVSPropertyOp31
 70
     1
102
RTVSPropertyOp32
 70
     1
102
RTVSPropertyOp33
 70
     1
102
RTVSPropertyOp34
 70
     1
102
RTVSPropertyOp35
 70
     1
102
RTVSPropertyOp36
 70
     1
102
RTVSPropertyOp37
 70
     1
102
RTVSPropertyOp38
 70
     1
102
RTVSPropertyOp39
 70
     1
102
RTVSPropertyOp40
 70
     1
102
RTVSPropertyOp41
 70
     1
102
RTVSPropertyOp42
 70
     1
102
RTVSPropertyOp43
 70
     1
102
RTVSPropertyOp44
 70
     1
102
RTVSPropertyOp45
 70
     1
102
RTVSPropertyOp46
 70
     1
102
RTVSPropertyOp47
 70
     1
102
RTVSPropertyOp48
 70
     1
102
RTVSPropertyOp49
 70
     1
102
RTVSPropertyOp50
 70
     1
102
RTVSPropertyOp51
 70
     0
102
RTVSPropertyOp52
 70
     0
102
RTVSPropertyOp53
 70
     1
102
RTVSPropertyOp54
 70
     1
102
RTVSPropertyOp55
 70
     1
102
RTVSPropertyOp56
 70
     1
102
RTVSPropertyOp57
 70
     1
102
RTVSPost2010Prop28
280
     0
102
RTVSPost2010PropOp28
 70
     1
102
RTVSPost2010Prop29
280
     1
102
RTVSPost2010PropOp29
 70
     1
102
RTVSPost2010Prop30
280
     1
102
RTVSPost2010PropOp30
 70
     1
102
RTVSPost2010Prop31
280
     0
102
RTVSPost2010PropOp31
 70
     1
102
RTVSPost2010Prop32
280
     0
102
RTVSPost2010PropOp32
 70
     1
102
RTVSPost2010Prop33
280
     0
102
RTVSPost2010PropOp33
 70
     1
102
RTVSPost2010Prop34
280
     0
102
RTVSPost2010PropOp34
 70
     1
102
RTVSPost2010Prop35
280
     0
102
RTVSPost2010PropOp35
 70
     1
102
RTVSPost2010Prop36
280
     0
102
RTVSPost2010PropOp36
 70
     1
102
RTVSPost2010Prop37
 90
       50
102
RTVSPost2010PropOp37
 70
     1
102
RTVSPost2010Prop38
140
0.0
102
RTVSPost2010PropOp38
 70
     1
102
RTVSPost2010Prop39
140
1.0
102
RTVSPost2010PropOp39
 70
     1
102
RTVSPost2010Prop40
 90
        0
102
RTVSPost2010PropOp40
 70
     1
102
RTVSPost2010Prop41ColorIndex
 90
       18
102
RTVSPost2010Prop41ColorRGB
 90
        0
102
RTVSPost2010PropOp41
 70
     1
102
RTVSPost2010Prop42
 90
       50
102
RTVSPost2010PropOp42
 70
     1
102
RTVSPost2010Prop43
 90
        3
102
RTVSPost2010PropOp43
 70
     1
102
RTVSPost2010Prop44ColorIndex
 90
        5
102
RTVSPost2010Prop44ColorRGB
 90
      255
102
RTVSPost2010PropOp44
 70
     1
102
RTVSPost2010Prop45
280
     0
102
RTVSPost2010PropOp45
 70
     1
102
RTVSPost2010Prop46
 90
       50
102
RTVSPost2010PropOp46
 70
     1
102
RTVSPost2010Prop47
 90
       50
102
RTVSPost2010PropOp47
 70
     1
102
RTVSPost2010Prop48
 90
       50
102
RTVSPost2010PropOp48
 70
     1
102
RTVSPost2010Prop49
280
     0
102
RTVSPost2010PropOp49
 70
     1
102
RTVSPost2010Prop50
 90
       50
102
RTVSPost2010PropOp50
 70
     1
102
RTVSPost2010Prop51ColorIndex
 90
      256
102
RTVSPost2010Prop51ColorRGB
 90
-16777216
102
RTVSPost2010PropOp51
 70
     0
102
RTVSPost2010Prop52
140
1.0
102
RTVSPost2010PropOp52
 70
     0
102
RTVSPost2010Prop53
 90
        2
102
RTVSPost2010PropOp53
 70
     1
102
RTVSPost2010Prop54
  1
strokes_ogs.tif
102
RTVSPost2010PropOp54
 70
     1
102
RTVSPost2010Prop55
280
     0
102
RTVSPost2010PropOp55
 70
     1
102
RTVSPost2010Prop56
140
1.0
102
RTVSPost2010PropOp56
 70
     1
102
RTVSPost2010Prop57
140
1.0
102
RTVSPost2010PropOp57
 70
     1
  0
XRECORD
  5
3A0
102
{ACAD_REACTORS
330
39F
102
}
330
39F
100
AcDbXrecord
280
     1
102
RTVSPropertyOp0
 70
     1
102
RTVSPropertyOp1
 70
     1
102
RTVSPropertyOp2
 70
     1
102
RTVSPropertyOp3
 70
     1
102
RTVSPropertyOp4
 70
     1
102
RTVSPropertyOp5
 70
     1
102
RTVSPropertyOp6
 70
     1
102
RTVSPropertyOp7
 70
     1
102
RTVSPropertyOp8
 70
     1
102
RTVSPropertyOp9
 70
     1
102
RTVSPropertyOp10
 70
     1
102
RTVSPropertyOp11
 70
     1
102
RTVSPropertyOp12
 70
     1
102
RTVSPropertyOp13
 70
     1
102
RTVSPropertyOp14
 70
     1
102
RTVSPropertyOp15
 70
     1
102
RTVSPropertyOp16
 70
     1
102
RTVSPropertyOp17
 70
     1
102
RTVSPropertyOp18
 70
     1
102
RTVSPropertyOp19
 70
     1
102
RTVSPropertyOp20
 70
     1
102
RTVSPropertyOp21
 70
     1
102
RTVSPropertyOp22
 70
     1
102
RTVSPropertyOp23
 70
     1
102
RTVSPropertyOp24
 70
     1
102
RTVSPropertyOp25
 70
     1
102
RTVSPropertyOp26
 70
     1
102
RTVSPropertyOp27
 70
     1
102
RTVSPropertyOp28
 70
     1
102
RTVSPropertyOp29
 70
     1
102
RTVSPropertyOp30
 70
     1
102
RTVSPropertyOp31
 70
     1
102
RTVSPropertyOp32
 70
     1
102
RTVSPropertyOp33
 70
     1
102
RTVSPropertyOp34
 70
     1
102
RTVSPropertyOp35
 70
     1
102
RTVSPropertyOp36
 70
     1
102
RTVSPropertyOp37
 70
     1
102
RTVSPropertyOp38
 70
     1
102
RTVSPropertyOp39
 70
     1
102
RTVSPropertyOp40
 70
     1
102
RTVSPropertyOp41
 70
     1
102
RTVSPropertyOp42
 70
     1
102
RTVSPropertyOp43
 70
     1
102
RTVSPropertyOp44
 70
     1
102
RTVSPropertyOp45
 70
     1
102
RTVSPropertyOp46
 70
     1
102
RTVSPropertyOp47
 70
     1
102
RTVSPropertyOp48
 70
     1
102
RTVSPropertyOp49
 70
     1
102
RTVSPropertyOp50
 70
     1
102
RTVSPropertyOp51
 70
     0
102
RTVSPropertyOp52
 70
     0
102
RTVSPropertyOp53
 70
     1
102
RTVSPropertyOp54
 70
     1
102
RTVSPropertyOp55
 70
     1
102
RTVSPropertyOp56
 70
     1
102
RTVSPropertyOp57
 70
     1
102
RTVSPost2010Prop28
280
     0
102
RTVSPost2010PropOp28
 70
     1
102
RTVSPost2010Prop29
280
     1
102
RTVSPost2010PropOp29
 70
     1
102
RTVSPost2010Prop30
280
     1
102
RTVSPost2010PropOp30
 70
     1
102
RTVSPost2010Prop31
280
     0
102
RTVSPost2010PropOp31
 70
     1
102
RTVSPost2010Prop32
280
     0
102
RTVSPost2010PropOp32
 70
     1
102
RTVSPost2010Prop33
280
     0
102
RTVSPost2010PropOp33
 70
     1
102
RTVSPost2010Prop34
280
     0
102
RTVSPost2010PropOp34
 70
     1
102
RTVSPost2010Prop35
280
     0
102
RTVSPost2010PropOp35
 70
     1
102
RTVSPost2010Prop36
280
     0
102
RTVSPost2010PropOp36
 70
     1
102
RTVSPost2010Prop37
 90
       50
102
RTVSPost2010PropOp37
 70
     1
102
RTVSPost2010Prop38
140
0.0
102
RTVSPost2010PropOp38
 70
     1
102
RTVSPost2010Prop39
140
1.0
102
RTVSPost2010PropOp39
 70
     1
102
RTVSPost2010Prop40
 90
        0
102
RTVSPost2010PropOp40
 70
     1
102
RTVSPost2010Prop41ColorIndex
 90
       18
102
RTVSPost2010Prop41ColorRGB
 90
        0
102
RTVSPost2010PropOp41
 70
     1
102
RTVSPost2010Prop42
 90
       50
102
RTVSPost2010PropOp42
 70
     1
102
RTVSPost2010Prop43
 90
        3
102
RTVSPost2010PropOp43
 70
     1
102
RTVSPost2010Prop44ColorIndex
 90
        5
102
RTVSPost2010Prop44ColorRGB
 90
      255
102
RTVSPost2010PropOp44
 70
     1
102
RTVSPost2010Prop45
280
     0
102
RTVSPost2010PropOp45
 70
     1
102
RTVSPost2010Prop46
 90
       50
102
RTVSPost2010PropOp46
 70
     1
102
RTVSPost2010Prop47
 90
       50
102
RTVSPost2010PropOp47
 70
     1
102
RTVSPost2010Prop48
 90
       50
102
RTVSPost2010PropOp48
 70
     1
102
RTVSPost2010Prop49
280
     0
102
RTVSPost2010PropOp49
 70
     1
102
RTVSPost2010Prop50
 90
       50
102
RTVSPost2010PropOp50
 70
     1
102
RTVSPost2010Prop51ColorIndex
 90
      256
102
RTVSPost2010Prop51ColorRGB
 90
-16777216
102
RTVSPost2010PropOp51
 70
     0
102
RTVSPost2010Prop52
140
1.0
102
RTVSPost2010PropOp52
 70
     0
102
RTVSPost2010Prop53
 90
        2
102
RTVSPost2010PropOp53
 70
     1
102
RTVSPost2010Prop54
  1
strokes_ogs.tif
102
RTVSPost2010PropOp54
 70
     1
102
RTVSPost2010Prop55
280
     0
102
RTVSPost2010PropOp55
 70
     1
102
RTVSPost2010Prop56
140
1.0
102
RTVSPost2010PropOp56
 70
     1
102
RTVSPost2010Prop57
140
1.0
102
RTVSPost2010PropOp57
 70
     1
  0
XRECORD
  5
392
102
{ACAD_REACTORS
330
391
102
}
330
391
100
AcDbXrecord
280
     1
102
RTVSPropertyOp0
 70
     1
102
RTVSPropertyOp1
 70
     1
102
RTVSPropertyOp2
 70
     1
102
RTVSPropertyOp3
 70
     1
102
RTVSPropertyOp4
 70
     1
102
RTVSPropertyOp5
 70
     1
102
RTVSPropertyOp6
 70
     1
102
RTVSPropertyOp7
 70
     1
102
RTVSPropertyOp8
 70
     1
102
RTVSPropertyOp9
 70
     1
102
RTVSPropertyOp10
 70
     1
102
RTVSPropertyOp11
 70
     1
102
RTVSPropertyOp12
 70
     1
102
RTVSPropertyOp13
 70
     1
102
RTVSPropertyOp14
 70
     1
102
RTVSPropertyOp15
 70
     1
102
RTVSPropertyOp16
 70
     1
102
RTVSPropertyOp17
 70
     1
102
RTVSPropertyOp18
 70
     1
102
RTVSPropertyOp19
 70
     1
102
RTVSPropertyOp20
 70
     1
102
RTVSPropertyOp21
 70
     1
102
RTVSPropertyOp22
 70
     1
102
RTVSPropertyOp23
 70
     1
102
RTVSPropertyOp24
 70
     1
102
RTVSPropertyOp25
 70
     1
102
RTVSPropertyOp26
 70
     1
102
RTVSPropertyOp27
 70
     1
102
RTVSPropertyOp28
 70
     1
102
RTVSPropertyOp29
 70
     1
102
RTVSPropertyOp30
 70
     1
102
RTVSPropertyOp31
 70
     1
102
RTVSPropertyOp32
 70
     1
102
RTVSPropertyOp33
 70
     1
102
RTVSPropertyOp34
 70
     1
102
RTVSPropertyOp35
 70
     1
102
RTVSPropertyOp36
 70
     1
102
RTVSPropertyOp37
 70
     1
102
RTVSPropertyOp38
 70
     1
102
RTVSPropertyOp39
 70
     1
102
RTVSPropertyOp40
 70
     1
102
RTVSPropertyOp41
 70
     1
102
RTVSPropertyOp42
 70
     1
102
RTVSPropertyOp43
 70
     1
102
RTVSPropertyOp44
 70
     1
102
RTVSPropertyOp45
 70
     1
102
RTVSPropertyOp46
 70
     1
102
RTVSPropertyOp47
 70
     1
102
RTVSPropertyOp48
 70
     1
102
RTVSPropertyOp49
 70
     1
102
RTVSPropertyOp50
 70
     1
102
RTVSPropertyOp51
 70
     0
102
RTVSPropertyOp52
 70
     0
102
RTVSPropertyOp53
 70
     1
102
RTVSPropertyOp54
 70
     1
102
RTVSPropertyOp55
 70
     1
102
RTVSPropertyOp56
 70
     1
102
RTVSPropertyOp57
 70
     1
102
RTVSPost2010Prop28
280
     0
102
RTVSPost2010PropOp28
 70
     1
102
RTVSPost2010Prop29
280
     1
102
RTVSPost2010PropOp29
 70
     1
102
RTVSPost2010Prop30
280
     1
102
RTVSPost2010PropOp30
 70
     1
102
RTVSPost2010Prop31
280
     0
102
RTVSPost2010PropOp31
 70
     1
102
RTVSPost2010Prop32
280
     0
102
RTVSPost2010PropOp32
 70
     1
102
RTVSPost2010Prop33
280
     0
102
RTVSPost2010PropOp33
 70
     1
102
RTVSPost2010Prop34
280
     0
102
RTVSPost2010PropOp34
 70
     1
102
RTVSPost2010Prop35
280
     0
102
RTVSPost2010PropOp35
 70
     1
102
RTVSPost2010Prop36
280
     0
102
RTVSPost2010PropOp36
 70
     1
102
RTVSPost2010Prop37
 90
       50
102
RTVSPost2010PropOp37
 70
     1
102
RTVSPost2010Prop38
140
0.0
102
RTVSPost2010PropOp38
 70
     1
102
RTVSPost2010Prop39
140
1.0
102
RTVSPost2010PropOp39
 70
     1
102
RTVSPost2010Prop40
 90
        0
102
RTVSPost2010PropOp40
 70
     1
102
RTVSPost2010Prop41ColorIndex
 90
       18
102
RTVSPost2010Prop41ColorRGB
 90
        0
102
RTVSPost2010PropOp41
 70
     1
102
RTVSPost2010Prop42
 90
       50
102
RTVSPost2010PropOp42
 70
     1
102
RTVSPost2010Prop43
 90
        3
102
RTVSPost2010PropOp43
 70
     1
102
RTVSPost2010Prop44ColorIndex
 90
        5
102
RTVSPost2010Prop44ColorRGB
 90
      255
102
RTVSPost2010PropOp44
 70
     1
102
RTVSPost2010Prop45
280
     0
102
RTVSPost2010PropOp45
 70
     1
102
RTVSPost2010Prop46
 90
       50
102
RTVSPost2010PropOp46
 70
     1
102
RTVSPost2010Prop47
 90
       50
102
RTVSPost2010PropOp47
 70
     1
102
RTVSPost2010Prop48
 90
       50
102
RTVSPost2010PropOp48
 70
     1
102
RTVSPost2010Prop49
280
     0
102
RTVSPost2010PropOp49
 70
     1
102
RTVSPost2010Prop50
 90
       50
102
RTVSPost2010PropOp50
 70
     1
102
RTVSPost2010Prop51ColorIndex
 90
      256
102
RTVSPost2010Prop51ColorRGB
 90
-16777216
102
RTVSPost2010PropOp51
 70
     0
102
RTVSPost2010Prop52
140
1.0
102
RTVSPost2010PropOp52
 70
     0
102
RTVSPost2010Prop53
 90
        2
102
RTVSPost2010PropOp53
 70
     1
102
RTVSPost2010Prop54
  1
strokes_ogs.tif
102
RTVSPost2010PropOp54
 70
     1
102
RTVSPost2010Prop55
280
     0
102
RTVSPost2010PropOp55
 70
     1
102
RTVSPost2010Prop56
140
1.0
102
RTVSPost2010PropOp56
 70
     1
102
RTVSPost2010Prop57
140
1.0
102
RTVSPost2010PropOp57
 70
     1
  0
XRECORD
  5
3B2
102
{ACAD_REACTORS
330
3B1
102
}
330
3B1
100
AcDbXrecord
280
     1
102
RTVSPropertyOp0
 70
     1
102
RTVSPropertyOp1
 70
     1
102
RTVSPropertyOp2
 70
     1
102
RTVSPropertyOp3
 70
     1
102
RTVSPropertyOp4
 70
     1
102
RTVSPropertyOp5
 70
     1
102
RTVSPropertyOp6
 70
     1
102
RTVSPropertyOp7
 70
     1
102
RTVSPropertyOp8
 70
     1
102
RTVSPropertyOp9
 70
     1
102
RTVSPropertyOp10
 70
     1
102
RTVSPropertyOp11
 70
     1
102
RTVSPropertyOp12
 70
     1
102
RTVSPropertyOp13
 70
     1
102
RTVSPropertyOp14
 70
     1
102
RTVSPropertyOp15
 70
     1
102
RTVSPropertyOp16
 70
     1
102
RTVSPropertyOp17
 70
     1
102
RTVSPropertyOp18
 70
     1
102
RTVSPropertyOp19
 70
     1
102
RTVSPropertyOp20
 70
     1
102
RTVSPropertyOp21
 70
     1
102
RTVSPropertyOp22
 70
     1
102
RTVSPropertyOp23
 70
     1
102
RTVSPropertyOp24
 70
     1
102
RTVSPropertyOp25
 70
     1
102
RTVSPropertyOp26
 70
     1
102
RTVSPropertyOp27
 70
     1
102
RTVSPropertyOp28
 70
     1
102
RTVSPropertyOp29
 70
     1
102
RTVSPropertyOp30
 70
     1
102
RTVSPropertyOp31
 70
     1
102
RTVSPropertyOp32
 70
     1
102
RTVSPropertyOp33
 70
     1
102
RTVSPropertyOp34
 70
     1
102
RTVSPropertyOp35
 70
     1
102
RTVSPropertyOp36
 70
     1
102
RTVSPropertyOp37
 70
     1
102
RTVSPropertyOp38
 70
     1
102
RTVSPropertyOp39
 70
     1
102
RTVSPropertyOp40
 70
     1
102
RTVSPropertyOp41
 70
     1
102
RTVSPropertyOp42
 70
     1
102
RTVSPropertyOp43
 70
     1
102
RTVSPropertyOp44
 70
     1
102
RTVSPropertyOp45
 70
     1
102
RTVSPropertyOp46
 70
     1
102
RTVSPropertyOp47
 70
     1
102
RTVSPropertyOp48
 70
     1
102
RTVSPropertyOp49
 70
     1
102
RTVSPropertyOp50
 70
     1
102
RTVSPropertyOp51
 70
     0
102
RTVSPropertyOp52
 70
     0
102
RTVSPropertyOp53
 70
     1
102
RTVSPropertyOp54
 70
     1
102
RTVSPropertyOp55
 70
     1
102
RTVSPropertyOp56
 70
     1
102
RTVSPropertyOp57
 70
     1
102
RTVSPost2010Prop28
280
     0
102
RTVSPost2010PropOp28
 70
     1
102
RTVSPost2010Prop29
280
     1
102
RTVSPost2010PropOp29
 70
     1
102
RTVSPost2010Prop30
280
     1
102
RTVSPost2010PropOp30
 70
     1
102
RTVSPost2010Prop31
280
     0
102
RTVSPost2010PropOp31
 70
     1
102
RTVSPost2010Prop32
280
     0
102
RTVSPost2010PropOp32
 70
     1
102
RTVSPost2010Prop33
280
     0
102
RTVSPost2010PropOp33
 70
     1
102
RTVSPost2010Prop34
280
     0
102
RTVSPost2010PropOp34
 70
     1
102
RTVSPost2010Prop35
280
     0
102
RTVSPost2010PropOp35
 70
     1
102
RTVSPost2010Prop36
280
     0
102
RTVSPost2010PropOp36
 70
     1
102
RTVSPost2010Prop37
 90
       50
102
RTVSPost2010PropOp37
 70
     1
102
RTVSPost2010Prop38
140
0.0
102
RTVSPost2010PropOp38
 70
     1
102
RTVSPost2010Prop39
140
1.0
102
RTVSPost2010PropOp39
 70
     1
102
RTVSPost2010Prop40
 90
        0
102
RTVSPost2010PropOp40
 70
     1
102
RTVSPost2010Prop41ColorIndex
 90
       18
102
RTVSPost2010Prop41ColorRGB
 90
        0
102
RTVSPost2010PropOp41
 70
     1
102
RTVSPost2010Prop42
 90
       50
102
RTVSPost2010PropOp42
 70
     1
102
RTVSPost2010Prop43
 90
        3
102
RTVSPost2010PropOp43
 70
     1
102
RTVSPost2010Prop44ColorIndex
 90
        5
102
RTVSPost2010Prop44ColorRGB
 90
      255
102
RTVSPost2010PropOp44
 70
     1
102
RTVSPost2010Prop45
280
     0
102
RTVSPost2010PropOp45
 70
     1
102
RTVSPost2010Prop46
 90
       50
102
RTVSPost2010PropOp46
 70
     1
102
RTVSPost2010Prop47
 90
       50
102
RTVSPost2010PropOp47
 70
     1
102
RTVSPost2010Prop48
 90
       50
102
RTVSPost2010PropOp48
 70
     1
102
RTVSPost2010Prop49
280
     0
102
RTVSPost2010PropOp49
 70
     1
102
RTVSPost2010Prop50
 90
       50
102
RTVSPost2010PropOp50
 70
     1
102
RTVSPost2010Prop51ColorIndex
 90
      256
102
RTVSPost2010Prop51ColorRGB
 90
-16777216
102
RTVSPost2010PropOp51
 70
     0
102
RTVSPost2010Prop52
140
1.0
102
RTVSPost2010PropOp52
 70
     0
102
RTVSPost2010Prop53
 90
        2
102
RTVSPost2010PropOp53
 70
     1
102
RTVSPost2010Prop54
  1
strokes_ogs.tif
102
RTVSPost2010PropOp54
 70
     1
102
RTVSPost2010Prop55
280
     0
102
RTVSPost2010PropOp55
 70
     1
102
RTVSPost2010Prop56
140
1.0
102
RTVSPost2010PropOp56
 70
     1
102
RTVSPost2010Prop57
140
1.0
102
RTVSPost2010PropOp57
 70
     1
  0
ENDSEC
  0
EOF
