  0
SECTION
  2
HEADER
  9
$ACADVER
  1
AC1015
  9
$ACADMAINTVER
 70
     6
  9
$DWGCODEPAGE
  3
ANSI_932
  9
$INSBASE
 10
0.0
 20
0.0
 30
0.0
  9
$EXTMIN
 10
-60.01739496941036
 20
-18.098809066172
 30
0.0
  9
$EXTMAX
 10
63.31885711200519
 20
74.3776689174492
 30
0.0
  9
$LIMMIN
 10
0.0
 20
0.0
  9
$LIMMAX
 10
12.0
 20
9.0
  9
$ORTHOMODE
 70
     0
  9
$REGENMODE
 70
     1
  9
$FILLMODE
 70
     1
  9
$QTEXTMODE
 70
     0
  9
$MIRRTEXT
 70
     1
  9
$LTSCALE
 40
1.0
  9
$ATTMODE
 70
     1
  9
$TEXTSIZE
 40
0.2
  9
$TRACEWID
 40
0.05
  9
$TEXTSTYLE
  7
Standard
  9
$CLAYER
  8
0
  9
$CELTYPE
  6
ByLayer
  9
$CECOLOR
 62
   256
  9
$CELTSCALE
 40
1.0
  9
$DISPSILH
 70
     0
  9
$DIMSCALE
 40
1.0
  9
$DIMASZ
 40
0.18
  9
$DIMEXO
 40
0.0625
  9
$DIMDLI
 40
0.38
  9
$DIMRND
 40
0.0
  9
$DIMDLE
 40
0.0
  9
$DIMEXE
 40
0.18
  9
$DIMTP
 40
0.0
  9
$DIMTM
 40
0.0
  9
$DIMTXT
 40
0.18
  9
$DIMCEN
 40
0.09
  9
$DIMTSZ
 40
0.0
  9
$DIMTOL
 70
     0
  9
$DIMLIM
 70
     0
  9
$DIMTIH
 70
     1
  9
$DIMTOH
 70
     1
  9
$DIMSE1
 70
     0
  9
$DIMSE2
 70
     0
  9
$DIMTAD
 70
     0
  9
$DIMZIN
 70
     0
  9
$DIMBLK
  1

  9
$DIMASO
 70
     1
  9
$DIMSHO
 70
     1
  9
$DIMPOST
  1

  9
$DIMAPOST
  1

  9
$DIMALT
 70
     0
  9
$DIMALTD
 70
     2
  9
$DIMALTF
 40
25.4
  9
$DIMLFAC
 40
1.0
  9
$DIMTOFL
 70
     0
  9
$DIMTVP
 40
0.0
  9
$DIMTIX
 70
     0
  9
$DIMSOXD
 70
     0
  9
$DIMSAH
 70
     0
  9
$DIMBLK1
  1

  9
$DIMBLK2
  1

  9
$DIMSTYLE
  2
Standard
  9
$DIMCLRD
 70
     0
  9
$DIMCLRE
 70
     0
  9
$DIMCLRT
 70
     0
  9
$DIMTFAC
 40
1.0
  9
$DIMGAP
 40
0.09
  9
$DIMJUST
 70
     0
  9
$DIMSD1
 70
     0
  9
$DIMSD2
 70
     0
  9
$DIMTOLJ
 70
     1
  9
$DIMTZIN
 70
     0
  9
$DIMALTZ
 70
     0
  9
$DIMALTTZ
 70
     0
  9
$DIMUPT
 70
     0
  9
$DIMDEC
 70
     4
  9
$DIMTDEC
 70
     4
  9
$DIMALTU
 70
     2
  9
$DIMALTTD
 70
     2
  9
$DIMTXSTY
  7
Standard
  9
$DIMAUNIT
 70
     0
  9
$DIMADEC
 70
     0
  9
$DIMALTRND
 40
0.0
  9
$DIMAZIN
 70
     0
  9
$DIMDSEP
 70
    46
  9
$DIMATFIT
 70
     3
  9
$DIMFRAC
 70
     0
  9
$DIMLDRBLK
  1

  9
$DIMLUNIT
 70
     2
  9
$DIMLWD
 70
    -2
  9
$DIMLWE
 70
    -2
  9
$DIMTMOVE
 70
     0
  9
$LUNITS
 70
     2
  9
$LUPREC
 70
     4
  9
$SKETCHINC
 40
0.1
  9
$FILLETRAD
 40
0.5
  9
$AUNITS
 70
     0
  9
$AUPREC
 70
     0
  9
$MENU
  1
.
  9
$ELEVATION
 40
0.0
  9
$PELEVATION
 40
0.0
  9
$THICKNESS
 40
0.0
  9
$LIMCHECK
 70
     0
  9
$CHAMFERA
 40
0.0
  9
$CHAMFERB
 40
0.0
  9
$CHAMFERC
 40
0.0
  9
$CHAMFERD
 40
0.0
  9
$SKPOLY
 70
     0
  9
$TDCREATE
 40
2458080.585050961
  9
$TDUCREATE
 40
2458080.210050961
  9
$TDUPDATE
 40
2458080.585052222
  9
$TDUUPDATE
 40
2458080.210052222
  9
$TDINDWG
 40
0.0000000116
  9
$TDUSRTIMER
 40
0.0000000116
  9
$USRTIMER
 70
     1
  9
$ANGBASE
 50
0.0
  9
$ANGDIR
 70
     0
  9
$PDMODE
 70
     0
  9
$PDSIZE
 40
0.0
  9
$PLINEWID
 40
0.0
  9
$SPLFRAME
 70
     0
  9
$SPLINETYPE
 70
     6
  9
$SPLINESEGS
 70
     8
  9
$HANDSEED
  5
35D
  9
$SURFTAB1
 70
     6
  9
$SURFTAB2
 70
     6
  9
$SURFTYPE
 70
     6
  9
$SURFU
 70
     6
  9
$SURFV
 70
     6
  9
$UCSBASE
  2

  9
$UCSNAME
  2

  9
$UCSORG
 10
0.0
 20
0.0
 30
0.0
  9
$UCSXDIR
 10
1.0
 20
0.0
 30
0.0
  9
$UCSYDIR
 10
0.0
 20
1.0
 30
0.0
  9
$UCSORTHOREF
  2

  9
$UCSORTHOVIEW
 70
     0
  9
$UCSORGTOP
 10
0.0
 20
0.0
 30
0.0
  9
$UCSORGBOTTOM
 10
0.0
 20
0.0
 30
0.0
  9
$UCSORGLEFT
 10
0.0
 20
0.0
 30
0.0
  9
$UCSORGRIGHT
 10
0.0
 20
0.0
 30
0.0
  9
$UCSORGFRONT
 10
0.0
 20
0.0
 30
0.0
  9
$UCSORGBACK
 10
0.0
 20
0.0
 30
0.0
  9
$PUCSBASE
  2

  9
$PUCSNAME
  2

  9
$PUCSORG
 10
0.0
 20
0.0
 30
0.0
  9
$PUCSXDIR
 10
1.0
 20
0.0
 30
0.0
  9
$PUCSYDIR
 10
0.0
 20
1.0
 30
0.0
  9
$PUCSORTHOREF
  2

  9
$PUCSORTHOVIEW
 70
     0
  9
$PUCSORGTOP
 10
0.0
 20
0.0
 30
0.0
  9
$PUCSORGBOTTOM
 10
0.0
 20
0.0
 30
0.0
  9
$PUCSORGLEFT
 10
0.0
 20
0.0
 30
0.0
  9
$PUCSORGRIGHT
 10
0.0
 20
0.0
 30
0.0
  9
$PUCSORGFRONT
 10
0.0
 20
0.0
 30
0.0
  9
$PUCSORGBACK
 10
0.0
 20
0.0
 30
0.0
  9
$USERI1
 70
     0
  9
$USERI2
 70
     0
  9
$USERI3
 70
     0
  9
$USERI4
 70
     0
  9
$USERI5
 70
     0
  9
$USERR1
 40
19.0
  9
$USERR2
 40
0.0
  9
$USERR3
 40
0.0
  9
$USERR4
 40
0.0
  9
$USERR5
 40
0.0
  9
$WORLDVIEW
 70
     1
  9
$SHADEDGE
 70
     3
  9
$SHADEDIF
 70
    70
  9
$TILEMODE
 70
     1
  9
$MAXACTVP
 70
    64
  9
$PINSBASE
 10
0.0
 20
0.0
 30
0.0
  9
$PLIMCHECK
 70
     0
  9
$PEXTMIN
 10
1.00000000000000E+20
 20
1.00000000000000E+20
 30
1.00000000000000E+20
  9
$PEXTMAX
 10
-1.00000000000000E+20
 20
-1.00000000000000E+20
 30
-1.00000000000000E+20
  9
$PLIMMIN
 10
0.0
 20
0.0
  9
$PLIMMAX
 10
12.0
 20
9.0
  9
$UNITMODE
 70
     0
  9
$VISRETAIN
 70
     1
  9
$PLINEGEN
 70
     0
  9
$PSLTSCALE
 70
     1
  9
$TREEDEPTH
 70
  3020
  9
$CMLSTYLE
  2
Standard
  9
$CMLJUST
 70
     0
  9
$CMLSCALE
 40
1.0
  9
$PROXYGRAPHICS
 70
     1
  9
$MEASUREMENT
 70
     1
  9
$CELWEIGHT
370
    -1
  9
$ENDCAPS
280
     0
  9
$JOINSTYLE
280
     0
  9
$LWDISPLAY
290
     0
  9
$INSUNITS
 70
     4
  9
$HYPERLINKBASE
  1

  9
$STYLESHEET
  1

  9
$XEDIT
290
     1
  9
$CEPSNTYPE
380
     0
  9
$PSTYLEMODE
290
     1
  9
$FINGERPRINTGUID
  2
{D42F967E-CB53-4ADF-AE12-394603779716}
  9
$VERSIONGUID
  2
{FAEB1C32-E019-11D5-929B-00C0DF256EC4}
  9
$EXTNAMES
290
     1
  9
$PSVPSCALE
 40
0.0
  9
$OLESTARTUP
290
     0
  0
ENDSEC
  0
SECTION
  2
CLASSES
  0
CLASS
  1
ACDBDICTIONARYWDFLT
  2
AcDbDictionaryWithDefault
  3
ObjectDBX Classes
 90
        0
280
     0
281
     0
  0
CLASS
  1
VISUALSTYLE
  2
AcDbVisualStyle
  3
ObjectDBX Classes
 90
     4095
280
     0
281
     0
  0
CLASS
  1
MATERIAL
  2
AcDbMaterial
  3
ObjectDBX Classes
 90
     1153
280
     0
281
     0
  0
CLASS
  1
SCALE
  2
AcDbScale
  3
ObjectDBX Classes
 90
     1153
280
     0
281
     0
  0
CLASS
  1
SUN
  2
AcDbSun
  3
SCENEOE
 90
     1153
280
     0
281
     0
  0
CLASS
  1
DICTIONARYVAR
  2
AcDbDictionaryVar
  3
ObjectDBX Classes
 90
        0
280
     0
281
     0
  0
CLASS
  1
ACDBPLACEHOLDER
  2
AcDbPlaceHolder
  3
ObjectDBX Classes
 90
        0
280
     0
281
     0
  0
CLASS
  1
LAYOUT
  2
AcDbLayout
  3
ObjectDBX Classes
 90
        0
280
     0
281
     0
  0
ENDSEC
  0
SECTION
  2
TABLES
  0
TABLE
  2
VPORT
  5
8
330
0
100
AcDbSymbolTable
 70
     1
  0
VPORT
  5
29
330
8
100
AcDbSymbolTableRecord
100
AcDbViewportTableRecord
  2
*Active
 70
     0
 10
0.0
 20
0.0
 11
1.0
 21
1.0
 12
1.65073107129741
 22
28.1394299256386
 13
0.0
 23
0.0
 14
0.5
 24
0.5
 15
0.5
 25
0.5
 16
0.0
 26
0.0
 36
1.0
 17
0.0
 27
0.0
 37
0.0
 40
101.7241257819833
 41
1.60267857142857
 42
50.0
 43
0.0
 44
0.0
 50
0.0
 51
0.0
 71
     0
 72
   100
 73
     1
 74
     3
 75
     0
 76
     0
 77
     0
 78
     0
281
     0
 65
     1
110
0.0
120
0.0
130
0.0
111
1.0
121
0.0
131
0.0
112
0.0
122
1.0
132
0.0
 79
     0
146
0.0
  0
ENDTAB
  0
TABLE
  2
LTYPE
  5
5
330
0
100
AcDbSymbolTable
 70
     8
  0
LTYPE
  5
14
330
5
100
AcDbSymbolTableRecord
100
AcDbLinetypeTableRecord
  2
ByBlock
 70
     0
  3

 72
    65
 73
     0
 40
0.0
  0
LTYPE
  5
15
330
5
100
AcDbSymbolTableRecord
100
AcDbLinetypeTableRecord
  2
ByLayer
 70
     0
  3

 72
    65
 73
     0
 40
0.0
  0
LTYPE
  5
16
330
5
100
AcDbSymbolTableRecord
100
AcDbLinetypeTableRecord
  2
Continuous
 70
     0
  3
Solid line
 72
    65
 73
     0
 40
0.0
  0
LTYPE
  5
6A
330
5
100
AcDbSymbolTableRecord
100
AcDbLinetypeTableRecord
  2
DASHED
 70
     0
  3
Dashed
 72
    65
 73
     2
 40
15.0
 49
7.0
 74
     0
 49
-8.0
 74
     0
  0
LTYPE
  5
6B
330
5
100
AcDbSymbolTableRecord
100
AcDbLinetypeTableRecord
  2
DOTTED
 70
     0
  3
Dotted
 72
    65
 73
     2
 40
1.0
 49
0.0
 74
     0
 49
-1.0
 74
     0
  0
LTYPE
  5
6C
330
5
100
AcDbSymbolTableRecord
100
AcDbLinetypeTableRecord
  2
DOT_CENTER
 70
     0
  3
Dot_Center
 72
    65
 73
     4
 40
14.0
 49
12.0
 74
     0
 49
-1.0
 74
     0
 49
0.0
 74
     0
 49
-1.0
 74
     0
  0
LTYPE
  5
6D
330
5
100
AcDbSymbolTableRecord
100
AcDbLinetypeTableRecord
  2
LONG_DASHED
 70
     0
  3
Long_Dashed
 72
    65
 73
     2
 40
15.0
 49
10.0
 74
     0
 49
-5.0
 74
     0
  0
LTYPE
  5
6E
330
5
100
AcDbSymbolTableRecord
100
AcDbLinetypeTableRecord
  2
DASH_CENTER
 70
     0
  3
Dash_Center
 72
    65
 73
     4
 40
14.0
 49
11.0
 74
     0
 49
-1.0
 74
     0
 49
1.0
 74
     0
 49
-1.0
 74
     0
  0
LTYPE
  5
6F
330
5
100
AcDbSymbolTableRecord
100
AcDbLinetypeTableRecord
  2
PHANTOM
 70
     0
  3
Phantom
 72
    65
 73
     6
 40
13.0
 49
10.0
 74
     0
 49
-1.0
 74
     0
 49
0.0
 74
     0
 49
-1.0
 74
     0
 49
0.0
 74
     0
 49
-1.0
 74
     0
  0
LTYPE
  5
70
330
5
100
AcDbSymbolTableRecord
100
AcDbLinetypeTableRecord
  2
CENTER_DASH_DASH
 70
     0
  3
Center_Dash_Dash
 72
    65
 73
     6
 40
14.0
 49
9.0
 74
     0
 49
-1.0
 74
     0
 49
1.0
 74
     0
 49
-1.0
 74
     0
 49
1.0
 74
     0
 49
-1.0
 74
     0
  0
ENDTAB
  0
TABLE
  2
LAYER
  5
2
330
0
100
AcDbSymbolTable
 70
     2
  0
LAYER
  5
10
330
2
100
AcDbSymbolTableRecord
100
AcDbLayerTableRecord
  2
0
 70
     0
 62
     7
  6
Continuous
370
    -3
390
F
  0
LAYER
  5
71
330
2
100
AcDbSymbolTableRecord
100
AcDbLayerTableRecord
  2
1
 70
     0
 62
     7
  6
Continuous
370
    -3
390
F
  0
ENDTAB
  0
TABLE
  2
STYLE
  5
3
330
0
100
AcDbSymbolTable
 70
     1
  0
STYLE
  5
11
330
3
100
AcDbSymbolTableRecord
100
AcDbTextStyleTableRecord
  2
Standard
 70
     0
 40
0.0
 41
1.0
 50
0.0
 71
     0
 42
0.2
  3
txt
  4

  0
ENDTAB
  0
TABLE
  2
VIEW
  5
6
330
0
100
AcDbSymbolTable
 70
     0
  0
ENDTAB
  0
TABLE
  2
UCS
  5
7
330
0
100
AcDbSymbolTable
 70
     0
  0
ENDTAB
  0
TABLE
  2
APPID
  5
9
330
0
100
AcDbSymbolTable
 70
     1
  0
APPID
  5
12
330
9
100
AcDbSymbolTableRecord
100
AcDbRegAppTableRecord
  2
ACAD
 70
     0
  0
ENDTAB
  0
TABLE
  2
DIMSTYLE
  5
A
330
0
100
AcDbSymbolTable
 70
     1
100
AcDbDimStyleTable
  0
DIMSTYLE
105
27
330
A
100
AcDbSymbolTableRecord
100
AcDbDimStyleTableRecord
  2
Standard
 70
     0
178
     0
340
11
  0
ENDTAB
  0
TABLE
  2
BLOCK_RECORD
  5
1
330
0
100
AcDbSymbolTable
 70
     1
  0
BLOCK_RECORD
  5
1F
330
1
100
AcDbSymbolTableRecord
100
AcDbBlockTableRecord
  2
*Model_Space
340
22
  0
BLOCK_RECORD
  5
1B
330
1
100
AcDbSymbolTableRecord
100
AcDbBlockTableRecord
  2
*Paper_Space
340
1E
  0
BLOCK_RECORD
  5
23
330
1
100
AcDbSymbolTableRecord
100
AcDbBlockTableRecord
  2
*Paper_Space0
340
26
  0
ENDTAB
  0
ENDSEC
  0
SECTION
  2
BLOCKS
  0
BLOCK
  5
20
330
1F
100
AcDbEntity
  8
0
100
AcDbBlockBegin
  2
*Model_Space
 70
     0
 10
0.0
 20
0.0
 30
0.0
  3
*Model_Space
  1
*Model_Space
  0
ENDBLK
  5
21
330
1F
100
AcDbEntity
  8
0
100
AcDbBlockEnd
  0
BLOCK
  5
1C
330
1B
100
AcDbEntity
 67
     1
  8
0
100
AcDbBlockBegin
  2
*Paper_Space
 70
     0
 10
0.0
 20
0.0
 30
0.0
  3
*Paper_Space
  1
*Paper_Space
  0
ENDBLK
  5
1D
330
1B
100
AcDbEntity
 67
     1
  8
0
100
AcDbBlockEnd
  0
BLOCK
  5
24
330
23
100
AcDbEntity
  8
0
100
AcDbBlockBegin
  2
*Paper_Space0
 70
     0
 10
0.0
 20
0.0
 30
0.0
  3
*Paper_Space0
  1
*Paper_Space0
  0
ENDBLK
  5
25
330
23
100
AcDbEntity
  8
0
100
AcDbBlockEnd
  0
ENDSEC
  0
SECTION
  2
ENTITIES
  0
POINT
  5
72
330
1F
100
AcDbEntity
  8
1
 62
     3
 60
     1
100
AcDbPoint
 10
-50.9968272380343
 20
22.8958548115672
 30
0.0
  0
POINT
  5
73
330
1F
100
AcDbEntity
  8
1
 62
     3
 60
     1
100
AcDbPoint
 10
-50.29682723803418
 20
23.30000000000001
 30
0.0
  0
POINT
  5
74
330
1F
100
AcDbEntity
  8
1
 62
     3
 60
     1
100
AcDbPoint
 10
-42.99682723803429
 20
22.8958548115672
 30
0.0
  0
POINT
  5
75
330
1F
100
AcDbEntity
  8
1
 62
     3
 60
     1
100
AcDbPoint
 10
-43.69682723803442
 20
23.30000000000001
 30
0.0
  0
POINT
  5
76
330
1F
100
AcDbEntity
  8
1
 62
     3
 60
     1
100
AcDbPoint
 10
-50.9968272380343
 20
20.50414518843272
 30
0.0
  0
POINT
  5
77
330
1F
100
AcDbEntity
  8
1
 62
     3
 60
     1
100
AcDbPoint
 10
-42.99682723803429
 20
20.50414518843272
 30
0.0
  0
POINT
  5
78
330
1F
100
AcDbEntity
  8
1
 62
     3
 60
     1
100
AcDbPoint
 10
-50.29682723803437
 20
20.10000000000002
 30
0.0
  0
POINT
  5
79
330
1F
100
AcDbEntity
  8
1
 62
     3
 60
     1
100
AcDbPoint
 10
-43.69682723803422
 20
20.10000000000002
 30
0.0
  0
LINE
  5
7A
330
1F
100
AcDbEntity
  8
1
  6
DOT_CENTER
 62
     3
100
AcDbLine
 10
-0.00093961524226
 20
25.24613929773022
 30
0.0
 11
0.0
 21
3.7313698139295
 31
0.0
  0
LINE
  5
7B
330
1F
100
AcDbEntity
  8
1
  6
DOT_CENTER
 62
     3
100
AcDbLine
 10
0.0
 20
-3.5043062120451
 30
0.0
 11
0.0
 21
-11.6959589638646
 31
0.0
  0
LINE
  5
7C
330
1F
100
AcDbEntity
  8
1
  6
DOT_CENTER
 62
     3
100
AcDbLine
 10
-23.1610449815043
 20
0.0
 30
0.0
 11
-15.4667964542545
 21
0.0
 31
0.0
  0
LINE
  5
7D
330
1F
100
AcDbEntity
  8
1
  6
DOT_CENTER
 62
     3
100
AcDbLine
 10
7.64435871372895
 20
0.0
 30
0.0
 11
28.84120439660859
 21
0.0
 31
0.0
  0
LINE
  5
7E
330
1F
100
AcDbEntity
  8
1
  6
Continuous
 62
     3
100
AcDbLine
 10
-50.29682723803437
 20
20.10000000000002
 30
0.0
 11
-43.69682723803422
 21
20.10000000000002
 31
0.0
  0
LINE
  5
7F
330
1F
100
AcDbEntity
  8
1
  6
Continuous
 62
     3
100
AcDbLine
 10
-40.22677664017186
 20
18.80000000000001
 30
0.0
 11
-46.9968272380343
 21
18.80000000000001
 31
0.0
  0
LINE
  5
80
330
1F
100
AcDbEntity
  8
1
  6
Continuous
 62
     3
100
AcDbLine
 10
-46.9968272380343
 20
18.80000000000001
 30
0.0
 11
-48.69682723803429
 21
18.80000000000001
 31
0.0
  0
LINE
  5
81
330
1F
100
AcDbEntity
  8
1
  6
DOT_CENTER
 62
     3
100
AcDbLine
 10
-46.9968272380343
 20
18.80000000000001
 30
0.0
 11
-46.9968272380343
 21
-13.1069600495928
 31
0.0
  0
LINE
  5
82
330
1F
100
AcDbEntity
  8
1
  6
Continuous
 62
     3
100
AcDbLine
 10
0.57735026918963
 20
18.80000000000001
 30
0.0
 11
9.19021596680498
 21
18.80000000000001
 31
0.0
  0
LINE
  5
83
330
1F
100
AcDbEntity
  8
1
  6
Continuous
 62
     3
100
AcDbLine
 10
1.32790561913614
 20
20.10000000000002
 30
0.0
 11
4.59999999999999
 21
20.10000000000002
 31
0.0
  0
LINE
  5
84
330
1F
100
AcDbEntity
  8
1
  6
Continuous
 62
     3
100
AcDbLine
 10
0.57735026918963
 20
18.80000000000001
 30
0.0
 11
1.32790561913614
 21
20.10000000000002
 31
0.0
  0
LINE
  5
85
330
1F
100
AcDbEntity
  8
1
  6
Continuous
 62
     3
100
AcDbLine
 10
0.0
 20
18.80000000000001
 30
0.0
 11
0.57735026918963
 21
18.80000000000001
 31
0.0
  0
LINE
  5
86
330
1F
100
AcDbEntity
  8
1
  6
Continuous
 62
     3
100
AcDbLine
 10
0.75055534994652
 20
20.10000000000002
 30
0.0
 11
1.32790561913614
 21
20.10000000000002
 31
0.0
  0
LINE
  5
87
330
1F
100
AcDbEntity
  8
1
  6
Continuous
 62
     3
100
AcDbLine
 10
0.0
 20
18.80000000000001
 30
0.0
 11
0.75055534994652
 21
20.10000000000002
 31
0.0
  0
LINE
  5
88
330
1F
100
AcDbEntity
  8
1
  6
Continuous
 62
     3
100
AcDbLine
 10
1.99812076951546
 20
22.8958548115672
 30
0.0
 11
1.99812076951546
 21
20.50414518843272
 31
0.0
  0
LINE
  5
89
330
1F
100
AcDbEntity
  8
1
  6
Continuous
 62
     3
100
AcDbLine
 10
-1.99999999999999
 20
22.8958548115672
 30
0.0
 11
-1.99999999999999
 21
20.50414518843272
 31
0.0
  0
LINE
  5
8A
330
1F
100
AcDbEntity
  8
1
  6
Continuous
 62
     3
100
AcDbLine
 10
2.0
 20
23.44
 30
0.0
 11
2.13999999999998
 21
23.30000000000001
 31
0.0
  0
LINE
  5
8B
330
1F
100
AcDbEntity
  8
1
  6
Continuous
 62
     3
100
AcDbLine
 10
3.89999999999999
 20
23.30000000000001
 30
0.0
 11
-3.90000000000002
 21
23.30000000000001
 31
0.0
  0
LINE
  5
8C
330
1F
100
AcDbEntity
  8
1
  6
Continuous
 62
     3
100
AcDbLine
 10
-2.13999999999998
 20
23.30000000000001
 30
0.0
 11
-1.99999999999999
 21
23.44
 31
0.0
  0
LINE
  5
8D
330
1F
100
AcDbEntity
  8
1
  6
Continuous
 62
     3
100
AcDbLine
 10
-2.5
 20
20.10000000000002
 30
0.0
 11
-3.90000000000002
 21
20.10000000000002
 31
0.0
  0
LINE
  5
8E
330
1F
100
AcDbEntity
  8
1
  6
Continuous
 62
     3
100
AcDbLine
 10
27.07831216351299
 20
11.5
 30
0.0
 11
13.49999999999999
 21
11.5
 31
0.0
  0
LINE
  5
8F
330
1F
100
AcDbEntity
  8
1
  6
Continuous
 62
     3
100
AcDbLine
 10
14.0
 20
-11.5
 30
0.0
 11
14.0
 21
-6.74805885982479
 31
0.0
  0
LINE
  5
90
330
1F
100
AcDbEntity
  8
1
  6
Continuous
 62
     3
100
AcDbLine
 10
12.27900068075729
 20
35.21427259208932
 30
0.0
 11
10.65911372414008
 21
28.6412124992635
 31
0.0
  0
LINE
  5
91
330
1F
100
AcDbEntity
  8
1
  6
Continuous
 62
     3
100
AcDbLine
 10
-3.90000000000002
 20
20.10000000000002
 30
0.0
 11
-4.59999999999998
 21
20.50414518843272
 31
0.0
  0
LINE
  5
92
330
1F
100
AcDbEntity
  8
1
  6
Continuous
 62
     3
100
AcDbLine
 10
-4.59999999999998
 20
20.50414518843272
 30
0.0
 11
-4.59999999999998
 21
22.8958548115672
 31
0.0
  0
LINE
  5
93
330
1F
100
AcDbEntity
  8
1
  6
Continuous
 62
     3
100
AcDbLine
 10
-4.59999999999998
 20
22.8958548115672
 30
0.0
 11
-3.90000000000002
 21
23.30000000000001
 31
0.0
  0
LINE
  5
94
330
1F
100
AcDbEntity
  8
1
  6
Continuous
 62
     3
100
AcDbLine
 10
4.59999999999999
 20
20.50414518843272
 30
0.0
 11
3.89999999999999
 21
20.10000000000002
 31
0.0
  0
LINE
  5
95
330
1F
100
AcDbEntity
  8
1
  6
Continuous
 62
     3
100
AcDbLine
 10
4.59999999999999
 20
22.8958548115672
 30
0.0
 11
4.59999999999999
 21
20.50414518843272
 31
0.0
  0
LINE
  5
96
330
1F
100
AcDbEntity
  8
1
  6
Continuous
 62
     3
100
AcDbLine
 10
3.89999999999999
 20
23.30000000000001
 30
0.0
 11
4.59999999999999
 21
22.8958548115672
 31
0.0
  0
LINE
  5
97
330
1F
100
AcDbEntity
  8
1
  6
Continuous
 62
     3
100
AcDbLine
 10
-1.99999999999999
 20
23.44
 30
0.0
 11
2.0
 21
23.44
 31
0.0
  0
LINE
  5
98
330
1F
100
AcDbEntity
  8
1
  6
Continuous
 62
     3
100
AcDbLine
 10
5.5
 20
16.0
 30
0.0
 11
5.5
 21
16.80000000000001
 31
0.0
  0
LINE
  5
99
330
1F
100
AcDbEntity
  8
1
  6
Continuous
 62
     3
100
AcDbLine
 10
-5.49999999999999
 20
16.80000000000001
 30
0.0
 11
-5.49999999999999
 21
16.0
 31
0.0
  0
LINE
  5
9A
330
1F
100
AcDbEntity
  8
1
  6
Continuous
 62
     3
100
AcDbLine
 10
9.18430812813268
 20
16.80000000000001
 30
0.0
 11
7.65494413665009
 21
16.80000000000001
 31
0.0
  0
LINE
  5
9B
330
1F
100
AcDbEntity
  8
1
  6
Continuous
 62
     3
100
AcDbLine
 10
12.29195564192139
 20
20.0007174593843
 30
0.0
 11
12.12022490313129
 21
19.18324016807071
 31
0.0
  0
LINE
  5
9C
330
1F
100
AcDbEntity
  8
1
  6
Continuous
 62
     3
100
AcDbLine
 10
10.16836356753879
 20
19.59208830918232
 30
0.0
 11
11.36762210911489
 21
25.23415615293001
 31
0.0
  0
LINE
  5
9D
330
1F
100
AcDbEntity
  8
1
  6
Continuous
 62
     3
100
AcDbLine
 10
-6.99999999999999
 20
18.80000000000001
 30
0.0
 11
0.0
 21
18.80000000000001
 31
0.0
  0
LINE
  5
9E
330
1F
100
AcDbEntity
  8
1
  6
Continuous
 62
     3
100
AcDbLine
 10
-6.99999999999999
 20
16.80000000000001
 30
0.0
 11
7.65494413665009
 21
16.80000000000001
 31
0.0
  0
LINE
  5
9F
330
1F
100
AcDbEntity
  8
1
  6
Continuous
 62
     3
100
AcDbLine
 10
-6.99999999999999
 20
18.80000000000001
 30
0.0
 11
-7.49999999999996
 21
18.80000000000001
 31
0.0
  0
LINE
  5
A0
330
1F
100
AcDbEntity
  8
1
  6
Continuous
 62
     3
100
AcDbLine
 10
-6.99999999999999
 20
18.80000000000001
 30
0.0
 11
-6.99999999999999
 21
16.80000000000001
 31
0.0
  0
LINE
  5
A1
330
1F
100
AcDbEntity
  8
1
  6
Continuous
 62
     3
100
AcDbLine
 10
-7.49999999999996
 20
12.80000000000001
 30
0.0
 11
-7.49999999999996
 21
16.30000000000001
 31
0.0
  0
LINE
  5
A2
330
1F
100
AcDbEntity
  8
1
  6
Continuous
 62
     3
100
AcDbLine
 10
-9.49999999999996
 20
12.80000000000001
 30
0.0
 11
-7.49999999999996
 21
12.80000000000001
 31
0.0
  0
LINE
  5
A3
330
1F
100
AcDbEntity
  8
1
  6
Continuous
 62
     3
100
AcDbLine
 10
-9.49999999999996
 20
16.80000000000001
 30
0.0
 11
-9.49999999999996
 21
12.80000000000001
 31
0.0
  0
LINE
  5
A4
330
1F
100
AcDbEntity
  8
1
  6
Continuous
 62
     3
100
AcDbLine
 10
60.0
 20
36.30000000000001
 30
0.0
 11
21.27056699012839
 21
36.30000000000001
 31
0.0
  0
LINE
  5
A5
330
1F
100
AcDbEntity
  8
1
  6
Continuous
 62
     3
100
AcDbLine
 10
16.89483397857529
 20
32.8502193159546
 30
0.0
 11
14.03537437437889
 21
20.93629658076651
 31
0.0
  0
LINE
  5
A6
330
1F
100
AcDbEntity
  8
1
  6
Continuous
 62
     3
100
AcDbLine
 10
20.04659750623529
 20
41.30000000000001
 30
0.0
 11
60.0
 21
41.30000000000001
 31
0.0
  0
LINE
  5
A7
330
1F
100
AcDbEntity
  8
1
  6
Continuous
 62
     3
100
AcDbLine
 10
-4.59999999999998
 20
18.80000000000001
 30
0.0
 11
-4.59999999999998
 21
20.10000000000002
 31
0.0
  0
LINE
  5
A8
330
1F
100
AcDbEntity
  8
1
  6
Continuous
 62
     3
100
AcDbLine
 10
4.59999999999999
 20
20.10000000000002
 30
0.0
 11
4.59999999999999
 21
18.80000000000001
 31
0.0
  0
LINE
  5
A9
330
1F
100
AcDbEntity
  8
1
  6
Continuous
 62
     3
100
AcDbLine
 10
-4.59999999999998
 20
20.10000000000002
 30
0.0
 11
0.75055534994652
 21
20.10000000000002
 31
0.0
  0
LINE
  5
AA
330
1F
100
AcDbEntity
  8
1
  6
Continuous
 62
     3
100
AcDbLine
 10
-21.27831216351295
 20
-11.5
 30
0.0
 11
-12.20710678118654
 21
-11.5
 31
0.0
  0
LINE
  5
AB
330
1F
100
AcDbEntity
  8
1
  6
Continuous
 62
     3
100
AcDbLine
 10
-21.99999999999999
 20
-10.25
 30
0.0
 11
-21.27831216351295
 21
-11.5
 31
0.0
  0
LINE
  5
AC
330
1F
100
AcDbEntity
  8
1
  6
Continuous
 62
     3
100
AcDbLine
 10
-21.99999999999999
 20
10.25
 30
0.0
 11
-21.27831216351295
 21
11.5
 31
0.0
  0
LINE
  5
AD
330
1F
100
AcDbEntity
  8
1
  6
Continuous
 62
     3
100
AcDbLine
 10
-21.99999999999999
 20
-10.25
 30
0.0
 11
-21.99999999999999
 21
10.25
 31
0.0
  0
LINE
  5
AE
330
1F
100
AcDbEntity
  8
1
  6
Continuous
 62
     3
100
AcDbLine
 10
6.78867513459478
 20
-10.5
 30
0.0
 11
7.22168783648709
 21
-11.25
 31
0.0
  0
LINE
  5
AF
330
1F
100
AcDbEntity
  8
1
  6
Continuous
 62
     3
100
AcDbLine
 10
-11.85355339059326
 20
-11.35355339059328
 30
0.0
 11
-10.79289321881343
 21
-10.29289321881339
 31
0.0
  0
LINE
  5
B0
330
1F
100
AcDbEntity
  8
1
  6
Continuous
 62
     3
100
AcDbLine
 10
-10.08578643762688
 20
-10.0
 30
0.0
 11
5.92264973081039
 21
-10.0
 31
0.0
  0
LINE
  5
B1
330
1F
100
AcDbEntity
  8
1
  6
Continuous
 62
     3
100
AcDbLine
 10
7.99999999999999
 20
11.5
 30
0.0
 11
13.49999999999999
 21
11.5
 31
0.0
  0
LINE
  5
B2
330
1F
100
AcDbEntity
  8
1
  6
Continuous
 62
     3
100
AcDbLine
 10
6.99999999999999
 20
16.0
 30
0.0
 11
6.99999999999999
 21
12.5
 31
0.0
  0
LINE
  5
B3
330
1F
100
AcDbEntity
  8
1
  6
Continuous
 62
     3
100
AcDbLine
 10
-12.20710678118654
 20
11.5
 30
0.0
 11
-21.27831216351295
 21
11.5
 31
0.0
  0
LINE
  5
B4
330
1F
100
AcDbEntity
  8
1
  6
Continuous
 62
     3
100
AcDbLine
 10
-10.08578643762688
 20
10.0
 30
0.0
 11
-7.99999999999996
 21
10.0
 31
0.0
  0
LINE
  5
B5
330
1F
100
AcDbEntity
  8
1
  6
Continuous
 62
     3
100
AcDbLine
 10
-6.99999999999996
 20
16.0
 30
0.0
 11
-6.99999999999996
 21
11.0
 31
0.0
  0
LINE
  5
B6
330
1F
100
AcDbEntity
  8
1
  6
Continuous
 62
     3
100
AcDbLine
 10
27.79999999999998
 20
-10.25
 30
0.0
 11
27.07831216351299
 21
-11.5
 31
0.0
  0
LINE
  5
B7
330
1F
100
AcDbEntity
  8
1
  6
Continuous
 62
     3
100
AcDbLine
 10
27.79999999999998
 20
6.69683802910342
 30
0.0
 11
27.79999999999998
 21
10.25
 31
0.0
  0
LINE
  5
B8
330
1F
100
AcDbEntity
  8
1
  6
Continuous
 62
     3
100
AcDbLine
 10
27.79999999999998
 20
6.69683802910342
 30
0.0
 11
27.79999999999998
 21
-10.25
 31
0.0
  0
LINE
  5
B9
330
1F
100
AcDbEntity
  8
1
  6
Continuous
 62
     3
100
AcDbLine
 10
27.07831216351299
 20
11.5
 30
0.0
 11
27.79999999999998
 21
10.25
 31
0.0
  0
LINE
  5
BA
330
1F
100
AcDbEntity
  8
1
  6
Continuous
 62
     3
100
AcDbLine
 10
27.65566243270258
 20
52.55000000000001
 30
0.0
 11
27.51132486540519
 21
52.30000000000001
 31
0.0
  0
LINE
  5
BB
330
1F
100
AcDbEntity
  8
1
  6
Continuous
 62
     3
100
AcDbLine
 10
27.65566243270258
 20
54.31751757240178
 30
0.0
 11
27.65566243270258
 21
52.55000000000001
 31
0.0
  0
LINE
  5
BC
330
1F
100
AcDbEntity
  8
1
  6
Continuous
 62
     3
100
AcDbLine
 10
13.99999999999999
 20
52.30000000000009
 30
0.0
 11
27.51132486540519
 21
52.30000000000001
 31
0.0
  0
LINE
  5
BD
330
1F
100
AcDbEntity
  8
1
  6
Continuous
 62
     3
100
AcDbLine
 10
13.99999999999999
 20
53.48798079768209
 30
0.0
 11
27.07831216351299
 21
53.48798079768209
 31
0.0
  0
LINE
  5
BE
330
1F
100
AcDbEntity
  8
1
  6
Continuous
 62
     3
100
AcDbLine
 10
27.51132486540519
 20
73.30000000000001
 30
0.0
 11
27.65566243270258
 21
73.05000000000001
 31
0.0
  0
LINE
  5
BF
330
1F
100
AcDbEntity
  8
1
  6
Continuous
 62
     3
100
AcDbLine
 10
27.51132486540519
 20
73.30000000000001
 30
0.0
 11
13.99999999999999
 21
73.2999999999999
 31
0.0
  0
LINE
  5
C0
330
1F
100
AcDbEntity
  8
1
  6
Continuous
 62
     3
100
AcDbLine
 10
27.07831216351299
 20
72.1120192023179
 30
0.0
 11
13.99999999999999
 21
72.1120192023179
 31
0.0
  0
LINE
  5
C1
330
1F
100
AcDbEntity
  8
1
  6
Continuous
 62
     3
100
AcDbLine
 10
27.65566243270258
 20
73.05000000000001
 30
0.0
 11
27.65566243270258
 21
71.28248242759821
 31
0.0
  0
LINE
  5
C2
330
1F
100
AcDbEntity
  8
1
  6
Continuous
 62
     3
100
AcDbLine
 10
-21.75000000000013
 20
73.2999999999999
 30
0.0
 11
6.92264973081039
 21
73.2999999999999
 31
0.0
  0
LINE
  5
C3
330
1F
100
AcDbEntity
  8
1
  6
Continuous
 62
     3
100
AcDbLine
 10
-21.27831216351295
 20
72.1120192023179
 30
0.0
 11
-11.99999999999999
 21
72.1120192023179
 31
0.0
  0
LINE
  5
C4
330
1F
100
AcDbEntity
  8
1
  6
Continuous
 62
     3
100
AcDbLine
 10
-21.27831216351295
 20
63.98798079768198
 30
0.0
 11
-21.27831216351295
 21
61.612019202318
 31
0.0
  0
LINE
  5
C5
330
1F
100
AcDbEntity
  8
1
  6
Continuous
 62
     3
100
AcDbLine
 10
-22.00000000000001
 20
52.55000000000001
 30
0.0
 11
-22.00000000000001
 21
73.05000000000001
 31
0.0
  0
LINE
  5
C6
330
1F
100
AcDbEntity
  8
1
  6
Continuous
 62
     3
100
AcDbLine
 10
-21.75000000000013
 20
52.30000000000009
 30
0.0
 11
-22.00000000000001
 21
52.55000000000001
 31
0.0
  0
LINE
  5
C7
330
1F
100
AcDbEntity
  8
1
  6
DOT_CENTER
 62
     3
100
AcDbLine
 10
22.77569970269299
 20
62.80000000000001
 30
0.0
 11
-23.21423705691042
 21
62.80000000000001
 31
0.0
  0
LINE
  5
C8
330
1F
100
AcDbEntity
  8
1
  6
Continuous
 62
     3
100
AcDbLine
 10
-22.00000000000001
 20
73.05000000000001
 30
0.0
 11
-21.75000000000013
 21
73.2999999999999
 31
0.0
  0
LINE
  5
C9
330
1F
100
AcDbEntity
  8
1
  6
Continuous
 62
     3
100
AcDbLine
 10
5.99999999999999
 20
3.0
 30
0.0
 11
-14.0
 21
3.0
 31
0.0
  0
LINE
  5
CA
330
1F
100
AcDbEntity
  8
1
  6
Continuous
 62
     3
100
AcDbLine
 10
1.56758781735349
 20
-0.50630191147761
 30
0.0
 11
2.47551470287369
 21
1.0
 31
0.0
  0
LINE
  5
CB
330
1F
100
AcDbEntity
  8
1
  6
Continuous
 62
     3
100
AcDbLine
 10
3.07551470287368
 20
2.0
 30
0.0
 11
2.47551470287369
 21
2.0
 31
0.0
  0
LINE
  5
CC
330
1F
100
AcDbEntity
  8
1
  6
Continuous
 62
     3
100
AcDbLine
 10
0.89413192597478
 20
-1.1063019114776
 30
0.0
 11
2.47551470287369
 21
-1.1063019114776
 31
0.0
  0
LINE
  5
CD
330
1F
100
AcDbEntity
  8
1
  6
Continuous
 62
     3
100
AcDbLine
 10
0.89413192597478
 20
-0.50630191147761
 30
0.0
 11
0.89413192597478
 21
-1.1063019114776
 31
0.0
  0
LINE
  5
CE
330
1F
100
AcDbEntity
  8
1
  6
Continuous
 62
     3
100
AcDbLine
 10
2.47551470287369
 20
2.0
 30
0.0
 11
0.89413192597478
 21
-0.50630191147761
 31
0.0
  0
LINE
  5
CF
330
1F
100
AcDbEntity
  8
1
  6
Continuous
 62
     3
100
AcDbLine
 10
2.47551470287369
 20
-2.0
 30
0.0
 11
3.07551470287368
 21
-2.0
 31
0.0
  0
LINE
  5
D0
330
1F
100
AcDbEntity
  8
1
  6
Continuous
 62
     3
100
AcDbLine
 10
3.07551470287368
 20
-2.0
 30
0.0
 11
3.07551470287368
 21
-1.1063019114776
 31
0.0
  0
LINE
  5
D1
330
1F
100
AcDbEntity
  8
1
  6
Continuous
 62
     3
100
AcDbLine
 10
2.47551470287369
 20
-1.1063019114776
 30
0.0
 11
2.47551470287369
 21
-2.0
 31
0.0
  0
LINE
  5
D2
330
1F
100
AcDbEntity
  8
1
  6
Continuous
 62
     3
100
AcDbLine
 10
3.07551470287368
 20
-0.50630191147761
 30
0.0
 11
3.07551470287368
 21
2.0
 31
0.0
  0
LINE
  5
D3
330
1F
100
AcDbEntity
  8
1
  6
Continuous
 62
     3
100
AcDbLine
 10
3.49999999999999
 20
-1.1063019114776
 30
0.0
 11
3.07551470287368
 21
-1.1063019114776
 31
0.0
  0
LINE
  5
D4
330
1F
100
AcDbEntity
  8
1
  6
Continuous
 62
     3
100
AcDbLine
 10
3.49999999999999
 20
-0.50630191147761
 30
0.0
 11
3.49999999999999
 21
-1.1063019114776
 31
0.0
  0
LINE
  5
D5
330
1F
100
AcDbEntity
  8
1
  6
Continuous
 62
     3
100
AcDbLine
 10
3.49999999999999
 20
-0.50630191147761
 30
0.0
 11
3.07551470287368
 21
-0.50630191147761
 31
0.0
  0
LINE
  5
D6
330
1F
100
AcDbEntity
  8
1
  6
Continuous
 62
     3
100
AcDbLine
 10
2.47551470287369
 20
-0.50630191147761
 30
0.0
 11
2.47551470287369
 21
1.0
 31
0.0
  0
LINE
  5
D7
330
1F
100
AcDbEntity
  8
1
  6
Continuous
 62
     3
100
AcDbLine
 10
2.47551470287369
 20
-0.50630191147761
 30
0.0
 11
1.56758781735349
 21
-0.50630191147761
 31
0.0
  0
LINE
  5
D8
330
1F
100
AcDbEntity
  8
1
  6
Continuous
 62
     3
100
AcDbLine
 10
0.32503363310348
 20
1.90115239560091
 30
0.0
 11
-1.33800334405594
 21
-1.7500667937917
 31
0.0
  0
LINE
  5
D9
330
1F
100
AcDbEntity
  8
1
  6
Continuous
 62
     3
100
AcDbLine
 10
0.76351164986459
 20
1.74022598122708
 30
0.0
 11
-0.89791365463949
 21
-1.907454760009
 31
0.0
  0
LINE
  5
DA
330
1F
100
AcDbEntity
  8
1
  6
Continuous
 62
     3
100
AcDbLine
 10
-3.49999999999999
 20
0.91101520927341
 30
0.0
 11
-3.49999999999999
 21
1.2689677990554
 31
0.0
  0
LINE
  5
DB
330
1F
100
AcDbEntity
  8
1
  6
Continuous
 62
     3
100
AcDbLine
 10
-2.85169414991139
 20
0.91101520927341
 30
0.0
 11
-3.49999999999999
 21
0.91101520927341
 31
0.0
  0
LINE
  5
DC
330
1F
100
AcDbEntity
  8
1
  6
Continuous
 62
     3
100
AcDbLine
 10
-2.85169414991139
 20
-2.0
 30
0.0
 11
-2.85169414991139
 21
0.91101520927341
 31
0.0
  0
LINE
  5
DD
330
1F
100
AcDbEntity
  8
1
  6
Continuous
 62
     3
100
AcDbLine
 10
-2.25169414991138
 20
2.0
 30
0.0
 11
-2.25169414991138
 21
-2.0
 31
0.0
  0
LINE
  5
DE
330
1F
100
AcDbEntity
  8
1
  6
Continuous
 62
     3
100
AcDbLine
 10
-2.65170139681808
 20
2.0
 30
0.0
 11
-2.25169414991138
 21
2.0
 31
0.0
  0
LINE
  5
DF
330
1F
100
AcDbEntity
  8
1
  6
Continuous
 62
     3
100
AcDbLine
 10
-2.85169414991139
 20
-2.0
 30
0.0
 11
-2.25169414991138
 21
-2.0
 31
0.0
  0
LINE
  5
E0
330
1F
100
AcDbEntity
  8
1
  6
Continuous
 62
     3
100
AcDbLine
 10
-9.49999999999999
 20
-1.0
 30
0.0
 11
-5.49999999999999
 21
-1.0
 31
0.0
  0
LINE
  5
E1
330
1F
100
AcDbEntity
  8
1
  6
Continuous
 62
     3
100
AcDbLine
 10
-5.49999999999999
 20
1.0
 30
0.0
 11
-9.49999999999999
 21
1.0
 31
0.0
  0
LINE
  5
E2
330
1F
100
AcDbEntity
  8
1
  6
Continuous
 62
     3
100
AcDbLine
 10
-5.49999999999999
 20
1.0
 30
0.0
 11
-5.49999999999999
 21
-1.0
 31
0.0
  0
LINE
  5
E3
330
1F
100
AcDbEntity
  8
1
  6
Continuous
 62
     3
100
AcDbLine
 10
-9.49999999999999
 20
-1.0
 30
0.0
 11
-9.49999999999999
 21
-2.0
 31
0.0
  0
LINE
  5
E4
330
1F
100
AcDbEntity
  8
1
  6
Continuous
 62
     3
100
AcDbLine
 10
-9.49999999999999
 20
2.0
 30
0.0
 11
-9.49999999999999
 21
1.0
 31
0.0
  0
LINE
  5
E5
330
1F
100
AcDbEntity
  8
1
  6
Continuous
 62
     3
100
AcDbLine
 10
-12.5
 20
0.0
 30
0.0
 11
-9.49999999999999
 21
-2.0
 31
0.0
  0
LINE
  5
E6
330
1F
100
AcDbEntity
  8
1
  6
Continuous
 62
     3
100
AcDbLine
 10
-12.5
 20
0.0
 30
0.0
 11
-9.49999999999999
 21
2.0
 31
0.0
  0
LINE
  5
E7
330
1F
100
AcDbEntity
  8
1
  6
Continuous
 62
     3
100
AcDbLine
 10
5.99999999999999
 20
-3.0
 30
0.0
 11
-14.0
 21
-3.0
 31
0.0
  0
LINE
  5
E8
330
1F
100
AcDbEntity
  8
1
  6
Continuous
 62
     3
100
AcDbLine
 10
6.49999999999998
 20
2.5
 30
0.0
 11
6.49999999999998
 21
-2.5
 31
0.0
  0
LINE
  5
E9
330
1F
100
AcDbEntity
  8
1
  6
Continuous
 62
     3
100
AcDbLine
 10
-14.5
 20
-2.5
 30
0.0
 11
-14.5
 21
2.5
 31
0.0
  0
LINE
  5
EA
330
1F
100
AcDbEntity
  8
1
  6
Continuous
 62
     3
100
AcDbLine
 10
6.92264973081039
 20
53.30000000000001
 30
0.0
 11
7.35566243270259
 21
52.54999999999989
 31
0.0
  0
LINE
  5
EB
330
1F
100
AcDbEntity
  8
1
  6
Continuous
 62
     3
100
AcDbLine
 10
7.49999999999999
 20
69.80000000000001
 30
0.0
 11
7.49999999999999
 21
73.05000000000001
 31
0.0
  0
LINE
  5
EC
330
1F
100
AcDbEntity
  8
1
  6
Continuous
 62
     3
100
AcDbLine
 10
13.99999999999999
 20
55.34940165131808
 30
0.0
 11
13.99999999999999
 21
51.30000000000001
 31
0.0
  0
LINE
  5
ED
330
1F
100
AcDbEntity
  8
1
  6
Continuous
 62
     3
100
AcDbLine
 10
-10.70225916560646
 20
54.34297741440408
 30
0.0
 11
-11.73743515846361
 21
52.54999999999989
 31
0.0
  0
LINE
  5
EE
330
1F
100
AcDbEntity
  8
1
  6
Continuous
 62
     3
100
AcDbLine
 10
-9.99999999999999
 20
54.28897773472539
 30
0.0
 11
-2.04999999999997
 21
54.28897773472539
 31
0.0
  0
LINE
  5
EF
330
1F
100
AcDbEntity
  8
1
  6
Continuous
 62
     3
100
AcDbLine
 10
7.49999999999999
 20
52.54999999999989
 30
0.0
 11
7.49999999999999
 21
55.80000000000001
 31
0.0
  0
LINE
  5
F0
330
1F
100
AcDbEntity
  8
1
  6
Continuous
 62
     3
100
AcDbLine
 10
-11.73743515846361
 20
73.05000000000001
 30
0.0
 11
-10.70225916560646
 21
71.2570225855959
 31
0.0
  0
LINE
  5
F1
330
1F
100
AcDbEntity
  8
1
  6
Continuous
 62
     3
100
AcDbLine
 10
-10.49999999999999
 20
70.8110222652746
 30
0.0
 11
-10.49999999999999
 21
54.78897773472539
 31
0.0
  0
LINE
  5
F2
330
1F
100
AcDbEntity
  8
1
  6
Continuous
 62
     3
100
AcDbLine
 10
6.49999999999999
 20
70.8110222652746
 30
0.0
 11
6.49999999999999
 21
69.80000000000001
 31
0.0
  0
LINE
  5
F3
330
1F
100
AcDbEntity
  8
1
  6
Continuous
 62
     3
100
AcDbLine
 10
2.05
 20
71.3110222652746
 30
0.0
 11
2.05
 21
69.80000000000001
 31
0.0
  0
LINE
  5
F4
330
1F
100
AcDbEntity
  8
1
  6
Continuous
 62
     3
100
AcDbLine
 10
2.05
 20
71.3110222652746
 30
0.0
 11
5.99999999999999
 21
71.3110222652746
 31
0.0
  0
LINE
  5
F5
330
1F
100
AcDbEntity
  8
1
  6
Continuous
 62
     3
100
AcDbLine
 10
7.35566243270259
 20
73.05000000000001
 30
0.0
 11
6.42653720649559
 21
71.44070790161561
 31
0.0
  0
LINE
  5
F6
330
1F
100
AcDbEntity
  8
1
  6
Continuous
 62
     3
100
AcDbLine
 10
-2.04999999999997
 20
72.55000000000001
 30
0.0
 11
-2.04999999999997
 21
69.80000000000001
 31
0.0
  0
LINE
  5
F7
330
1F
100
AcDbEntity
  8
1
  6
Continuous
 62
     3
100
AcDbLine
 10
-2.04999999999997
 20
71.3110222652746
 30
0.0
 11
-9.99999999999999
 21
71.3110222652746
 31
0.0
  0
LINE
  5
F8
330
1F
100
AcDbEntity
  8
1
  6
Continuous
 62
     3
100
AcDbLine
 10
1.55
 20
52.55000000000001
 30
0.0
 11
-1.54999999999997
 21
52.55000000000001
 31
0.0
  0
LINE
  5
F9
330
1F
100
AcDbEntity
  8
1
  6
Continuous
 62
     3
100
AcDbLine
 10
2.05
 20
55.79999999999989
 30
0.0
 11
2.05
 21
53.29999999999989
 31
0.0
  0
LINE
  5
FA
330
1F
100
AcDbEntity
  8
1
  6
Continuous
 62
     3
100
AcDbLine
 10
-2.04999999999997
 20
53.05000000000001
 30
0.0
 11
-2.04999999999997
 21
56.1069065448031
 31
0.0
  0
LINE
  5
FB
330
1F
100
AcDbEntity
  8
1
  6
Continuous
 62
     3
100
AcDbLine
 10
-1.54999999999997
 20
73.05000000000001
 30
0.0
 11
1.55
 21
73.05000000000001
 31
0.0
  0
LINE
  5
FC
330
1F
100
AcDbEntity
  8
1
  6
Continuous
 62
     3
100
AcDbLine
 10
2.05
 20
72.55000000000001
 30
0.0
 11
2.05
 21
71.3110222652746
 31
0.0
  0
LINE
  5
FD
330
1F
100
AcDbEntity
  8
1
  6
Continuous
 62
     3
100
AcDbLine
 10
-11.99999999999999
 20
61.612019202318
 30
0.0
 11
-21.27831216351295
 21
61.612019202318
 31
0.0
  0
LINE
  5
FE
330
1F
100
AcDbEntity
  8
1
  6
Continuous
 62
     3
100
AcDbLine
 10
-11.99999999999999
 20
63.98798079768198
 30
0.0
 11
-21.27831216351295
 21
63.98798079768198
 31
0.0
  0
LINE
  5
FF
330
1F
100
AcDbEntity
  8
1
  6
Continuous
 62
     3
100
AcDbLine
 10
-11.99999999999999
 20
72.1120192023179
 30
0.0
 11
-11.99999999999999
 21
73.2999999999999
 31
0.0
  0
LINE
  5
100
330
1F
100
AcDbEntity
  8
1
  6
Continuous
 62
     3
100
AcDbLine
 10
-11.99999999999999
 20
53.48798079768198
 30
0.0
 11
-21.27831216351295
 21
53.48798079768218
 31
0.0
  0
LINE
  5
101
330
1F
100
AcDbEntity
  8
1
  6
Continuous
 62
     3
100
AcDbLine
 10
-11.99999999999999
 20
63.98798079768198
 30
0.0
 11
-11.99999999999999
 21
61.612019202318
 31
0.0
  0
LINE
  5
102
330
1F
100
AcDbEntity
  8
1
  6
Continuous
 62
     3
100
AcDbLine
 10
8.36602540378449
 20
74.2999999999999
 30
0.0
 11
13.99999999999999
 21
74.30000000000001
 31
0.0
  0
LINE
  5
103
330
1F
100
AcDbEntity
  8
1
  6
Continuous
 62
     3
100
AcDbLine
 10
7.78867513459478
 20
73.7999999999999
 30
0.0
 11
7.9330127018923
 21
74.0499999999999
 31
0.0
  0
LINE
  5
104
330
1F
100
AcDbEntity
  8
1
  6
Continuous
 62
     3
100
AcDbLine
 10
6.92264973081039
 20
52.30000000000001
 30
0.0
 11
-21.75000000000013
 21
52.30000000000009
 31
0.0
  0
LINE
  5
105
330
1F
100
AcDbEntity
  8
1
  6
Continuous
 62
     3
100
AcDbLine
 10
7.9330127018922
 20
51.55000000000001
 30
0.0
 11
7.78867513459478
 21
51.80000000000001
 31
0.0
  0
LINE
  5
106
330
1F
100
AcDbEntity
  8
1
  6
Continuous
 62
     3
100
AcDbLine
 10
-11.99999999999999
 20
52.30000000000001
 30
0.0
 11
-11.99999999999999
 21
53.48798079768198
 31
0.0
  0
LINE
  5
107
330
1F
100
AcDbEntity
  8
1
  6
Continuous
 62
     3
100
AcDbLine
 10
13.99999999999999
 20
51.30000000000001
 30
0.0
 11
8.36602540378449
 21
51.30000000000001
 31
0.0
  0
LINE
  5
108
330
1F
100
AcDbEntity
  8
1
  6
Continuous
 62
     3
100
AcDbLine
 10
13.99999999999999
 20
74.30000000000001
 30
0.0
 11
13.99999999999999
 21
70.25059834868199
 31
0.0
  0
LINE
  5
109
330
1F
100
AcDbEntity
  8
1
  6
DOT_CENTER
 62
     3
100
AcDbLine
 10
0.0
 20
74.3776689174492
 30
0.0
 11
0.0
 21
51.26811376322319
 31
0.0
  0
LINE
  5
10A
330
1F
100
AcDbEntity
  8
1
  6
DOT_CENTER
 62
     3
100
AcDbLine
 10
63.31885711200519
 20
62.80000000000001
 30
0.0
 11
55.8100264409272
 21
62.80000000000001
 31
0.0
  0
LINE
  5
10B
330
1F
100
AcDbEntity
  8
1
  6
Continuous
 62
     3
100
AcDbLine
 10
17.84031274854389
 20
58.05105469143498
 30
0.0
 11
17.84031274854389
 21
67.54894530856501
 31
0.0
  0
LINE
  5
10C
330
1F
100
AcDbEntity
  8
1
  6
Continuous
 62
     3
100
AcDbLine
 10
17.84031274854389
 20
58.05105469143498
 30
0.0
 11
18.44485928582689
 21
57.42667527217901
 31
0.0
  0
LINE
  5
10D
330
1F
100
AcDbEntity
  8
1
  6
Continuous
 62
     3
100
AcDbLine
 10
2.05
 20
55.79999999999989
 30
0.0
 11
0.0
 21
55.80000000000001
 31
0.0
  0
LINE
  5
10E
330
1F
100
AcDbEntity
  8
1
  6
Continuous
 62
     3
100
AcDbLine
 10
2.05
 20
55.79999999999989
 30
0.0
 11
2.05
 21
53.29999999999989
 31
0.0
  0
LINE
  5
10F
330
1F
100
AcDbEntity
  8
1
  6
LONG_DASHED
 62
     3
100
AcDbLine
 10
2.05
 20
55.29999999999989
 30
0.0
 11
6.99999999999999
 21
55.30000000000001
 31
0.0
  0
LINE
  5
110
330
1F
100
AcDbEntity
  8
1
  6
Continuous
 62
     3
100
AcDbLine
 10
2.05
 20
55.79999999999989
 30
0.0
 11
2.05
 21
53.29999999999989
 31
0.0
  0
LINE
  5
111
330
1F
100
AcDbEntity
  8
1
  6
Continuous
 62
     3
100
AcDbLine
 10
9.67166501493649
 20
69.80000000000001
 30
0.0
 11
-7.49999999999999
 21
69.80000000000001
 31
0.0
  0
LINE
  5
112
330
1F
100
AcDbEntity
  8
1
  6
Continuous
 62
     3
100
AcDbLine
 10
10.41342571305199
 20
69.54646400407199
 30
0.0
 11
10.41342571305199
 21
56.03883207442299
 31
0.0
  0
LINE
  5
113
330
1F
100
AcDbEntity
  8
1
  6
Continuous
 62
     3
100
AcDbLine
 10
10.16836356753879
 20
69.05564798316391
 30
0.0
 11
10.16836356753879
 21
56.54435201683599
 31
0.0
  0
LINE
  5
114
330
1F
100
AcDbEntity
  8
1
  6
Continuous
 62
     3
100
AcDbLine
 10
-9.49999999999999
 20
64.80000000000001
 30
0.0
 11
-6.99999999999999
 21
64.80000000000001
 31
0.0
  0
LINE
  5
115
330
1F
100
AcDbEntity
  8
1
  6
Continuous
 62
     3
100
AcDbLine
 10
-7.49999999999999
 20
69.80000000000001
 30
0.0
 11
-9.49999999999999
 21
69.80000000000001
 31
0.0
  0
LINE
  5
116
330
1F
100
AcDbEntity
  8
1
  6
LONG_DASHED
 62
     3
100
AcDbLine
 10
-7.49999999999999
 20
69.80000000000001
 30
0.0
 11
-7.49999999999999
 21
64.80000000000001
 31
0.0
  0
LINE
  5
117
330
1F
100
AcDbEntity
  8
1
  6
Continuous
 62
     3
100
AcDbLine
 10
-1.5
 20
60.80000000000001
 30
0.0
 11
1.5
 21
60.80000000000001
 31
0.0
  0
LINE
  5
118
330
1F
100
AcDbEntity
  8
1
  6
Continuous
 62
     3
100
AcDbLine
 10
-1.5
 20
64.80000000000001
 30
0.0
 11
1.5
 21
64.80000000000001
 31
0.0
  0
LINE
  5
119
330
1F
100
AcDbEntity
  8
1
  6
Continuous
 62
     3
100
AcDbLine
 10
3.9837168574085
 20
60.49999999999999
 30
0.0
 11
3.9837168574085
 21
65.09999999999991
 31
0.0
  0
LINE
  5
11A
330
1F
100
AcDbEntity
  8
1
  6
Continuous
 62
     3
100
AcDbLine
 10
3.9837168574085
 20
60.49999999999999
 30
0.0
 11
0.0
 21
58.19999999999998
 31
0.0
  0
LINE
  5
11B
330
1F
100
AcDbEntity
  8
1
  6
Continuous
 62
     3
100
AcDbLine
 10
0.0
 20
58.19999999999998
 30
0.0
 11
-3.98371685740841
 21
60.49999999999999
 31
0.0
  0
LINE
  5
11C
330
1F
100
AcDbEntity
  8
1
  6
Continuous
 62
     3
100
AcDbLine
 10
-3.98371685740841
 20
60.49999999999999
 30
0.0
 11
-3.98371685740841
 21
65.09999999999991
 31
0.0
  0
LINE
  5
11D
330
1F
100
AcDbEntity
  8
1
  6
Continuous
 62
     3
100
AcDbLine
 10
0.0
 20
67.39999999999989
 30
0.0
 11
3.9837168574085
 21
65.09999999999991
 31
0.0
  0
LINE
  5
11E
330
1F
100
AcDbEntity
  8
1
  6
Continuous
 62
     3
100
AcDbLine
 10
-3.98371685740841
 20
65.09999999999991
 30
0.0
 11
0.0
 21
67.39999999999989
 31
0.0
  0
LINE
  5
11F
330
1F
100
AcDbEntity
  8
1
  6
Continuous
 62
     3
100
AcDbLine
 10
-9.49999999999999
 20
64.80000000000001
 30
0.0
 11
-9.49999999999999
 21
69.07756813566459
 31
0.0
  0
LINE
  5
120
330
1F
100
AcDbEntity
  8
1
  6
Continuous
 62
     3
100
AcDbLine
 10
-6.99999999999999
 20
62.80000000000001
 30
0.0
 11
-6.99999999999999
 21
64.80000000000001
 31
0.0
  0
LINE
  5
121
330
1F
100
AcDbEntity
  8
1
  6
Continuous
 62
     3
100
AcDbLine
 10
6.99999999999999
 20
55.80000000000001
 30
0.0
 11
10.16836356753879
 21
55.80000000000001
 31
0.0
  0
LINE
  5
122
330
1F
100
AcDbEntity
  8
1
  6
Continuous
 62
     3
100
AcDbLine
 10
-9.49999999999999
 20
69.07756813566459
 30
0.0
 11
-9.49999999999999
 21
69.80000000000001
 31
0.0
  0
LINE
  5
123
330
1F
100
AcDbEntity
  8
1
  6
Continuous
 62
     3
100
AcDbLine
 10
6.99999999999999
 20
55.80000000000001
 30
0.0
 11
6.99999999999999
 21
53.30000000000001
 31
0.0
  0
LINE
  5
124
330
1F
100
AcDbEntity
  8
1
  6
Continuous
 62
     3
100
AcDbLine
 10
6.99999999999999
 20
53.30000000000001
 30
0.0
 11
2.05
 21
53.29999999999989
 31
0.0
  0
LINE
  5
125
330
1F
100
AcDbEntity
  8
1
  6
Continuous
 62
     3
100
AcDbLine
 10
17.78215754717569
 20
69.83035862121801
 30
0.0
 11
10.83770586983128
 21
70.60196436314519
 31
0.0
  0
LINE
  5
126
330
1F
100
AcDbEntity
  8
1
  6
Continuous
 62
     3
100
AcDbLine
 10
60.4280547232959
 20
66.74058701373909
 30
0.0
 11
61.6256712115117
 21
63.45016275519958
 31
0.0
  0
LINE
  5
127
330
1F
100
AcDbEntity
  8
1
  6
Continuous
 62
     3
100
AcDbLine
 10
9.67166501493649
 20
69.80000000000001
 30
0.0
 11
10.16836356753879
 21
69.80000000000001
 31
0.0
  0
LINE
  5
128
330
1F
100
AcDbEntity
  8
1
  6
Continuous
 62
     3
100
AcDbLine
 10
10.83770586983128
 20
54.99803563685489
 30
0.0
 11
17.78215754717569
 21
55.76964137878198
 31
0.0
  0
LINE
  5
129
330
1F
100
AcDbEntity
  8
1
  6
Continuous
 62
     3
100
AcDbLine
 10
61.6256712115117
 20
62.1498372448004
 30
0.0
 11
60.4280547232959
 21
58.8594129862609
 31
0.0
  0
LINE
  5
12A
102
{ACAD_REACTORS
330
315
102
}
330
1F
100
AcDbEntity
  8
1
  6
Continuous
 62
     3
100
AcDbLine
 10
45.07708657881849
 20
62.8574267678758
 30
0.0
 11
45.705765697668
 21
61.19999999999998
 31
0.0
  0
LINE
  5
12B
102
{ACAD_REACTORS
330
315
102
}
330
1F
100
AcDbEntity
  8
1
  6
Continuous
 62
     3
100
AcDbLine
 10
47.52847059224959
 20
62.8574267678758
 30
0.0
 11
47.52847059224959
 21
61.19999999999998
 31
0.0
  0
LINE
  5
12C
102
{ACAD_REACTORS
330
315
102
}
330
1F
100
AcDbEntity
  8
1
  6
Continuous
 62
     3
100
AcDbLine
 10
47.3059217637593
 20
62.8574267678758
 30
0.0
 11
47.52847059224959
 21
62.8574267678758
 31
0.0
  0
LINE
  5
12D
102
{ACAD_REACTORS
330
315
102
}
330
1F
100
AcDbEntity
  8
1
  6
Continuous
 62
     3
100
AcDbLine
 10
44.85923473966369
 20
62.8574267678758
 30
0.0
 11
45.07708657881849
 21
62.8574267678758
 31
0.0
  0
LINE
  5
12E
102
{ACAD_REACTORS
330
313
102
}
330
1F
100
AcDbEntity
  8
1
  6
Continuous
 62
     3
100
AcDbLine
 10
53.4792614350969
 20
62.7574940918663
 30
0.0
 11
53.4792614350969
 21
61.19999999999998
 31
0.0
  0
LINE
  5
12F
102
{ACAD_REACTORS
330
313
102
}
330
1F
100
AcDbEntity
  8
1
  6
Continuous
 62
     3
100
AcDbLine
 10
53.4792614350969
 20
61.19999999999998
 30
0.0
 11
54.31376224699119
 21
61.19999999999998
 31
0.0
  0
LINE
  5
130
102
{ACAD_REACTORS
330
313
102
}
330
1F
100
AcDbEntity
  8
1
  6
Continuous
 62
     3
100
AcDbLine
 10
54.31376224699119
 20
62.7574940918663
 30
0.0
 11
54.31376224699119
 21
61.19999999999998
 31
0.0
  0
LINE
  5
131
102
{ACAD_REACTORS
330
313
102
}
330
1F
100
AcDbEntity
  8
1
  6
Continuous
 62
     3
100
AcDbLine
 10
53.4792614350969
 20
62.7574940918663
 30
0.0
 11
54.31376224699119
 21
62.7574940918663
 31
0.0
  0
LINE
  5
132
102
{ACAD_REACTORS
330
314
102
}
330
1F
100
AcDbEntity
  8
1
  6
Continuous
 62
     3
100
AcDbLine
 10
51.34996627281308
 20
61.8676562088238
 30
0.0
 11
50.1396100144988
 21
61.8676562088238
 31
0.0
  0
LINE
  5
133
102
{ACAD_REACTORS
330
314
102
}
330
1F
100
AcDbEntity
  8
1
  6
Continuous
 62
     3
100
AcDbLine
 10
50.76899526882229
 20
62.83594121547528
 30
0.0
 11
51.34996627281308
 21
61.8676562088238
 31
0.0
  0
LINE
  5
134
102
{ACAD_REACTORS
330
314
102
}
330
1F
100
AcDbEntity
  8
1
  6
Continuous
 62
     3
100
AcDbLine
 10
50.1396100144988
 20
61.8676562088238
 30
0.0
 11
50.76899526882229
 21
62.83594121547528
 31
0.0
  0
LINE
  5
135
102
{ACAD_REACTORS
330
314
102
}
330
1F
100
AcDbEntity
  8
1
  6
Continuous
 62
     3
100
AcDbLine
 10
49.14711965437908
 20
61.19999999999998
 30
0.0
 11
49.70563347876327
 21
61.19999999999998
 31
0.0
  0
LINE
  5
136
102
{ACAD_REACTORS
330
314
102
}
330
1F
100
AcDbEntity
  8
1
  6
Continuous
 62
     3
100
AcDbLine
 10
49.70563347876327
 20
61.19999999999998
 30
0.0
 11
49.99483079075208
 21
61.64491894152129
 31
0.0
  0
LINE
  5
137
102
{ACAD_REACTORS
330
314
102
}
330
1F
100
AcDbEntity
  8
1
  6
Continuous
 62
     3
100
AcDbLine
 10
49.99483079075208
 20
61.64491894152129
 30
0.0
 11
51.48360863319459
 21
61.64491894152129
 31
0.0
  0
LINE
  5
138
102
{ACAD_REACTORS
330
314
102
}
330
1F
100
AcDbEntity
  8
1
  6
Continuous
 62
     3
100
AcDbLine
 10
51.48360863319459
 20
61.64491894152129
 30
0.0
 11
51.75055999810738
 21
61.19999999999998
 31
0.0
  0
LINE
  5
139
102
{ACAD_REACTORS
330
314
102
}
330
1F
100
AcDbEntity
  8
1
  6
Continuous
 62
     3
100
AcDbLine
 10
51.75055999810738
 20
61.19999999999998
 30
0.0
 11
52.76135316818619
 21
61.19999999999998
 31
0.0
  0
LINE
  5
13A
102
{ACAD_REACTORS
330
314
102
}
330
1F
100
AcDbEntity
  8
1
  6
Continuous
 62
     3
100
AcDbLine
 10
51.59327426876769
 20
63.14679816569758
 30
0.0
 11
52.76135316818619
 21
61.19999999999998
 31
0.0
  0
LINE
  5
13B
102
{ACAD_REACTORS
330
314
102
}
330
1F
100
AcDbEntity
  8
1
  6
Continuous
 62
     3
100
AcDbLine
 10
50.41253846208238
 20
63.14679816569758
 30
0.0
 11
51.59327426876769
 21
63.14679816569758
 31
0.0
  0
LINE
  5
13C
102
{ACAD_REACTORS
330
314
102
}
330
1F
100
AcDbEntity
  8
1
  6
Continuous
 62
     3
100
AcDbLine
 10
49.14711965437908
 20
61.19999999999998
 30
0.0
 11
50.41253846208238
 21
63.14679816569758
 31
0.0
  0
LINE
  5
13D
102
{ACAD_REACTORS
330
315
102
}
330
1F
100
AcDbEntity
  8
1
  6
Continuous
 62
     3
100
AcDbLine
 10
44.35842313391029
 20
63.14679816569758
 30
0.0
 11
44.35842313391029
 21
61.19999999999998
 31
0.0
  0
LINE
  5
13E
102
{ACAD_REACTORS
330
315
102
}
330
1F
100
AcDbEntity
  8
1
  6
Continuous
 62
     3
100
AcDbLine
 10
44.35842313391029
 20
61.19999999999998
 30
0.0
 11
44.85923473966369
 21
61.19999999999998
 31
0.0
  0
LINE
  5
13F
102
{ACAD_REACTORS
330
315
102
}
330
1F
100
AcDbEntity
  8
1
  6
Continuous
 62
     3
100
AcDbLine
 10
44.85923473966369
 20
61.19999999999998
 30
0.0
 11
44.85923473966369
 21
62.8574267678758
 31
0.0
  0
LINE
  5
140
102
{ACAD_REACTORS
330
315
102
}
330
1F
100
AcDbEntity
  8
1
  6
Continuous
 62
     3
100
AcDbLine
 10
45.705765697668
 20
61.19999999999998
 30
0.0
 11
46.73439529207789
 21
61.19999999999998
 31
0.0
  0
LINE
  5
141
102
{ACAD_REACTORS
330
315
102
}
330
1F
100
AcDbEntity
  8
1
  6
Continuous
 62
     3
100
AcDbLine
 10
46.73439529207789
 20
61.19999999999998
 30
0.0
 11
47.3059217637593
 21
62.8574267678758
 31
0.0
  0
LINE
  5
142
102
{ACAD_REACTORS
330
315
102
}
330
1F
100
AcDbEntity
  8
1
  6
Continuous
 62
     3
100
AcDbLine
 10
47.52847059224959
 20
61.19999999999998
 30
0.0
 11
48.36297140414388
 21
61.19999999999998
 31
0.0
  0
LINE
  5
143
102
{ACAD_REACTORS
330
315
102
}
330
1F
100
AcDbEntity
  8
1
  6
Continuous
 62
     3
100
AcDbLine
 10
48.36297140414388
 20
63.14679816569758
 30
0.0
 11
48.36297140414388
 21
61.19999999999998
 31
0.0
  0
LINE
  5
144
102
{ACAD_REACTORS
330
315
102
}
330
1F
100
AcDbEntity
  8
1
  6
Continuous
 62
     3
100
AcDbLine
 10
46.87992552339458
 20
63.14679816569758
 30
0.0
 11
48.36297140414388
 21
63.14679816569758
 31
0.0
  0
LINE
  5
145
102
{ACAD_REACTORS
330
315
102
}
330
1F
100
AcDbEntity
  8
1
  6
Continuous
 62
     3
100
AcDbLine
 10
46.87992552339458
 20
63.14679816569758
 30
0.0
 11
46.3606972690271
 21
61.48526775172149
 31
0.0
  0
LINE
  5
146
102
{ACAD_REACTORS
330
315
102
}
330
1F
100
AcDbEntity
  8
1
  6
Continuous
 62
     3
100
AcDbLine
 10
46.3606972690271
 20
61.48526775172149
 30
0.0
 11
45.84146901465959
 21
63.14679816569758
 31
0.0
  0
LINE
  5
147
102
{ACAD_REACTORS
330
315
102
}
330
1F
100
AcDbEntity
  8
1
  6
Continuous
 62
     3
100
AcDbLine
 10
44.35842313391029
 20
63.14679816569758
 30
0.0
 11
45.84146901465959
 21
63.14679816569758
 31
0.0
  0
LINE
  5
148
102
{ACAD_REACTORS
330
316
102
}
330
1F
100
AcDbEntity
  8
1
  6
Continuous
 62
     3
100
AcDbLine
 10
41.01877171331228
 20
61.8676562088238
 30
0.0
 11
41.6481569676358
 21
62.83594121547528
 31
0.0
  0
LINE
  5
149
102
{ACAD_REACTORS
330
316
102
}
330
1F
100
AcDbEntity
  8
1
  6
Continuous
 62
     3
100
AcDbLine
 10
42.22912797162658
 20
61.8676562088238
 30
0.0
 11
41.01877171331228
 21
61.8676562088238
 31
0.0
  0
LINE
  5
14A
102
{ACAD_REACTORS
330
316
102
}
330
1F
100
AcDbEntity
  8
1
  6
Continuous
 62
     3
100
AcDbLine
 10
41.6481569676358
 20
62.83594121547528
 30
0.0
 11
42.22912797162658
 21
61.8676562088238
 31
0.0
  0
LINE
  5
14B
102
{ACAD_REACTORS
330
316
102
}
330
1F
100
AcDbEntity
  8
1
  6
Continuous
 62
     3
100
AcDbLine
 10
40.0262813531925
 20
61.19999999999998
 30
0.0
 11
41.29170016089589
 21
63.14679816569758
 31
0.0
  0
LINE
  5
14C
102
{ACAD_REACTORS
330
316
102
}
330
1F
100
AcDbEntity
  8
1
  6
Continuous
 62
     3
100
AcDbLine
 10
40.0262813531925
 20
61.19999999999998
 30
0.0
 11
40.58479517757678
 21
61.19999999999998
 31
0.0
  0
LINE
  5
14D
102
{ACAD_REACTORS
330
316
102
}
330
1F
100
AcDbEntity
  8
1
  6
Continuous
 62
     3
100
AcDbLine
 10
40.58479517757678
 20
61.19999999999998
 30
0.0
 11
40.87399248956569
 21
61.64491894152129
 31
0.0
  0
LINE
  5
14E
102
{ACAD_REACTORS
330
316
102
}
330
1F
100
AcDbEntity
  8
1
  6
Continuous
 62
     3
100
AcDbLine
 10
40.87399248956569
 20
61.64491894152129
 30
0.0
 11
42.36277033200818
 21
61.64491894152129
 31
0.0
  0
LINE
  5
14F
102
{ACAD_REACTORS
330
316
102
}
330
1F
100
AcDbEntity
  8
1
  6
Continuous
 62
     3
100
AcDbLine
 10
42.36277033200818
 20
61.64491894152129
 30
0.0
 11
42.629721696921
 21
61.19999999999998
 31
0.0
  0
LINE
  5
150
102
{ACAD_REACTORS
330
316
102
}
330
1F
100
AcDbEntity
  8
1
  6
Continuous
 62
     3
100
AcDbLine
 10
42.629721696921
 20
61.19999999999998
 30
0.0
 11
43.64051486699969
 21
61.19999999999998
 31
0.0
  0
LINE
  5
151
102
{ACAD_REACTORS
330
316
102
}
330
1F
100
AcDbEntity
  8
1
  6
Continuous
 62
     3
100
AcDbLine
 10
42.47243596758128
 20
63.14679816569758
 30
0.0
 11
43.64051486699969
 21
61.19999999999998
 31
0.0
  0
LINE
  5
152
102
{ACAD_REACTORS
330
316
102
}
330
1F
100
AcDbEntity
  8
1
  6
Continuous
 62
     3
100
AcDbLine
 10
41.29170016089589
 20
63.14679816569758
 30
0.0
 11
42.47243596758128
 21
63.14679816569758
 31
0.0
  0
LINE
  5
153
102
{ACAD_REACTORS
330
317
102
}
330
1F
100
AcDbEntity
  8
1
  6
Continuous
 62
     3
100
AcDbLine
 10
36.07180784807628
 20
63.14679816569758
 30
0.0
 11
36.07180784807628
 21
61.19999999999998
 31
0.0
  0
LINE
  5
154
102
{ACAD_REACTORS
330
317
102
}
330
1F
100
AcDbEntity
  8
1
  6
Continuous
 62
     3
100
AcDbLine
 10
36.07180784807628
 20
61.19999999999998
 30
0.0
 11
36.90630865997068
 21
61.19999999999998
 31
0.0
  0
LINE
  5
155
102
{ACAD_REACTORS
330
317
102
}
330
1F
100
AcDbEntity
  8
1
  6
Continuous
 62
     3
100
AcDbLine
 10
36.90630865997068
 20
61.19999999999998
 30
0.0
 11
36.90630865997068
 21
62.0342230153524
 31
0.0
  0
LINE
  5
156
102
{ACAD_REACTORS
330
317
102
}
330
1F
100
AcDbEntity
  8
1
  6
Continuous
 62
     3
100
AcDbLine
 10
36.90630865997068
 20
62.0342230153524
 30
0.0
 11
38.40763229106309
 21
62.0342230153524
 31
0.0
  0
LINE
  5
157
102
{ACAD_REACTORS
330
317
102
}
330
1F
100
AcDbEntity
  8
1
  6
Continuous
 62
     3
100
AcDbLine
 10
38.40763229106309
 20
62.0342230153524
 30
0.0
 11
38.40763229106309
 21
61.19999999999998
 31
0.0
  0
LINE
  5
158
102
{ACAD_REACTORS
330
317
102
}
330
1F
100
AcDbEntity
  8
1
  6
Continuous
 62
     3
100
AcDbLine
 10
38.40763229106309
 20
61.19999999999998
 30
0.0
 11
39.24213310295738
 21
61.19999999999998
 31
0.0
  0
LINE
  5
159
102
{ACAD_REACTORS
330
317
102
}
330
1F
100
AcDbEntity
  8
1
  6
Continuous
 62
     3
100
AcDbLine
 10
39.24213310295738
 20
63.14679816569758
 30
0.0
 11
39.24213310295738
 21
61.19999999999998
 31
0.0
  0
LINE
  5
15A
102
{ACAD_REACTORS
330
317
102
}
330
1F
100
AcDbEntity
  8
1
  6
Continuous
 62
     3
100
AcDbLine
 10
38.40763229106309
 20
63.14679816569758
 30
0.0
 11
39.24213310295738
 21
63.14679816569758
 31
0.0
  0
LINE
  5
15B
102
{ACAD_REACTORS
330
317
102
}
330
1F
100
AcDbEntity
  8
1
  6
Continuous
 62
     3
100
AcDbLine
 10
38.40763229106309
 20
63.14679816569758
 30
0.0
 11
38.40763229106309
 21
62.31257515034511
 31
0.0
  0
LINE
  5
15C
102
{ACAD_REACTORS
330
317
102
}
330
1F
100
AcDbEntity
  8
1
  6
Continuous
 62
     3
100
AcDbLine
 10
36.90630865997068
 20
62.31257515034511
 30
0.0
 11
38.40763229106309
 21
62.31257515034511
 31
0.0
  0
LINE
  5
15D
102
{ACAD_REACTORS
330
317
102
}
330
1F
100
AcDbEntity
  8
1
  6
Continuous
 62
     3
100
AcDbLine
 10
36.90630865997068
 20
62.31257515034511
 30
0.0
 11
36.90630865997068
 21
63.14679816569758
 31
0.0
  0
LINE
  5
15E
102
{ACAD_REACTORS
330
317
102
}
330
1F
100
AcDbEntity
  8
1
  6
Continuous
 62
     3
100
AcDbLine
 10
36.07180784807628
 20
63.14679816569758
 30
0.0
 11
36.90630865997068
 21
63.14679816569758
 31
0.0
  0
LINE
  5
15F
102
{ACAD_REACTORS
330
318
102
}
330
1F
100
AcDbEntity
  8
1
  6
Continuous
 62
     3
100
AcDbLine
 10
33.37435830105939
 20
64.655446106315
 30
0.0
 11
33.37435830105939
 21
61.19999999999998
 31
0.0
  0
LINE
  5
160
102
{ACAD_REACTORS
330
318
102
}
330
1F
100
AcDbEntity
  8
1
  6
Continuous
 62
     3
100
AcDbLine
 10
34.67015059092748
 20
64.655446106315
 30
0.0
 11
33.37435830105939
 21
64.655446106315
 31
0.0
  0
LINE
  5
161
102
{ACAD_REACTORS
330
318
102
}
330
1F
100
AcDbEntity
  8
1
  6
Continuous
 62
     3
100
AcDbLine
 10
34.67015059092748
 20
64.655446106315
 30
0.0
 11
34.67015059092748
 21
61.19999999999998
 31
0.0
  0
LINE
  5
162
102
{ACAD_REACTORS
330
318
102
}
330
1F
100
AcDbEntity
  8
1
  6
Continuous
 62
     3
100
AcDbLine
 10
34.67015059092748
 20
61.19999999999998
 30
0.0
 11
33.37435830105939
 21
61.19999999999998
 31
0.0
  0
LINE
  5
163
102
{ACAD_REACTORS
330
319
102
}
330
1F
100
AcDbEntity
  8
1
  6
Continuous
 62
     3
100
AcDbLine
 10
30.78277372132308
 20
64.655446106315
 30
0.0
 11
30.78277372132308
 21
61.19999999999998
 31
0.0
  0
LINE
  5
164
102
{ACAD_REACTORS
330
319
102
}
330
1F
100
AcDbEntity
  8
1
  6
Continuous
 62
     3
100
AcDbLine
 10
29.48698143145499
 20
61.19999999999998
 30
0.0
 11
30.78277372132308
 21
61.19999999999998
 31
0.0
  0
LINE
  5
165
102
{ACAD_REACTORS
330
319
102
}
330
1F
100
AcDbEntity
  8
1
  6
Continuous
 62
     3
100
AcDbLine
 10
29.48698143145499
 20
64.655446106315
 30
0.0
 11
29.48698143145499
 21
61.19999999999998
 31
0.0
  0
LINE
  5
166
102
{ACAD_REACTORS
330
319
102
}
330
1F
100
AcDbEntity
  8
1
  6
Continuous
 62
     3
100
AcDbLine
 10
29.48698143145499
 20
64.655446106315
 30
0.0
 11
30.78277372132308
 21
64.655446106315
 31
0.0
  0
LINE
  5
167
102
{ACAD_REACTORS
330
31A
102
}
330
1F
100
AcDbEntity
  8
1
  6
Continuous
 62
     3
100
AcDbLine
 10
31.43066986625719
 20
64.655446106315
 30
0.0
 11
31.43066986625719
 21
61.19999999999998
 31
0.0
  0
LINE
  5
168
102
{ACAD_REACTORS
330
31A
102
}
330
1F
100
AcDbEntity
  8
1
  6
Continuous
 62
     3
100
AcDbLine
 10
32.72646215612529
 20
64.655446106315
 30
0.0
 11
31.43066986625719
 21
64.655446106315
 31
0.0
  0
LINE
  5
169
102
{ACAD_REACTORS
330
31A
102
}
330
1F
100
AcDbEntity
  8
1
  6
Continuous
 62
     3
100
AcDbLine
 10
32.72646215612529
 20
64.655446106315
 30
0.0
 11
32.72646215612529
 21
61.19999999999998
 31
0.0
  0
LINE
  5
16A
102
{ACAD_REACTORS
330
31A
102
}
330
1F
100
AcDbEntity
  8
1
  6
Continuous
 62
     3
100
AcDbLine
 10
32.72646215612529
 20
61.19999999999998
 30
0.0
 11
31.43066986625719
 21
61.19999999999998
 31
0.0
  0
LINE
  5
16B
102
{ACAD_REACTORS
330
31B
102
}
330
1F
100
AcDbEntity
  8
1
  6
Continuous
 62
     3
100
AcDbLine
 10
24.99926550748879
 20
67.76616627262601
 30
0.0
 11
25.20986461693668
 21
65.6988851034618
 31
0.0
  0
LINE
  5
16C
102
{ACAD_REACTORS
330
31B
102
}
330
1F
100
AcDbEntity
  8
1
  6
Continuous
 62
     3
100
AcDbLine
 10
25.20986461693668
 20
65.6988851034618
 30
0.0
 11
26.42997810759049
 21
66.0691710837767
 31
0.0
  0
LINE
  5
16D
102
{ACAD_REACTORS
330
31B
102
}
330
1F
100
AcDbEntity
  8
1
  6
Continuous
 62
     3
100
AcDbLine
 10
26.42997810759049
 20
66.0691710837767
 30
0.0
 11
24.99926550748879
 21
67.76616627262601
 31
0.0
  0
LINE
  5
16E
102
{ACAD_REACTORS
330
31C
102
}
330
1F
100
AcDbEntity
  8
1
  6
Continuous
 62
     3
100
AcDbLine
 10
25.20986461693668
 20
59.90111489653818
 30
0.0
 11
24.99926550748879
 21
57.83383372737398
 31
0.0
  0
LINE
  5
16F
102
{ACAD_REACTORS
330
31C
102
}
330
1F
100
AcDbEntity
  8
1
  6
Continuous
 62
     3
100
AcDbLine
 10
26.42997810759049
 20
59.53082891622329
 30
0.0
 11
25.20986461693668
 21
59.90111489653818
 31
0.0
  0
LINE
  5
170
102
{ACAD_REACTORS
330
31C
102
}
330
1F
100
AcDbEntity
  8
1
  6
Continuous
 62
     3
100
AcDbLine
 10
24.99926550748879
 20
57.83383372737398
 30
0.0
 11
26.42997810759049
 21
59.53082891622329
 31
0.0
  0
LINE
  5
171
330
1F
100
AcDbEntity
  8
1
  6
Continuous
 62
     3
100
AcDbLine
 10
18.44485928582689
 20
68.1733247278211
 30
0.0
 11
17.84031274854389
 21
67.54894530856501
 31
0.0
  0
LINE
  5
172
330
1F
100
AcDbEntity
  8
1
  6
Continuous
 62
     3
100
AcDbLine
 10
2.05
 20
53.29999999999989
 30
0.0
 11
2.05
 21
53.05000000000001
 31
0.0
  0
LINE
  5
173
330
1F
100
AcDbEntity
  8
1
  6
Continuous
 62
     3
100
AcDbLine
 10
-49.13825358721509
 20
23.29857365081921
 30
0.0
 11
-48.99682723803429
 21
23.44
 31
0.0
  0
LINE
  5
174
330
1F
100
AcDbEntity
  8
1
  6
Continuous
 62
     3
100
AcDbLine
 10
-44.99982723803429
 20
23.30000000000001
 30
0.0
 11
-44.99982723803429
 21
23.44
 31
0.0
  0
LINE
  5
175
330
1F
100
AcDbEntity
  8
1
  6
Continuous
 62
     3
100
AcDbLine
 10
-48.99382723803427
 20
23.44
 30
0.0
 11
-48.99382723803427
 21
23.30000000000001
 31
0.0
  0
LINE
  5
176
330
1F
100
AcDbEntity
  8
1
  6
Continuous
 62
     3
100
AcDbLine
 10
-44.99682723803429
 20
23.44
 30
0.0
 11
-44.85682723803431
 21
23.30000000000001
 31
0.0
  0
LINE
  5
177
330
1F
100
AcDbEntity
  8
1
  6
Continuous
 62
     3
100
AcDbLine
 10
-48.99682723803429
 20
23.44
 30
0.0
 11
-44.99982723803429
 21
23.44
 31
0.0
  0
LINE
  5
178
330
1F
100
AcDbEntity
  8
1
  6
Continuous
 62
     3
100
AcDbLine
 10
-39.99682723803429
 20
18.64462544319741
 30
0.0
 11
-39.99682723803429
 21
16.80000000000001
 31
0.0
  0
LINE
  5
179
330
1F
100
AcDbEntity
  8
1
  6
Continuous
 62
     3
100
AcDbLine
 10
-52.58260889278786
 20
41.30000000000001
 30
0.0
 11
-53.36784110227913
 21
41.30000000000001
 31
0.0
  0
LINE
  5
17A
330
1F
100
AcDbEntity
  8
1
  6
Continuous
 62
     3
100
AcDbLine
 10
-40.62581337378946
 20
41.30000000000001
 30
0.0
 11
-41.40431864874245
 21
41.30000000000001
 31
0.0
  0
LINE
  5
17B
330
1F
100
AcDbEntity
  8
1
  6
Continuous
 62
     3
100
AcDbLine
 10
-54.90178817600308
 20
20.87107236307352
 30
0.0
 11
-54.03153135040105
 21
39.83553625570471
 31
0.0
  0
LINE
  5
17C
330
1F
100
AcDbEntity
  8
1
  6
Continuous
 62
     3
100
AcDbLine
 10
-36.49682723803429
 20
-4.6904157598234
 30
0.0
 11
-36.49682723803429
 21
4.69041575982351
 31
0.0
  0
LINE
  5
17D
330
1F
100
AcDbEntity
  8
1
  6
Continuous
 62
     3
100
AcDbLine
 10
-45.80884644035228
 20
-11.43847461964828
 30
0.0
 11
-37.68480803571629
 21
-6.74805885982488
 31
0.0
  0
LINE
  5
17E
330
1F
100
AcDbEntity
  8
1
  6
Continuous
 62
     3
100
AcDbLine
 10
-56.30884644035228
 20
-6.74805885982488
 30
0.0
 11
-48.1848080357163
 21
-11.43847461964828
 31
0.0
  0
LINE
  5
17F
330
1F
100
AcDbEntity
  8
1
  6
Continuous
 62
     3
100
AcDbLine
 10
-57.4968272380343
 20
4.69041575982342
 30
0.0
 11
-57.4968272380343
 21
-4.6904157598234
 31
0.0
  0
LINE
  5
180
330
1F
100
AcDbEntity
  8
1
  6
Continuous
 62
     3
100
AcDbLine
 10
-48.18480803571637
 20
11.4384746196483
 30
0.0
 11
-56.30884644035228
 21
6.74805885982491
 31
0.0
  0
LINE
  5
181
330
1F
100
AcDbEntity
  8
1
  6
DOT_CENTER
 62
     3
100
AcDbLine
 10
-46.9968272380343
 20
43.27701210231342
 30
0.0
 11
-46.9968272380343
 21
41.30000000000001
 31
0.0
  0
LINE
  5
182
330
1F
100
AcDbEntity
  8
1
  6
DOT_CENTER
 62
     3
100
AcDbLine
 10
-34.1610449815043
 20
0.0
 30
0.0
 11
-60.01739496941036
 21
0.0
 31
0.0
  0
LINE
  5
183
330
1F
100
AcDbEntity
  8
1
  6
Continuous
 62
     3
100
AcDbLine
 10
-39.74682723803429
 20
10.64433756729741
 30
0.0
 11
-36.99682723803429
 21
12.23205080756892
 31
0.0
  0
LINE
  5
184
330
1F
100
AcDbEntity
  8
1
  6
Continuous
 62
     3
100
AcDbLine
 10
-39.99682723803429
 20
10.2113248654052
 30
0.0
 11
-39.99682723803429
 21
9.12414379544731
 31
0.0
  0
LINE
  5
185
330
1F
100
AcDbEntity
  8
1
  6
Continuous
 62
     3
100
AcDbLine
 10
-45.80884644035218
 20
11.4384746196483
 30
0.0
 11
-37.68480803571629
 21
6.74805885982491
 31
0.0
  0
LINE
  5
186
330
1F
100
AcDbEntity
  8
1
  6
Continuous
 62
     3
100
AcDbLine
 10
-36.74682723803429
 20
12.66506350946111
 30
0.0
 11
-36.74682723803429
 21
15.50738749710882
 31
0.0
  0
LINE
  5
187
330
1F
100
AcDbEntity
  8
1
  6
Continuous
 62
     3
100
AcDbLine
 10
-40.13022481346906
 20
10.5
 30
0.0
 11
-40.13022481346906
 21
15.43544428430542
 31
0.0
  0
LINE
  5
188
330
1F
100
AcDbEntity
  8
1
  6
Continuous
 62
     3
100
AcDbLine
 10
-56.9968272380343
 20
12.23205080756892
 30
0.0
 11
-54.2468272380343
 21
10.64433756729741
 31
0.0
  0
LINE
  5
189
330
1F
100
AcDbEntity
  8
1
  6
Continuous
 62
     3
100
AcDbLine
 10
-57.2468272380343
 20
15.50738749710882
 30
0.0
 11
-57.2468272380343
 21
12.66506350946111
 31
0.0
  0
LINE
  5
18A
330
1F
100
AcDbEntity
  8
1
  6
Continuous
 62
     3
100
AcDbLine
 10
-53.9968272380343
 20
8.0829037686548
 30
0.0
 11
-53.9968272380343
 21
9.12414379544731
 31
0.0
  0
LINE
  5
18B
330
1F
100
AcDbEntity
  8
1
  6
Continuous
 62
     3
100
AcDbLine
 10
-39.99682723803429
 20
9.12414379544731
 30
0.0
 11
-39.99682723803429
 21
8.0829037686548
 31
0.0
  0
LINE
  5
18C
330
1F
100
AcDbEntity
  8
1
  6
Continuous
 62
     3
100
AcDbLine
 10
-53.9968272380343
 20
9.12414379544731
 30
0.0
 11
-53.9968272380343
 21
10.2113248654052
 31
0.0
  0
LINE
  5
18D
330
1F
100
AcDbEntity
  8
1
  6
Continuous
 62
     3
100
AcDbLine
 10
-41.49682723803428
 20
16.0
 30
0.0
 11
-41.49682723803428
 21
16.80000000000001
 31
0.0
  0
LINE
  5
18E
330
1F
100
AcDbEntity
  8
1
  6
Continuous
 62
     3
100
AcDbLine
 10
-51.59682723803428
 20
18.80000000000001
 30
0.0
 11
-51.59682723803428
 21
20.10000000000002
 31
0.0
  0
LINE
  5
18F
330
1F
100
AcDbEntity
  8
1
  6
Continuous
 62
     3
100
AcDbLine
 10
-42.39682723803428
 20
20.10000000000002
 30
0.0
 11
-42.39682723803428
 21
18.80000000000001
 31
0.0
  0
LINE
  5
190
330
1F
100
AcDbEntity
  8
1
  6
Continuous
 62
     3
100
AcDbLine
 10
-51.59682723803428
 20
20.10000000000002
 30
0.0
 11
-50.29682723803437
 21
20.10000000000002
 31
0.0
  0
LINE
  5
191
330
1F
100
AcDbEntity
  8
1
  6
Continuous
 62
     3
100
AcDbLine
 10
-53.9968272380343
 20
12.80000000000001
 30
0.0
 11
-48.9968272380343
 21
12.80000000000001
 31
0.0
  0
LINE
  5
192
330
1F
100
AcDbEntity
  8
1
  6
Continuous
 62
     3
100
AcDbLine
 10
-53.86342966259953
 20
12.80000000000001
 30
0.0
 11
-53.86342966259953
 21
10.5
 31
0.0
  0
LINE
  5
193
330
1F
100
AcDbEntity
  8
1
  6
Continuous
 62
     3
100
AcDbLine
 10
-53.9968272380343
 20
12.80000000000001
 30
0.0
 11
-53.9968272380343
 21
18.0
 31
0.0
  0
LINE
  5
194
330
1F
100
AcDbEntity
  8
1
  6
Continuous
 62
     3
100
AcDbLine
 10
-48.9968272380343
 20
12.80000000000001
 30
0.0
 11
-48.9968272380343
 21
18.5
 31
0.0
  0
LINE
  5
195
330
1F
100
AcDbEntity
  8
1
  6
Continuous
 62
     3
100
AcDbLine
 10
-48.99682723803427
 20
16.80000000000001
 30
0.0
 11
-41.49682723803428
 21
16.80000000000001
 31
0.0
  0
LINE
  5
196
330
1F
100
AcDbEntity
  8
1
  6
Continuous
 62
     3
100
AcDbLine
 10
-39.99682723803429
 20
16.80000000000001
 30
0.0
 11
-41.49682723803428
 21
16.80000000000001
 31
0.0
  0
LINE
  5
197
330
1F
100
AcDbEntity
  8
1
  6
Continuous
 62
     3
100
AcDbLine
 10
-37.49682723803429
 20
17.80000000000001
 30
0.0
 11
-37.49682723803429
 21
16.0
 31
0.0
  0
LINE
  5
198
330
1F
100
AcDbEntity
  8
1
  6
Continuous
 62
     3
100
AcDbLine
 10
-37.49682723803429
 20
16.0
 30
0.0
 11
-37.16000314920082
 21
16.0
 31
0.0
  0
LINE
  5
199
330
1F
100
AcDbEntity
  8
1
  6
Continuous
 62
     3
100
AcDbLine
 10
-39.99682723803429
 20
16.80000000000001
 30
0.0
 11
-39.79682723803428
 21
16.80000000000001
 31
0.0
  0
LINE
  5
19A
330
1F
100
AcDbEntity
  8
1
  6
Continuous
 62
     3
100
AcDbLine
 10
-39.49682723803428
 20
16.5
 30
0.0
 11
-39.49682723803428
 21
16.0
 31
0.0
  0
LINE
  5
19B
330
1F
100
AcDbEntity
  8
1
  6
Continuous
 62
     3
100
AcDbLine
 10
-56.83365132686777
 20
16.0
 30
0.0
 11
-53.9968272380343
 21
16.0
 31
0.0
  0
LINE
  5
19C
330
1F
100
AcDbEntity
  8
1
  6
Continuous
 62
     3
100
AcDbLine
 10
-48.9968272380343
 20
16.0
 30
0.0
 11
-37.49682723803429
 21
16.0
 31
0.0
  0
LINE
  5
19D
330
1F
100
AcDbEntity
  8
1
  6
Continuous
 62
     3
100
AcDbLine
 10
-48.69682723803429
 20
18.80000000000001
 30
0.0
 11
-53.19682723803429
 21
18.80000000000001
 31
0.0
  0
LINE
  5
19E
330
1F
100
AcDbEntity
  8
1
  6
Continuous
 62
     3
100
AcDbLine
 10
-40.13022481346906
 20
15.43544428430542
 30
0.0
 11
-39.98677107418246
 21
15.91423616784041
 31
0.0
  0
LINE
  5
19F
330
1F
100
AcDbEntity
  8
1
  6
DOT_CENTER
 62
     3
100
AcDbLine
 10
-46.9968272380343
 20
41.30000000000001
 30
0.0
 11
-46.9968272380343
 21
22.8958548115672
 31
0.0
  0
LINE
  5
1A0
330
1F
100
AcDbEntity
  8
1
  6
Continuous
 62
     3
100
AcDbLine
 10
-39.96212312566752
 20
39.83553625570471
 30
0.0
 11
-39.0918663000655
 21
20.87107236307352
 31
0.0
  0
LINE
  5
1A1
330
1F
100
AcDbEntity
  8
1
  6
Continuous
 62
     3
100
AcDbLine
 10
-38.49682723803429
 20
18.80000000000001
 30
0.0
 11
-40.22677664017186
 21
18.80000000000001
 31
0.0
  0
LINE
  5
1A2
330
1F
100
AcDbEntity
  8
1
  6
Continuous
 62
     3
100
AcDbLine
 10
-52.9968272380343
 20
25.23415615293001
 30
0.0
 11
-40.99682723803429
 21
25.23415615293001
 31
0.0
  0
LINE
  5
1A3
330
1F
100
AcDbEntity
  8
1
  6
Continuous
 62
     3
100
AcDbLine
 10
-52.53195235130481
 20
41.30000000000001
 30
0.0
 11
-41.46170212476377
 21
41.30000000000001
 31
0.0
  0
LINE
  5
1A4
330
1F
100
AcDbEntity
  8
1
  6
Continuous
 62
     3
100
AcDbLine
 10
-39.97136878268799
 20
23.98403511651961
 30
0.0
 11
-39.97136878268799
 21
20.0007174593843
 31
0.0
  0
LINE
  5
1A5
330
1F
100
AcDbEntity
  8
1
  6
Continuous
 62
     3
100
AcDbLine
 10
-39.97136878268799
 20
20.0007174593843
 30
0.0
 11
-39.97136878268799
 21
18.80000000000001
 31
0.0
  0
LINE
  5
1A6
330
1F
100
AcDbEntity
  8
1
  6
Continuous
 62
     3
100
AcDbLine
 10
-54.02228569338061
 20
20.0007174593843
 30
0.0
 11
-54.02228569338061
 21
23.98403511651961
 31
0.0
  0
LINE
  5
1A7
330
1F
100
AcDbEntity
  8
1
  6
Continuous
 62
     3
100
AcDbLine
 10
-54.02228569338061
 20
20.0007174593843
 30
0.0
 11
-53.99327086967416
 21
18.07534946330472
 31
0.0
  0
LINE
  5
1A8
330
1F
100
AcDbEntity
  8
1
  6
Continuous
 62
     3
100
AcDbLine
 10
-46.9968272380343
 20
22.8958548115672
 30
0.0
 11
-46.9968272380343
 21
20.50414518843272
 31
0.0
  0
LINE
  5
1A9
330
1F
100
AcDbEntity
  8
1
  6
DOT_CENTER
 62
     3
100
AcDbLine
 10
-46.9968272380343
 20
20.50414518843272
 30
0.0
 11
-46.9968272380343
 21
18.80000000000001
 31
0.0
  0
LINE
  5
1AA
330
1F
100
AcDbEntity
  8
1
  6
Continuous
 62
     3
100
AcDbLine
 10
-42.99682723803429
 20
20.50414518843272
 30
0.0
 11
-42.99682723803429
 21
22.8958548115672
 31
0.0
  0
LINE
  5
1AB
330
1F
100
AcDbEntity
  8
1
  6
Continuous
 62
     3
100
AcDbLine
 10
-21.27831216351295
 20
6.74805885982491
 30
0.0
 11
-21.27831216351295
 21
4.69041575982351
 31
0.0
  0
LINE
  5
1AC
330
1F
100
AcDbEntity
  8
1
  6
Continuous
 62
     3
100
AcDbLine
 10
-21.27831216351295
 20
-4.6904157598234
 30
0.0
 11
-21.27831216351295
 21
-6.74805885982488
 31
0.0
  0
LINE
  5
1AD
330
1F
100
AcDbEntity
  8
1
  6
Continuous
 62
     3
100
AcDbLine
 10
-21.27831216351295
 20
6.74805885982491
 30
0.0
 11
-11.99999999999999
 21
6.74805885982491
 31
0.0
  0
LINE
  5
1AE
330
1F
100
AcDbEntity
  8
1
  6
Continuous
 62
     3
100
AcDbLine
 10
-21.27831216351295
 20
-6.74805885982488
 30
0.0
 11
-11.99999999999999
 21
-6.74805885982488
 31
0.0
  0
LINE
  5
1AF
330
1F
100
AcDbEntity
  8
1
  6
Continuous
 62
     3
100
AcDbLine
 10
-21.27831216351295
 20
4.69041575982351
 30
0.0
 11
-11.69999999999999
 21
4.69041575982351
 31
0.0
  0
LINE
  5
1B0
330
1F
100
AcDbEntity
  8
1
  6
Continuous
 62
     3
100
AcDbLine
 10
-21.27831216351295
 20
-4.6904157598234
 30
0.0
 11
-11.69999999999999
 21
-4.6904157598234
 31
0.0
  0
LINE
  5
1B1
330
1F
100
AcDbEntity
  8
1
  6
Continuous
 62
     3
100
AcDbLine
 10
-10.20000000000001
 20
-5.25
 30
0.0
 11
6.69999999999999
 21
-5.25
 31
0.0
  0
LINE
  5
1B2
330
1F
100
AcDbEntity
  8
1
  6
Continuous
 62
     3
100
AcDbLine
 10
-10.79289321881343
 20
10.29289321881342
 30
0.0
 11
-11.85355339059326
 21
11.35355339059331
 31
0.0
  0
LINE
  5
1B3
330
1F
100
AcDbEntity
  8
1
  6
Continuous
 62
     3
100
AcDbLine
 10
6.99999999999999
 20
11.2114304858212
 30
0.0
 11
6.99999999999999
 21
5.55
 31
0.0
  0
LINE
  5
1B4
330
1F
100
AcDbEntity
  8
1
  6
Continuous
 62
     3
100
AcDbLine
 10
6.69999999999999
 20
5.25
 30
0.0
 11
-10.19999999999999
 21
5.25
 31
0.0
  0
LINE
  5
1B5
330
1F
100
AcDbEntity
  8
1
  6
Continuous
 62
     3
100
AcDbLine
 10
-10.49999999999999
 20
9.79554699293817
 30
0.0
 11
-10.49999999999999
 21
5.55
 31
0.0
  0
LINE
  5
1B6
330
1F
100
AcDbEntity
  8
1
  6
Continuous
 62
     3
100
AcDbLine
 10
6.99999999999997
 20
-9.72462663420093
 30
0.0
 11
6.99999999999999
 21
-5.55
 31
0.0
  0
LINE
  5
1B7
330
1F
100
AcDbEntity
  8
1
  6
Continuous
 62
     3
100
AcDbLine
 10
-10.50000000000001
 20
-5.55
 30
0.0
 11
-10.49999999999999
 21
-9.72462663420093
 31
0.0
  0
LINE
  5
1B8
330
1F
100
AcDbEntity
  8
1
  6
Continuous
 62
     3
100
AcDbLine
 10
-11.99999999999999
 20
6.74805885982491
 30
0.0
 11
-11.99999999999999
 21
4.99041575982351
 31
0.0
  0
LINE
  5
1B9
330
1F
100
AcDbEntity
  8
1
  6
Continuous
 62
     3
100
AcDbLine
 10
-11.69999999999999
 20
4.69041575982351
 30
0.0
 11
7.19999999999999
 21
4.69041575982351
 31
0.0
  0
LINE
  5
1BA
330
1F
100
AcDbEntity
  8
1
  6
Continuous
 62
     3
100
AcDbLine
 10
7.49999999999999
 20
4.99041575982351
 30
0.0
 11
7.49999999999999
 21
11.63397459621557
 31
0.0
  0
LINE
  5
1BB
330
1F
100
AcDbEntity
  8
1
  6
Continuous
 62
     3
100
AcDbLine
 10
-11.99999999999999
 20
-6.74805885982488
 30
0.0
 11
-11.99999999999999
 21
-4.99041575982339
 31
0.0
  0
LINE
  5
1BC
330
1F
100
AcDbEntity
  8
1
  6
Continuous
 62
     3
100
AcDbLine
 10
-11.69999999999999
 20
-4.6904157598234
 30
0.0
 11
7.19999999999999
 21
-4.6904157598234
 31
0.0
  0
LINE
  5
1BD
330
1F
100
AcDbEntity
  8
1
  6
Continuous
 62
     3
100
AcDbLine
 10
7.49999999999999
 20
-4.99041575982339
 30
0.0
 11
7.49999999999999
 21
-11.47546581730462
 31
0.0
  0
LINE
  5
1BE
330
1F
100
AcDbEntity
  8
1
  6
Continuous
 62
     3
100
AcDbLine
 10
23.90117925174469
 20
65.07224317236361
 30
0.0
 11
22.20117925174469
 21
65.07224317236361
 31
0.0
  0
LINE
  5
1BF
330
1F
100
AcDbEntity
  8
1
  6
Continuous
 62
     3
100
AcDbLine
 10
21.00117925174469
 20
65.07224317236361
 30
0.0
 11
21.00117925174469
 21
66.04724317236361
 31
0.0
  0
LINE
  5
1C0
330
1F
100
AcDbEntity
  8
1
  6
Continuous
 62
     3
100
AcDbLine
 10
21.00117925174469
 20
66.04724317236361
 30
0.0
 11
21.60117925174469
 21
66.04724317236361
 31
0.0
  0
LINE
  5
1C1
330
1F
100
AcDbEntity
  8
1
  6
Continuous
 62
     3
100
AcDbLine
 10
22.20117925174469
 20
66.04724317236361
 30
0.0
 11
22.20117925174469
 21
65.07224317236361
 31
0.0
  0
LINE
  5
1C2
330
1F
100
AcDbEntity
  8
1
  6
Continuous
 62
     3
100
AcDbLine
 10
21.60117925174469
 20
65.07224317236361
 30
0.0
 11
21.60117925174469
 21
66.04724317236361
 31
0.0
  0
LINE
  5
1C3
330
1F
100
AcDbEntity
  8
1
  6
Continuous
 62
     3
100
AcDbLine
 10
22.20117925174469
 20
67.2472431723636
 30
0.0
 11
22.20117925174469
 21
66.2722431723636
 31
0.0
  0
LINE
  5
1C4
330
1F
100
AcDbEntity
  8
1
  6
Continuous
 62
     3
100
AcDbLine
 10
22.20117925174469
 20
66.2722431723636
 30
0.0
 11
21.60117925174469
 21
66.2722431723636
 31
0.0
  0
LINE
  5
1C5
330
1F
100
AcDbEntity
  8
1
  6
Continuous
 62
     3
100
AcDbLine
 10
21.00117925174469
 20
66.2722431723636
 30
0.0
 11
21.00117925174469
 21
67.2472431723636
 31
0.0
  0
LINE
  5
1C6
330
1F
100
AcDbEntity
  8
1
  6
Continuous
 62
     3
100
AcDbLine
 10
21.00117925174469
 20
67.2472431723636
 30
0.0
 11
21.60117925174469
 21
67.2472431723636
 31
0.0
  0
LINE
  5
1C7
330
1F
100
AcDbEntity
  8
1
  6
Continuous
 62
     3
100
AcDbLine
 10
23.90117925174469
 20
67.2472431723636
 30
0.0
 11
23.70117925174469
 21
66.72224317236359
 31
0.0
  0
LINE
  5
1C8
330
1F
100
AcDbEntity
  8
1
  6
Continuous
 62
     3
100
AcDbLine
 10
21.60117925174469
 20
66.2722431723636
 30
0.0
 11
21.60117925174469
 21
67.2472431723636
 31
0.0
  0
LINE
  5
1C9
330
1F
100
AcDbEntity
  8
1
  6
Continuous
 62
     3
100
AcDbLine
 10
22.60117925174469
 20
65.29724317236361
 30
0.0
 11
22.60117925174469
 21
67.0222431723636
 31
0.0
  0
LINE
  5
1CA
330
1F
100
AcDbEntity
  8
1
  6
Continuous
 62
     3
100
AcDbLine
 10
22.30117925174469
 20
66.42224317236361
 30
0.0
 11
22.60117925174469
 21
66.42224317236361
 31
0.0
  0
LINE
  5
1CB
330
1F
100
AcDbEntity
  8
1
  6
Continuous
 62
     3
100
AcDbLine
 10
23.90117925174469
 20
66.42224317236361
 30
0.0
 11
23.70117925174469
 21
65.8972431723636
 31
0.0
  0
LINE
  5
1CC
330
1F
100
AcDbEntity
  8
1
  6
Continuous
 62
     3
100
AcDbLine
 10
22.60117925174469
 20
66.42224317236361
 30
0.0
 11
23.60117925174469
 21
65.29724317236361
 31
0.0
  0
LINE
  5
1CD
330
1F
100
AcDbEntity
  8
1
  6
Continuous
 62
     3
100
AcDbLine
 10
22.60117925174469
 20
66.42224317236361
 30
0.0
 11
23.90117925174469
 21
66.42224317236361
 31
0.0
  0
LINE
  5
1CE
330
1F
100
AcDbEntity
  8
1
  6
Continuous
 62
     3
100
AcDbLine
 10
21.60117925174469
 20
67.2472431723636
 30
0.0
 11
23.90117925174469
 21
67.2472431723636
 31
0.0
  0
LINE
  5
1CF
330
1F
100
AcDbEntity
  8
1
  6
Continuous
 62
     3
100
AcDbLine
 10
21.60117925174469
 20
66.2722431723636
 30
0.0
 11
21.00117925174469
 21
66.2722431723636
 31
0.0
  0
LINE
  5
1D0
330
1F
100
AcDbEntity
  8
1
  6
Continuous
 62
     3
100
AcDbLine
 10
21.60117925174469
 20
66.04724317236361
 30
0.0
 11
22.20117925174469
 21
66.04724317236361
 31
0.0
  0
LINE
  5
1D1
330
1F
100
AcDbEntity
  8
1
  6
Continuous
 62
     3
100
AcDbLine
 10
21.60117925174469
 20
65.07224317236361
 30
0.0
 11
21.00117925174469
 21
65.07224317236361
 31
0.0
  0
LINE
  5
1D2
330
1F
100
AcDbEntity
  8
1
  6
Continuous
 62
     3
100
AcDbLine
 10
22.20117925174469
 20
65.07224317236361
 30
0.0
 11
21.60117925174469
 21
65.07224317236361
 31
0.0
  0
LINE
  5
1D3
330
1F
100
AcDbEntity
  8
1
  6
Continuous
 62
     3
100
AcDbLine
 10
23.99873502773578
 20
58.3564372164038
 30
0.0
 11
21.99873502773578
 21
58.3564372164038
 31
0.0
  0
LINE
  5
1D4
330
1F
100
AcDbEntity
  8
1
  6
Continuous
 62
     3
100
AcDbLine
 10
20.99873502773578
 20
58.3564372164038
 30
0.0
 11
20.99873502773578
 21
59.33143721640379
 31
0.0
  0
LINE
  5
1D5
330
1F
100
AcDbEntity
  8
1
  6
Continuous
 62
     3
100
AcDbLine
 10
20.99873502773578
 20
59.33143721640379
 30
0.0
 11
21.49873502773578
 21
59.33143721640379
 31
0.0
  0
LINE
  5
1D6
330
1F
100
AcDbEntity
  8
1
  6
Continuous
 62
     3
100
AcDbLine
 10
21.99873502773578
 20
59.33143721640379
 30
0.0
 11
21.99873502773578
 21
58.3564372164038
 31
0.0
  0
LINE
  5
1D7
330
1F
100
AcDbEntity
  8
1
  6
Continuous
 62
     3
100
AcDbLine
 10
21.49873502773578
 20
58.3564372164038
 30
0.0
 11
21.49873502773578
 21
59.33143721640379
 31
0.0
  0
LINE
  5
1D8
330
1F
100
AcDbEntity
  8
1
  6
Continuous
 62
     3
100
AcDbLine
 10
21.99873502773578
 20
60.5314372164038
 30
0.0
 11
21.99873502773578
 21
59.55643721640379
 31
0.0
  0
LINE
  5
1D9
330
1F
100
AcDbEntity
  8
1
  6
Continuous
 62
     3
100
AcDbLine
 10
21.99873502773578
 20
59.55643721640379
 30
0.0
 11
21.49873502773578
 21
59.55643721640379
 31
0.0
  0
LINE
  5
1DA
330
1F
100
AcDbEntity
  8
1
  6
Continuous
 62
     3
100
AcDbLine
 10
20.99873502773578
 20
59.55643721640379
 30
0.0
 11
20.99873502773578
 21
60.5314372164038
 31
0.0
  0
LINE
  5
1DB
330
1F
100
AcDbEntity
  8
1
  6
Continuous
 62
     3
100
AcDbLine
 10
20.99873502773578
 20
60.5314372164038
 30
0.0
 11
21.49873502773578
 21
60.5314372164038
 31
0.0
  0
LINE
  5
1DC
330
1F
100
AcDbEntity
  8
1
  6
Continuous
 62
     3
100
AcDbLine
 10
23.99873502773578
 20
60.5314372164038
 30
0.0
 11
23.79873502773578
 21
60.08143721640379
 31
0.0
  0
LINE
  5
1DD
330
1F
100
AcDbEntity
  8
1
  6
Continuous
 62
     3
100
AcDbLine
 10
21.49873502773578
 20
59.55643721640379
 30
0.0
 11
21.49873502773578
 21
60.5314372164038
 31
0.0
  0
LINE
  5
1DE
330
1F
100
AcDbEntity
  8
1
  6
Continuous
 62
     3
100
AcDbLine
 10
22.39873502773578
 20
58.7314372164038
 30
0.0
 11
22.39873502773578
 21
59.1064372164038
 31
0.0
  0
LINE
  5
1DF
330
1F
100
AcDbEntity
  8
1
  6
Continuous
 62
     3
100
AcDbLine
 10
22.89873502773578
 20
58.6564372164038
 30
0.0
 11
22.89873502773578
 21
60.2314372164038
 31
0.0
  0
LINE
  5
1E0
330
1F
100
AcDbEntity
  8
1
  6
Continuous
 62
     3
100
AcDbLine
 10
22.39873502773578
 20
59.1064372164038
 30
0.0
 11
22.99873502773578
 21
59.1064372164038
 31
0.0
  0
LINE
  5
1E1
330
1F
100
AcDbEntity
  8
1
  6
Continuous
 62
     3
100
AcDbLine
 10
22.99873502773578
 20
59.1064372164038
 30
0.0
 11
23.89873502773578
 21
58.88143721640379
 31
0.0
  0
LINE
  5
1E2
330
1F
100
AcDbEntity
  8
1
  6
Continuous
 62
     3
100
AcDbLine
 10
22.39873502773578
 20
59.7814372164038
 30
0.0
 11
23.89873502773578
 21
59.7814372164038
 31
0.0
  0
LINE
  5
1E3
330
1F
100
AcDbEntity
  8
1
  6
Continuous
 62
     3
100
AcDbLine
 10
22.39873502773578
 20
59.7814372164038
 30
0.0
 11
22.39873502773578
 21
60.1564372164038
 31
0.0
  0
LINE
  5
1E4
330
1F
100
AcDbEntity
  8
1
  6
Continuous
 62
     3
100
AcDbLine
 10
22.39873502773578
 20
59.1064372164038
 30
0.0
 11
22.39873502773578
 21
59.7814372164038
 31
0.0
  0
LINE
  5
1E5
330
1F
100
AcDbEntity
  8
1
  6
Continuous
 62
     3
100
AcDbLine
 10
21.49873502773578
 20
60.5314372164038
 30
0.0
 11
23.99873502773578
 21
60.5314372164038
 31
0.0
  0
LINE
  5
1E6
330
1F
100
AcDbEntity
  8
1
  6
Continuous
 62
     3
100
AcDbLine
 10
21.49873502773578
 20
59.55643721640379
 30
0.0
 11
20.99873502773578
 21
59.55643721640379
 31
0.0
  0
LINE
  5
1E7
330
1F
100
AcDbEntity
  8
1
  6
Continuous
 62
     3
100
AcDbLine
 10
21.49873502773578
 20
59.33143721640379
 30
0.0
 11
21.99873502773578
 21
59.33143721640379
 31
0.0
  0
LINE
  5
1E8
330
1F
100
AcDbEntity
  8
1
  6
Continuous
 62
     3
100
AcDbLine
 10
21.49873502773578
 20
58.3564372164038
 30
0.0
 11
20.99873502773578
 21
58.3564372164038
 31
0.0
  0
LINE
  5
1E9
330
1F
100
AcDbEntity
  8
1
  6
Continuous
 62
     3
100
AcDbLine
 10
21.99873502773578
 20
58.3564372164038
 30
0.0
 11
21.49873502773578
 21
58.3564372164038
 31
0.0
  0
LINE
  5
1EA
330
1F
100
AcDbEntity
  8
1
  6
Continuous
 62
     3
100
AcDbLine
 10
27.07831216351299
 20
-11.5
 30
0.0
 11
7.65470053837929
 21
-11.5
 31
0.0
  0
LINE
  5
1EB
330
1F
100
AcDbEntity
  8
1
  6
Continuous
 62
     3
100
AcDbLine
 10
13.99999999999999
 20
6.74805885982491
 30
0.0
 11
27.07831216351299
 21
6.74805885982491
 31
0.0
  0
LINE
  5
1EC
330
1F
100
AcDbEntity
  8
1
  6
Continuous
 62
     3
100
AcDbLine
 10
13.99999999999999
 20
6.74805885982491
 30
0.0
 11
13.99999999999999
 21
11.5
 31
0.0
  0
LINE
  5
1ED
330
1F
100
AcDbEntity
  8
1
  6
Continuous
 62
     3
100
AcDbLine
 10
13.99999999999999
 20
4.69041575982348
 30
0.0
 11
27.07831216351299
 21
4.69041575982348
 31
0.0
  0
LINE
  5
1EE
330
1F
100
AcDbEntity
  8
1
  6
Continuous
 62
     3
100
AcDbLine
 10
13.99999999999999
 20
4.69041575982348
 30
0.0
 11
13.99999999999999
 21
6.74805885982491
 31
0.0
  0
LINE
  5
1EF
330
1F
100
AcDbEntity
  8
1
  6
Continuous
 62
     3
100
AcDbLine
 10
14.0
 20
-4.69041575982342
 30
0.0
 11
27.07831216351299
 21
-4.69041575982342
 31
0.0
  0
LINE
  5
1F0
330
1F
100
AcDbEntity
  8
1
  6
Continuous
 62
     3
100
AcDbLine
 10
14.0
 20
-4.69041575982342
 30
0.0
 11
13.99999999999999
 21
4.69041575982348
 31
0.0
  0
LINE
  5
1F1
330
1F
100
AcDbEntity
  8
1
  6
Continuous
 62
     3
100
AcDbLine
 10
14.0
 20
-6.74805885982479
 30
0.0
 11
27.07831216351299
 21
-6.74805885982479
 31
0.0
  0
LINE
  5
1F2
330
1F
100
AcDbEntity
  8
1
  6
Continuous
 62
     3
100
AcDbLine
 10
14.0
 20
-6.74805885982479
 30
0.0
 11
14.0
 21
-4.69041575982342
 31
0.0
  0
LINE
  5
1F3
330
1F
100
AcDbEntity
  8
1
  6
Continuous
 62
     3
100
AcDbLine
 10
27.07831216351299
 20
6.74805885982491
 30
0.0
 11
27.07831216351299
 21
4.69041575982348
 31
0.0
  0
LINE
  5
1F4
330
1F
100
AcDbEntity
  8
1
  6
Continuous
 62
     3
100
AcDbLine
 10
27.07831216351299
 20
-4.69041575982342
 30
0.0
 11
27.07831216351299
 21
-6.74805885982479
 31
0.0
  0
LINE
  5
1F5
330
1F
100
AcDbEntity
  8
1
  6
Continuous
 62
     3
100
AcDbLine
 10
7.49999999999999
 20
4.28397314771773
 30
0.0
 11
7.49999999999999
 21
-4.32653919875213
 31
0.0
  0
LINE
  5
1F6
330
1F
100
AcDbEntity
  8
1
  6
Continuous
 62
     3
100
AcDbLine
 10
-6.99999999999996
 20
16.0
 30
0.0
 11
6.99999999999999
 21
16.0
 31
0.0
  0
LINE
  5
1F7
330
1F
100
AcDbEntity
  8
1
  6
Continuous
 62
     3
100
AcDbLine
 10
-1.74999999999997
 20
10.5
 30
0.0
 11
1.75
 21
10.5
 31
0.0
  0
LINE
  5
1F8
330
1F
100
AcDbEntity
  8
1
  6
Continuous
 62
     3
100
AcDbLine
 10
-1.74999999999997
 20
12.0
 30
0.0
 11
1.75
 21
12.0
 31
0.0
  0
LINE
  5
1F9
330
1F
100
AcDbEntity
  8
1
  6
Continuous
 62
     3
100
AcDbLine
 10
-2.04999999999997
 20
12.3
 30
0.0
 11
-2.04999999999997
 21
10.8
 31
0.0
  0
LINE
  5
1FA
330
1F
100
AcDbEntity
  8
1
  6
Continuous
 62
     3
100
AcDbLine
 10
2.05
 20
12.3
 30
0.0
 11
2.05
 21
10.8
 31
0.0
  0
LINE
  5
1FB
330
1F
100
AcDbEntity
  8
1
  6
Continuous
 62
     3
100
AcDbLine
 10
-1.74999999999997
 20
15.50738749710882
 30
0.0
 11
1.75
 21
15.50738749710882
 31
0.0
  0
LINE
  5
1FC
330
1F
100
AcDbEntity
  8
1
  6
Continuous
 62
     3
100
AcDbLine
 10
-2.04999999999997
 20
15.20738749710882
 30
0.0
 11
-2.04999999999997
 21
14.9
 31
0.0
  0
LINE
  5
1FD
330
1F
100
AcDbEntity
  8
1
  6
Continuous
 62
     3
100
AcDbLine
 10
2.05
 20
15.20738749710882
 30
0.0
 11
2.05
 21
12.3
 31
0.0
  0
LINE
  5
1FE
330
1F
100
AcDbEntity
  8
1
  6
Continuous
 62
     3
100
AcDbLine
 10
-2.04999999999997
 20
15.6
 30
0.0
 11
-2.04999999999997
 21
14.9
 31
0.0
  0
LINE
  5
1FF
330
1F
100
AcDbEntity
  8
1
  6
Continuous
 62
     3
100
AcDbLine
 10
-2.04999999999997
 20
14.9
 30
0.0
 11
-2.04999999999997
 21
12.3
 31
0.0
  0
LINE
  5
200
330
1F
100
AcDbEntity
  8
1
  6
Continuous
 62
     3
100
AcDbLine
 10
2.05
 20
15.6
 30
0.0
 11
2.05
 21
15.20738749710882
 31
0.0
  0
LINE
  5
201
330
1F
100
AcDbEntity
  8
1
  6
Continuous
 62
     3
100
AcDbLine
 10
-1.74999999999997
 20
15.9
 30
0.0
 11
1.75
 21
15.9
 31
0.0
  0
LINE
  5
202
330
1F
100
AcDbEntity
  8
1
  6
Continuous
 62
     3
100
AcDbLine
 10
-50.9968272380343
 20
22.8958548115672
 30
0.0
 11
-50.9968272380343
 21
20.50414518843272
 31
0.0
  0
LINE
  5
203
330
1F
100
AcDbEntity
  8
1
  6
Continuous
 62
     3
100
AcDbLine
 10
-50.9968272380343
 20
22.8958548115672
 30
0.0
 11
-50.29682723803418
 21
23.30000000000001
 31
0.0
  0
LINE
  5
204
330
1F
100
AcDbEntity
  8
1
  6
Continuous
 62
     3
100
AcDbLine
 10
-50.29682723803418
 20
23.30000000000001
 30
0.0
 11
-43.69682723803442
 21
23.30000000000001
 31
0.0
  0
LINE
  5
205
330
1F
100
AcDbEntity
  8
1
  6
Continuous
 62
     3
100
AcDbLine
 10
-43.69682723803442
 20
23.30000000000001
 30
0.0
 11
-42.99682723803429
 21
22.8958548115672
 31
0.0
  0
LINE
  5
206
330
1F
100
AcDbEntity
  8
1
  6
Continuous
 62
     3
100
AcDbLine
 10
-50.9968272380343
 20
20.50414518843272
 30
0.0
 11
-50.29682723803437
 21
20.10000000000002
 31
0.0
  0
LINE
  5
207
330
1F
100
AcDbEntity
  8
1
  6
Continuous
 62
     3
100
AcDbLine
 10
-43.69682723803422
 20
20.10000000000002
 30
0.0
 11
-42.99682723803429
 21
20.50414518843272
 31
0.0
  0
LINE
  5
208
330
1F
100
AcDbEntity
  8
1
  6
Continuous
 62
     3
100
AcDbLine
 10
-43.69682723803422
 20
20.10000000000002
 30
0.0
 11
-42.39682723803428
 21
20.10000000000002
 31
0.0
  0
LINE
  5
209
330
1F
100
AcDbEntity
  8
1
  6
Continuous
 62
     3
100
AcDbLine
 10
14.5808423322848
 20
-15.598809066172
 30
0.0
 11
14.5808423322848
 21
-16.911309066172
 31
0.0
  0
LINE
  5
20A
330
1F
100
AcDbEntity
  8
1
  6
Continuous
 62
     3
100
AcDbLine
 10
14.5808423322848
 20
-16.911309066172
 30
0.0
 11
16.0183423322848
 21
-16.911309066172
 31
0.0
  0
LINE
  5
20B
330
1F
100
AcDbEntity
  8
1
  6
Continuous
 62
     3
100
AcDbLine
 10
16.0183423322848
 20
-15.598809066172
 30
0.0
 11
16.0183423322848
 21
-16.911309066172
 31
0.0
  0
LINE
  5
20C
330
1F
100
AcDbEntity
  8
1
  6
Continuous
 62
     3
100
AcDbLine
 10
16.0183423322848
 20
-16.911309066172
 30
0.0
 11
16.0183423322848
 21
-18.098809066172
 31
0.0
  0
LINE
  5
20D
330
1F
100
AcDbEntity
  8
1
  6
Continuous
 62
     3
100
AcDbLine
 10
14.5808423322848
 20
-16.911309066172
 30
0.0
 11
14.5808423322848
 21
-18.098809066172
 31
0.0
  0
LINE
  5
20E
330
1F
100
AcDbEntity
  8
1
  6
Continuous
 62
     3
100
AcDbLine
 10
17.5808423322848
 20
-18.098809066172
 30
0.0
 11
17.5808423322848
 21
-15.786309066172
 31
0.0
  0
LINE
  5
20F
330
1F
100
AcDbEntity
  8
1
  6
Continuous
 62
     3
100
AcDbLine
 10
17.5808423322848
 20
-15.786309066172
 30
0.0
 11
18.5183423322848
 21
-15.786309066172
 31
0.0
  0
LINE
  5
210
330
1F
100
AcDbEntity
  8
1
  6
Continuous
 62
     3
100
AcDbLine
 10
18.5183423322848
 20
-15.786309066172
 30
0.0
 11
18.8308423322848
 21
-15.911309066172
 31
0.0
  0
LINE
  5
211
330
1F
100
AcDbEntity
  8
1
  6
Continuous
 62
     3
100
AcDbLine
 10
18.8308423322848
 20
-15.911309066172
 30
0.0
 11
18.9558423322848
 21
-16.348809066172
 31
0.0
  0
LINE
  5
212
330
1F
100
AcDbEntity
  8
1
  6
Continuous
 62
     3
100
AcDbLine
 10
18.9558423322848
 20
-16.348809066172
 30
0.0
 11
18.8308423322848
 21
-16.661309066172
 31
0.0
  0
LINE
  5
213
330
1F
100
AcDbEntity
  8
1
  6
Continuous
 62
     3
100
AcDbLine
 10
18.8308423322848
 20
-16.661309066172
 30
0.0
 11
18.5183423322848
 21
-16.911309066172
 31
0.0
  0
LINE
  5
214
330
1F
100
AcDbEntity
  8
1
  6
Continuous
 62
     3
100
AcDbLine
 10
18.5183423322848
 20
-16.911309066172
 30
0.0
 11
17.5808423322848
 21
-16.911309066172
 31
0.0
  0
LINE
  5
215
330
1F
100
AcDbEntity
  8
1
  6
Continuous
 62
     3
100
AcDbLine
 10
17.5808423322848
 20
-16.911309066172
 30
0.0
 11
18.5183423322848
 21
-16.911309066172
 31
0.0
  0
LINE
  5
216
330
1F
100
AcDbEntity
  8
1
  6
Continuous
 62
     3
100
AcDbLine
 10
18.5183423322848
 20
-16.911309066172
 30
0.0
 11
18.9558423322848
 21
-17.098809066172
 31
0.0
  0
LINE
  5
217
330
1F
100
AcDbEntity
  8
1
  6
Continuous
 62
     3
100
AcDbLine
 10
18.9558423322848
 20
-17.098809066172
 30
0.0
 11
19.0808423322848
 21
-17.536309066172
 31
0.0
  0
LINE
  5
218
330
1F
100
AcDbEntity
  8
1
  6
Continuous
 62
     3
100
AcDbLine
 10
19.0808423322848
 20
-17.536309066172
 30
0.0
 11
18.9558423322848
 21
-17.911309066172
 31
0.0
  0
LINE
  5
219
330
1F
100
AcDbEntity
  8
1
  6
Continuous
 62
     3
100
AcDbLine
 10
18.9558423322848
 20
-17.911309066172
 30
0.0
 11
18.5183423322848
 21
-18.098809066172
 31
0.0
  0
LINE
  5
21A
330
1F
100
AcDbEntity
  8
1
  6
Continuous
 62
     3
100
AcDbLine
 10
18.5183423322848
 20
-18.098809066172
 30
0.0
 11
17.5808423322848
 21
-18.098809066172
 31
0.0
  0
LINE
  5
21B
330
1F
100
AcDbEntity
  8
1
  6
Continuous
 62
     3
100
AcDbLine
 10
21.8933423322848
 20
-16.098809066172
 30
0.0
 11
21.7058423322848
 21
-15.848809066172
 31
0.0
  0
LINE
  5
21C
330
1F
100
AcDbEntity
  8
1
  6
Continuous
 62
     3
100
AcDbLine
 10
21.7058423322848
 20
-15.848809066172
 30
0.0
 11
21.4558423322848
 21
-15.661309066172
 31
0.0
  0
LINE
  5
21D
330
1F
100
AcDbEntity
  8
1
  6
Continuous
 62
     3
100
AcDbLine
 10
21.4558423322848
 20
-15.661309066172
 30
0.0
 11
21.1433423322848
 21
-15.661309066172
 31
0.0
  0
LINE
  5
21E
330
1F
100
AcDbEntity
  8
1
  6
Continuous
 62
     3
100
AcDbLine
 10
21.1433423322848
 20
-15.661309066172
 30
0.0
 11
20.8933423322848
 21
-15.661309066172
 31
0.0
  0
LINE
  5
21F
330
1F
100
AcDbEntity
  8
1
  6
Continuous
 62
     3
100
AcDbLine
 10
20.8933423322848
 20
-15.661309066172
 30
0.0
 11
20.7683423322848
 21
-15.786309066172
 31
0.0
  0
LINE
  5
220
330
1F
100
AcDbEntity
  8
1
  6
Continuous
 62
     3
100
AcDbLine
 10
20.7683423322848
 20
-15.786309066172
 30
0.0
 11
20.5183423322848
 21
-15.911309066172
 31
0.0
  0
LINE
  5
221
330
1F
100
AcDbEntity
  8
1
  6
Continuous
 62
     3
100
AcDbLine
 10
20.5183423322848
 20
-15.911309066172
 30
0.0
 11
20.4558423322848
 21
-16.161309066172
 31
0.0
  0
LINE
  5
222
330
1F
100
AcDbEntity
  8
1
  6
Continuous
 62
     3
100
AcDbLine
 10
20.4558423322848
 20
-16.161309066172
 30
0.0
 11
20.5183423322848
 21
-16.536309066172
 31
0.0
  0
LINE
  5
223
330
1F
100
AcDbEntity
  8
1
  6
Continuous
 62
     3
100
AcDbLine
 10
20.5183423322848
 20
-16.536309066172
 30
0.0
 11
20.7058423322848
 21
-16.661309066172
 31
0.0
  0
LINE
  5
224
330
1F
100
AcDbEntity
  8
1
  6
Continuous
 62
     3
100
AcDbLine
 10
20.7058423322848
 20
-16.661309066172
 30
0.0
 11
20.8308423322848
 21
-16.786309066172
 31
0.0
  0
LINE
  5
225
330
1F
100
AcDbEntity
  8
1
  6
Continuous
 62
     3
100
AcDbLine
 10
20.8308423322848
 20
-16.786309066172
 30
0.0
 11
21.1433423322848
 21
-16.848809066172
 31
0.0
  0
LINE
  5
226
330
1F
100
AcDbEntity
  8
1
  6
Continuous
 62
     3
100
AcDbLine
 10
21.1433423322848
 20
-16.848809066172
 30
0.0
 11
21.4558423322848
 21
-16.848809066172
 31
0.0
  0
LINE
  5
227
330
1F
100
AcDbEntity
  8
1
  6
Continuous
 62
     3
100
AcDbLine
 10
21.4558423322848
 20
-16.848809066172
 30
0.0
 11
21.6433423322848
 21
-16.911309066172
 31
0.0
  0
LINE
  5
228
330
1F
100
AcDbEntity
  8
1
  6
Continuous
 62
     3
100
AcDbLine
 10
21.6433423322848
 20
-16.911309066172
 30
0.0
 11
21.8933423322848
 21
-17.161309066172
 31
0.0
  0
LINE
  5
229
330
1F
100
AcDbEntity
  8
1
  6
Continuous
 62
     3
100
AcDbLine
 10
21.8933423322848
 20
-17.161309066172
 30
0.0
 11
21.9558423322848
 21
-17.536309066172
 31
0.0
  0
LINE
  5
22A
330
1F
100
AcDbEntity
  8
1
  6
Continuous
 62
     3
100
AcDbLine
 10
21.9558423322848
 20
-17.536309066172
 30
0.0
 11
21.8933423322848
 21
-17.848809066172
 31
0.0
  0
LINE
  5
22B
330
1F
100
AcDbEntity
  8
1
  6
Continuous
 62
     3
100
AcDbLine
 10
21.8933423322848
 20
-17.848809066172
 30
0.0
 11
21.6433423322848
 21
-18.036309066172
 31
0.0
  0
LINE
  5
22C
330
1F
100
AcDbEntity
  8
1
  6
Continuous
 62
     3
100
AcDbLine
 10
21.6433423322848
 20
-18.036309066172
 30
0.0
 11
21.4558423322848
 21
-18.098809066172
 31
0.0
  0
LINE
  5
22D
330
1F
100
AcDbEntity
  8
1
  6
Continuous
 62
     3
100
AcDbLine
 10
21.4558423322848
 20
-18.098809066172
 30
0.0
 11
21.1433423322848
 21
-18.098809066172
 31
0.0
  0
LINE
  5
22E
330
1F
100
AcDbEntity
  8
1
  6
Continuous
 62
     3
100
AcDbLine
 10
21.1433423322848
 20
-18.098809066172
 30
0.0
 11
20.8308423322848
 21
-18.036309066172
 31
0.0
  0
LINE
  5
22F
330
1F
100
AcDbEntity
  8
1
  6
Continuous
 62
     3
100
AcDbLine
 10
20.8308423322848
 20
-18.036309066172
 30
0.0
 11
20.6433423322848
 21
-17.848809066172
 31
0.0
  0
LINE
  5
230
330
1F
100
AcDbEntity
  8
1
  6
Continuous
 62
     3
100
AcDbLine
 10
20.6433423322848
 20
-17.848809066172
 30
0.0
 11
20.4558423322848
 21
-17.536309066172
 31
0.0
  0
LINE
  5
231
330
1F
100
AcDbEntity
  8
1
  6
Continuous
 62
     3
100
AcDbLine
 10
23.3933423322848
 20
-16.848809066172
 30
0.0
 11
24.7058423322848
 21
-16.848809066172
 31
0.0
  0
LINE
  5
232
330
1F
100
AcDbEntity
  8
1
  6
Continuous
 62
     3
100
AcDbLine
 10
26.7683423322848
 20
-15.848809066172
 30
0.0
 11
27.1433423322848
 21
-15.598809066172
 31
0.0
  0
LINE
  5
233
330
1F
100
AcDbEntity
  8
1
  6
Continuous
 62
     3
100
AcDbLine
 10
27.1433423322848
 20
-15.598809066172
 30
0.0
 11
27.1433423322848
 21
-18.098809066172
 31
0.0
  0
LINE
  5
234
330
1F
100
AcDbEntity
  8
1
  6
Continuous
 62
     3
100
AcDbLine
 10
29.9558423322848
 20
-15.598809066172
 30
0.0
 11
29.5183423322848
 21
-15.786309066172
 31
0.0
  0
LINE
  5
235
330
1F
100
AcDbEntity
  8
1
  6
Continuous
 62
     3
100
AcDbLine
 10
29.5183423322848
 20
-15.786309066172
 30
0.0
 11
29.2683423322848
 21
-16.161309066172
 31
0.0
  0
LINE
  5
236
330
1F
100
AcDbEntity
  8
1
  6
Continuous
 62
     3
100
AcDbLine
 10
29.2683423322848
 20
-16.161309066172
 30
0.0
 11
29.1433423322848
 21
-16.848809066172
 31
0.0
  0
LINE
  5
237
330
1F
100
AcDbEntity
  8
1
  6
Continuous
 62
     3
100
AcDbLine
 10
29.1433423322848
 20
-16.848809066172
 30
0.0
 11
29.2683423322848
 21
-17.536309066172
 31
0.0
  0
LINE
  5
238
330
1F
100
AcDbEntity
  8
1
  6
Continuous
 62
     3
100
AcDbLine
 10
29.2683423322848
 20
-17.536309066172
 30
0.0
 11
29.5183423322848
 21
-17.911309066172
 31
0.0
  0
LINE
  5
239
330
1F
100
AcDbEntity
  8
1
  6
Continuous
 62
     3
100
AcDbLine
 10
29.5183423322848
 20
-17.911309066172
 30
0.0
 11
29.9558423322848
 21
-18.098809066172
 31
0.0
  0
LINE
  5
23A
330
1F
100
AcDbEntity
  8
1
  6
Continuous
 62
     3
100
AcDbLine
 10
29.9558423322848
 20
-18.098809066172
 30
0.0
 11
30.3933423322848
 21
-17.911309066172
 31
0.0
  0
LINE
  5
23B
330
1F
100
AcDbEntity
  8
1
  6
Continuous
 62
     3
100
AcDbLine
 10
30.3933423322848
 20
-17.911309066172
 30
0.0
 11
30.7058423322848
 21
-17.536309066172
 31
0.0
  0
LINE
  5
23C
330
1F
100
AcDbEntity
  8
1
  6
Continuous
 62
     3
100
AcDbLine
 10
30.7058423322848
 20
-17.536309066172
 30
0.0
 11
30.7683423322848
 21
-16.848809066172
 31
0.0
  0
LINE
  5
23D
330
1F
100
AcDbEntity
  8
1
  6
Continuous
 62
     3
100
AcDbLine
 10
30.7683423322848
 20
-16.848809066172
 30
0.0
 11
30.7058423322848
 21
-16.161309066172
 31
0.0
  0
LINE
  5
23E
330
1F
100
AcDbEntity
  8
1
  6
Continuous
 62
     3
100
AcDbLine
 10
30.7058423322848
 20
-16.161309066172
 30
0.0
 11
30.3933423322848
 21
-15.786309066172
 31
0.0
  0
LINE
  5
23F
330
1F
100
AcDbEntity
  8
1
  6
Continuous
 62
     3
100
AcDbLine
 10
30.3933423322848
 20
-15.786309066172
 30
0.0
 11
29.9558423322848
 21
-15.598809066172
 31
0.0
  0
LINE
  5
240
330
1F
100
AcDbEntity
  8
1
  6
Continuous
 62
     3
100
AcDbLine
 10
33.3308423322848
 20
-18.098809066172
 30
0.0
 11
33.3308423322848
 21
-15.598809066172
 31
0.0
  0
LINE
  5
241
330
1F
100
AcDbEntity
  8
1
  6
Continuous
 62
     3
100
AcDbLine
 10
33.3308423322848
 20
-15.598809066172
 30
0.0
 11
32.0183423322848
 21
-17.536309066172
 31
0.0
  0
LINE
  5
242
330
1F
100
AcDbEntity
  8
1
  6
Continuous
 62
     3
100
AcDbLine
 10
32.0183423322848
 20
-17.536309066172
 30
0.0
 11
33.7683423322848
 21
-17.536309066172
 31
0.0
  0
LINE
  5
243
330
1F
100
AcDbEntity
  8
1
  6
Continuous
 62
     3
100
AcDbLine
 10
35.1433423322848
 20
-16.848809066172
 30
0.0
 11
36.4558423322848
 21
-16.848809066172
 31
0.0
  0
LINE
  5
244
330
1F
100
AcDbEntity
  8
1
  6
Continuous
 62
     3
100
AcDbLine
 10
38.7683423322848
 20
-15.598809066172
 30
0.0
 11
38.3308423322848
 21
-15.786309066172
 31
0.0
  0
LINE
  5
245
330
1F
100
AcDbEntity
  8
1
  6
Continuous
 62
     3
100
AcDbLine
 10
38.3308423322848
 20
-15.786309066172
 30
0.0
 11
38.0808423322848
 21
-16.161309066172
 31
0.0
  0
LINE
  5
246
330
1F
100
AcDbEntity
  8
1
  6
Continuous
 62
     3
100
AcDbLine
 10
38.0808423322848
 20
-16.161309066172
 30
0.0
 11
37.9558423322848
 21
-16.848809066172
 31
0.0
  0
LINE
  5
247
330
1F
100
AcDbEntity
  8
1
  6
Continuous
 62
     3
100
AcDbLine
 10
37.9558423322848
 20
-16.848809066172
 30
0.0
 11
38.0808423322848
 21
-17.536309066172
 31
0.0
  0
LINE
  5
248
330
1F
100
AcDbEntity
  8
1
  6
Continuous
 62
     3
100
AcDbLine
 10
38.0808423322848
 20
-17.536309066172
 30
0.0
 11
38.3308423322848
 21
-17.911309066172
 31
0.0
  0
LINE
  5
249
330
1F
100
AcDbEntity
  8
1
  6
Continuous
 62
     3
100
AcDbLine
 10
38.3308423322848
 20
-17.911309066172
 30
0.0
 11
38.7683423322848
 21
-18.098809066172
 31
0.0
  0
LINE
  5
24A
330
1F
100
AcDbEntity
  8
1
  6
Continuous
 62
     3
100
AcDbLine
 10
38.7683423322848
 20
-18.098809066172
 30
0.0
 11
39.2058423322848
 21
-17.911309066172
 31
0.0
  0
LINE
  5
24B
330
1F
100
AcDbEntity
  8
1
  6
Continuous
 62
     3
100
AcDbLine
 10
39.2058423322848
 20
-17.911309066172
 30
0.0
 11
39.5183423322848
 21
-17.536309066172
 31
0.0
  0
LINE
  5
24C
330
1F
100
AcDbEntity
  8
1
  6
Continuous
 62
     3
100
AcDbLine
 10
39.5183423322848
 20
-17.536309066172
 30
0.0
 11
39.5808423322848
 21
-16.848809066172
 31
0.0
  0
LINE
  5
24D
330
1F
100
AcDbEntity
  8
1
  6
Continuous
 62
     3
100
AcDbLine
 10
39.5808423322848
 20
-16.848809066172
 30
0.0
 11
39.5183423322848
 21
-16.161309066172
 31
0.0
  0
LINE
  5
24E
330
1F
100
AcDbEntity
  8
1
  6
Continuous
 62
     3
100
AcDbLine
 10
39.5183423322848
 20
-16.161309066172
 30
0.0
 11
39.2058423322848
 21
-15.786309066172
 31
0.0
  0
LINE
  5
24F
330
1F
100
AcDbEntity
  8
1
  6
Continuous
 62
     3
100
AcDbLine
 10
39.2058423322848
 20
-15.786309066172
 30
0.0
 11
38.7683423322848
 21
-15.598809066172
 31
0.0
  0
LINE
  5
250
330
1F
100
AcDbEntity
  8
1
  6
Continuous
 62
     3
100
AcDbLine
 10
41.7058423322848
 20
-15.598809066172
 30
0.0
 11
41.3308423322848
 21
-15.661309066172
 31
0.0
  0
LINE
  5
251
330
1F
100
AcDbEntity
  8
1
  6
Continuous
 62
     3
100
AcDbLine
 10
41.3308423322848
 20
-15.661309066172
 30
0.0
 11
41.0808423322848
 21
-15.911309066172
 31
0.0
  0
LINE
  5
252
330
1F
100
AcDbEntity
  8
1
  6
Continuous
 62
     3
100
AcDbLine
 10
41.0808423322848
 20
-15.911309066172
 30
0.0
 11
41.0183423322848
 21
-16.161309066172
 31
0.0
  0
LINE
  5
253
330
1F
100
AcDbEntity
  8
1
  6
Continuous
 62
     3
100
AcDbLine
 10
41.0183423322848
 20
-16.161309066172
 30
0.0
 11
41.0808423322848
 21
-16.411309066172
 31
0.0
  0
LINE
  5
254
330
1F
100
AcDbEntity
  8
1
  6
Continuous
 62
     3
100
AcDbLine
 10
41.0808423322848
 20
-16.411309066172
 30
0.0
 11
41.3308423322848
 21
-16.661309066172
 31
0.0
  0
LINE
  5
255
330
1F
100
AcDbEntity
  8
1
  6
Continuous
 62
     3
100
AcDbLine
 10
41.3308423322848
 20
-16.661309066172
 30
0.0
 11
41.6433423322848
 21
-16.786309066172
 31
0.0
  0
LINE
  5
256
330
1F
100
AcDbEntity
  8
1
  6
Continuous
 62
     3
100
AcDbLine
 10
41.6433423322848
 20
-16.786309066172
 30
0.0
 11
41.8308423322848
 21
-16.786309066172
 31
0.0
  0
LINE
  5
257
330
1F
100
AcDbEntity
  8
1
  6
Continuous
 62
     3
100
AcDbLine
 10
41.8308423322848
 20
-16.786309066172
 30
0.0
 11
42.1433423322848
 21
-16.848809066172
 31
0.0
  0
LINE
  5
258
330
1F
100
AcDbEntity
  8
1
  6
Continuous
 62
     3
100
AcDbLine
 10
42.1433423322848
 20
-16.848809066172
 30
0.0
 11
42.4558423322848
 21
-17.098809066172
 31
0.0
  0
LINE
  5
259
330
1F
100
AcDbEntity
  8
1
  6
Continuous
 62
     3
100
AcDbLine
 10
42.4558423322848
 20
-17.098809066172
 30
0.0
 11
42.5808423322848
 21
-17.411309066172
 31
0.0
  0
LINE
  5
25A
330
1F
100
AcDbEntity
  8
1
  6
Continuous
 62
     3
100
AcDbLine
 10
42.5808423322848
 20
-17.411309066172
 30
0.0
 11
42.4558423322848
 21
-17.848809066172
 31
0.0
  0
LINE
  5
25B
330
1F
100
AcDbEntity
  8
1
  6
Continuous
 62
     3
100
AcDbLine
 10
42.4558423322848
 20
-17.848809066172
 30
0.0
 11
42.1433423322848
 21
-18.036309066172
 31
0.0
  0
LINE
  5
25C
330
1F
100
AcDbEntity
  8
1
  6
Continuous
 62
     3
100
AcDbLine
 10
42.1433423322848
 20
-18.036309066172
 30
0.0
 11
41.7058423322848
 21
-18.098809066172
 31
0.0
  0
LINE
  5
25D
330
1F
100
AcDbEntity
  8
1
  6
Continuous
 62
     3
100
AcDbLine
 10
41.7058423322848
 20
-18.098809066172
 30
0.0
 11
41.2683423322848
 21
-18.036309066172
 31
0.0
  0
LINE
  5
25E
330
1F
100
AcDbEntity
  8
1
  6
Continuous
 62
     3
100
AcDbLine
 10
41.2683423322848
 20
-18.036309066172
 30
0.0
 11
41.0183423322848
 21
-17.848809066172
 31
0.0
  0
LINE
  5
25F
330
1F
100
AcDbEntity
  8
1
  6
Continuous
 62
     3
100
AcDbLine
 10
41.0183423322848
 20
-17.848809066172
 30
0.0
 11
40.8933423322848
 21
-17.411309066172
 31
0.0
  0
LINE
  5
260
330
1F
100
AcDbEntity
  8
1
  6
Continuous
 62
     3
100
AcDbLine
 10
40.8933423322848
 20
-17.411309066172
 30
0.0
 11
40.9558423322848
 21
-17.098809066172
 31
0.0
  0
LINE
  5
261
330
1F
100
AcDbEntity
  8
1
  6
Continuous
 62
     3
100
AcDbLine
 10
40.9558423322848
 20
-17.098809066172
 30
0.0
 11
41.2058423322848
 21
-16.911309066172
 31
0.0
  0
LINE
  5
262
330
1F
100
AcDbEntity
  8
1
  6
Continuous
 62
     3
100
AcDbLine
 10
41.2058423322848
 20
-16.911309066172
 30
0.0
 11
41.3308423322848
 21
-16.848809066172
 31
0.0
  0
LINE
  5
263
330
1F
100
AcDbEntity
  8
1
  6
Continuous
 62
     3
100
AcDbLine
 10
41.3308423322848
 20
-16.848809066172
 30
0.0
 11
41.6433423322848
 21
-16.786309066172
 31
0.0
  0
LINE
  5
264
330
1F
100
AcDbEntity
  8
1
  6
Continuous
 62
     3
100
AcDbLine
 10
41.6433423322848
 20
-16.786309066172
 30
0.0
 11
41.8308423322848
 21
-16.786309066172
 31
0.0
  0
LINE
  5
265
330
1F
100
AcDbEntity
  8
1
  6
Continuous
 62
     3
100
AcDbLine
 10
41.8308423322848
 20
-16.786309066172
 30
0.0
 11
42.1433423322848
 21
-16.661309066172
 31
0.0
  0
LINE
  5
266
330
1F
100
AcDbEntity
  8
1
  6
Continuous
 62
     3
100
AcDbLine
 10
42.1433423322848
 20
-16.661309066172
 30
0.0
 11
42.3308423322848
 21
-16.411309066172
 31
0.0
  0
LINE
  5
267
330
1F
100
AcDbEntity
  8
1
  6
Continuous
 62
     3
100
AcDbLine
 10
42.3308423322848
 20
-16.411309066172
 30
0.0
 11
42.4558423322848
 21
-16.161309066172
 31
0.0
  0
LINE
  5
268
330
1F
100
AcDbEntity
  8
1
  6
Continuous
 62
     3
100
AcDbLine
 10
42.4558423322848
 20
-16.161309066172
 30
0.0
 11
42.3308423322848
 21
-15.911309066172
 31
0.0
  0
LINE
  5
269
330
1F
100
AcDbEntity
  8
1
  6
Continuous
 62
     3
100
AcDbLine
 10
42.3308423322848
 20
-15.911309066172
 30
0.0
 11
42.2683423322848
 21
-15.786309066172
 31
0.0
  0
LINE
  5
26A
330
1F
100
AcDbEntity
  8
1
  6
Continuous
 62
     3
100
AcDbLine
 10
42.2683423322848
 20
-15.786309066172
 30
0.0
 11
42.0808423322848
 21
-15.661309066172
 31
0.0
  0
LINE
  5
26B
330
1F
100
AcDbEntity
  8
1
  6
Continuous
 62
     3
100
AcDbLine
 10
42.0808423322848
 20
-15.661309066172
 30
0.0
 11
41.7058423322848
 21
-15.598809066172
 31
0.0
  0
ARC
  5
26C
330
1F
100
AcDbEntity
  8
1
  6
Continuous
 62
     3
100
AcDbCircle
 10
-3.29999999999998
 20
22.39290535478191
 30
0.0
 40
2.292905354781879
100
AcDbArc
 50
235.4610555768005
 51
304.5389444231995
  0
ARC
  5
26D
330
1F
100
AcDbEntity
  8
1
  6
Continuous
 62
     3
100
AcDbCircle
 10
-3.29999999999998
 20
21.0070946452186
 30
0.0
 40
2.292905354781392
100
AcDbArc
 50
55.46105557679213
 51
124.5389444232079
  0
ARC
  5
26E
330
1F
100
AcDbEntity
  8
1
  6
Continuous
 62
     3
100
AcDbCircle
 10
3.29906038475773
 20
22.39592887525983
 30
0.0
 40
2.295928875259831
100
AcDbArc
 50
235.4845194881582
 51
304.5154805118418
  0
ARC
  5
26F
330
1F
100
AcDbEntity
  8
1
  6
Continuous
 62
     3
100
AcDbCircle
 10
3.29906038475773
 20
21.00407112474055
 30
0.0
 40
2.295928875259455
100
AcDbArc
 50
55.4845194881517
 51
124.5154805118483
  0
ARC
  5
270
330
1F
100
AcDbEntity
  8
1
  6
Continuous
 62
     3
100
AcDbCircle
 10
-0.00093961524226
 20
25.24613929773022
 30
0.0
 40
5.1461393835107
100
AcDbArc
 50
247.1413977893376
 51
292.8586022106624
  0
ARC
  5
271
330
1F
100
AcDbEntity
  8
1
  6
Continuous
 62
     3
100
AcDbCircle
 10
-0.00093961524226
 20
18.15386070227111
 30
0.0
 40
5.146139383509401
100
AcDbArc
 50
67.14139778933156
 51
112.8586022106684
  0
ARC
  5
272
330
1F
100
AcDbEntity
  8
1
  6
Continuous
 62
     3
100
AcDbCircle
 10
59.4462289364829
 20
38.80000000000001
 30
0.0
 40
2.560598053343956
100
AcDbArc
 50
282.4898288686398
 51
355.5717823338128
  0
ARC
  5
273
330
1F
100
AcDbEntity
  8
1
  6
Continuous
 62
     3
100
AcDbCircle
 10
59.4462289364829
 20
38.80000000000001
 30
0.0
 40
2.560598053343984
100
AcDbArc
 50
355.5717823338128
 51
77.51017113136024
  0
ARC
  5
274
330
1F
100
AcDbEntity
  8
1
  6
Continuous
 62
     3
100
AcDbCircle
 10
12.49988086006249
 20
21.96070731703202
 30
0.0
 40
1.970987858516879
100
AcDbArc
 50
263.9444348299195
 51
305.4458664895643
  0
ARC
  5
275
330
1F
100
AcDbEntity
  8
1
  6
Continuous
 62
     3
100
AcDbCircle
 10
-7.29382719591486
 20
19.23981061457832
 30
0.0
 40
19.60055786444233
100
AcDbArc
 50
17.80781989412257
 51
22.59522472424795
  0
ARC
  5
276
330
1F
100
AcDbEntity
  8
1
  6
Continuous
 62
     3
100
AcDbCircle
 10
-7.29382719591486
 20
19.23981061457832
 30
0.0
 40
19.60055786444237
100
AcDbArc
 50
2.22481976887725
 51
17.80781989412257
  0
ARC
  5
277
330
1F
100
AcDbEntity
  8
1
  6
Continuous
 62
     3
100
AcDbCircle
 10
24.54981803459359
 20
51.8934522783586
 30
0.0
 40
2.989281478702799
100
AcDbArc
 50
7.81655426578057
 51
32.23650562634108
  0
ARC
  5
278
330
1F
100
AcDbEntity
  8
1
  6
Continuous
 62
     3
100
AcDbCircle
 10
8.57730377623199
 20
57.55000000000009
 30
0.0
 40
18.94168185104592
100
AcDbArc
 50
347.6168137596879
 51
350.1511206383132
  0
ARC
  5
279
330
1F
100
AcDbEntity
  8
1
  6
Continuous
 62
     3
100
AcDbCircle
 10
24.54981803459359
 20
73.70654772164139
 30
0.0
 40
2.989281478702841
100
AcDbArc
 50
327.7634943736589
 51
352.1834457342201
  0
ARC
  5
27A
330
1F
100
AcDbEntity
  8
1
  6
Continuous
 62
     3
100
AcDbCircle
 10
8.57730377623199
 20
68.0499999999999
 30
0.0
 40
18.94168185104586
100
AcDbArc
 50
9.84887936168677
 51
12.38318624031207
  0
ARC
  5
27B
330
1F
100
AcDbEntity
  8
1
  6
Continuous
 62
     3
100
AcDbCircle
 10
-20.13312539234489
 20
52.3456520929678
 30
0.0
 40
1.617518967577426
100
AcDbArc
 50
135.0715864272311
 51
181.6173038399618
  0
ARC
  5
27C
330
1F
100
AcDbEntity
  8
1
  6
Continuous
 62
     3
100
AcDbCircle
 10
-4.04323019353323
 20
57.55000000000009
 30
0.0
 40
17.70728806203591
100
AcDbArc
 50
166.738358814554
 51
193.261641185446
  0
ARC
  5
27D
330
1F
100
AcDbEntity
  8
1
  6
Continuous
 62
     3
100
AcDbCircle
 10
-20.13312539234489
 20
73.25434790703218
 30
0.0
 40
1.617518967577389
100
AcDbArc
 50
178.3826961600382
 51
224.9284135727668
  0
ARC
  5
27E
330
1F
100
AcDbEntity
  8
1
  6
Continuous
 62
     3
100
AcDbCircle
 10
-4.04323019353323
 20
68.0499999999999
 30
0.0
 40
17.70728806203593
100
AcDbArc
 50
166.7383588145537
 51
193.2616411854461
  0
ARC
  5
27F
330
1F
100
AcDbEntity
  8
1
  6
Continuous
 62
     3
100
AcDbCircle
 10
-1.09196551356954
 20
-1.69730823608959
 30
0.0
 40
0.3087665274062528
100
AcDbArc
 50
226.3789811801018
 51
291.2506468542231
  0
ARC
  5
280
330
1F
100
AcDbEntity
  8
1
  6
Continuous
 62
     3
100
AcDbCircle
 10
0.51498440218499
 20
1.68819182855051
 30
0.0
 40
0.3099760907377353
100
AcDbArc
 50
45.55452508924127
 51
109.5161458358248
  0
ARC
  5
281
330
1F
100
AcDbEntity
  8
1
  6
Continuous
 62
     3
100
AcDbCircle
 10
-3.75161676523897
 20
2.41865101258889
 30
0.0
 40
1.176895274877935
100
AcDbArc
 50
282.3449638067288
 51
339.1621185849173
  0
ARC
  5
282
330
1F
100
AcDbEntity
  8
1
  6
Continuous
 62
     3
100
AcDbCircle
 10
-18.49372039168061
 20
57.55000000000001
 30
0.0
 40
7.659530307096459
100
AcDbArc
 50
327.9727707243093
 51
32.02722927569042
  0
ARC
  5
283
330
1F
100
AcDbEntity
  8
1
  6
Continuous
 62
     3
100
AcDbCircle
 10
-18.49372039168061
 20
68.0499999999999
 30
0.0
 40
7.659530307096398
100
AcDbArc
 50
327.97277072431
 51
32.02722927569047
  0
ARC
  5
284
330
1F
100
AcDbEntity
  8
1
  6
Continuous
 62
     3
100
AcDbCircle
 10
-18.49372039168061
 20
57.55000000000001
 30
0.0
 40
7.659530307096459
100
AcDbArc
 50
327.9727707243093
 51
32.02722927569042
  0
ARC
  5
285
330
1F
100
AcDbEntity
  8
1
  6
Continuous
 62
     3
100
AcDbCircle
 10
0.0
 20
62.80000000000001
 30
0.0
 40
7.000000000000105
100
AcDbArc
 50
243.7399888655062
 51
270.0
  0
ARC
  5
286
330
1F
100
AcDbEntity
  8
1
  6
Continuous
 62
     3
100
AcDbCircle
 10
10.16836356753879
 20
56.04500262897309
 30
0.0
 40
0.2450026289730758
100
AcDbArc
 50
270.0
 51
0.0
  0
LWPOLYLINE
  5
287
330
1F
100
AcDbEntity
  8
1
  6
Continuous
 62
     3
100
AcDbPolyline
 90
        2
 70
     1
 43
0.0
 10
-1.99999999999996
 20
62.80000000000001
 42
1.0
 10
1.99999999999996
 20
62.80000000000001
 42
1.0
  0
ARC
  5
288
330
1F
100
AcDbEntity
  8
1
  6
Continuous
 62
     3
100
AcDbCircle
 10
0.0
 20
62.80000000000001
 30
0.0
 40
2.200000000000014
100
AcDbArc
 50
245.3800226713421
 51
294.6199773286575
  0
ARC
  5
289
330
1F
100
AcDbEntity
  8
1
  6
Continuous
 62
     3
100
AcDbCircle
 10
0.0
 20
62.80000000000001
 30
0.0
 40
2.200000000000008
100
AcDbArc
 50
65.38002267134246
 51
114.6199773286579
  0
ARC
  5
28A
330
1F
100
AcDbEntity
  8
1
  6
Continuous
 62
     3
100
AcDbCircle
 10
0.0
 20
62.80000000000001
 30
0.0
 40
2.5
100
AcDbArc
 50
233.130102354156
 51
306.869897645844
  0
ARC
  5
28B
330
1F
100
AcDbEntity
  8
1
  6
Continuous
 62
     3
100
AcDbCircle
 10
0.0
 20
62.80000000000001
 30
0.0
 40
2.5
100
AcDbArc
 50
126.869897645844
 51
233.130102354156
  0
ARC
  5
28C
330
1F
100
AcDbEntity
  8
1
  6
Continuous
 62
     3
100
AcDbCircle
 10
0.0
 20
62.80000000000001
 30
0.0
 40
2.5
100
AcDbArc
 50
53.13010235415597
 51
126.869897645844
  0
ARC
  5
28D
330
1F
100
AcDbEntity
  8
1
  6
Continuous
 62
     3
100
AcDbCircle
 10
0.0
 20
62.80000000000001
 30
0.0
 40
2.5
100
AcDbArc
 50
306.869897645844
 51
53.13010235415597
  0
ARC
  5
28E
330
1F
100
AcDbEntity
  8
1
  6
Continuous
 62
     3
100
AcDbCircle
 10
10.16721430526999
 20
69.5536853942724
 30
0.0
 40
0.246317286844469
100
AcDbArc
 50
358.3199941823745
 51
89.73266952833744
  0
ARC
  5
28F
330
1F
100
AcDbEntity
  8
1
  6
Continuous
 62
     3
100
AcDbCircle
 10
0.0
 20
62.80000000000001
 30
0.0
 40
6.999999999999986
100
AcDbArc
 50
180.0
 51
243.7399888655062
  0
ARC
  5
290
330
1F
100
AcDbEntity
  8
1
  6
Continuous
 62
     3
100
AcDbCircle
 10
16.09730748983019
 20
62.766166272626
 30
0.0
 40
10.21003704930384
100
AcDbArc
 50
0.18986545516357
 51
17.78010494708156
  0
ARC
  5
291
330
1F
100
AcDbEntity
  8
1
  6
Continuous
 62
     3
100
AcDbCircle
 10
25.49999999999999
 20
50.30000000000001
 30
0.0
 40
21.0
100
AcDbArc
 50
90.0
 51
111.5625228367305
  0
ARC
  5
292
330
1F
100
AcDbEntity
  8
1
  6
Continuous
 62
     3
100
AcDbCircle
 10
25.49999999999999
 20
-79.70000000000002
 30
0.0
 40
151.0
100
AcDbArc
 50
76.9036605665484
 51
90.0
  0
ARC
  5
293
330
1F
100
AcDbEntity
  8
1
  6
Continuous
 62
     3
100
AcDbCircle
 10
60.8717006504524
 20
62.60568865006479
 30
0.0
 40
1.132081322691695
100
AcDbArc
 50
9.88323266122713
 51
48.24061299185181
  0
ARC
  5
294
330
1F
100
AcDbEntity
  8
1
  6
Continuous
 62
     3
100
AcDbCircle
 10
10.92394259443829
 20
69.2278950749766
 30
0.0
 40
1.376772741362592
100
AcDbArc
 50
93.59117872459659
 51
155.4466368519467
  0
ARC
  5
295
330
1F
100
AcDbEntity
  8
1
  6
Continuous
 62
     3
100
AcDbCircle
 10
10.92394259443829
 20
56.37210492502339
 30
0.0
 40
1.376772741362527
100
AcDbArc
 50
204.5533631480523
 51
266.4088212754032
  0
ARC
  5
296
330
1F
100
AcDbEntity
  8
1
  6
Continuous
 62
     3
100
AcDbCircle
 10
25.49999999999999
 20
75.30000000000001
 30
0.0
 40
21.00000000000006
100
AcDbArc
 50
248.4374771632695
 51
270.0
  0
ARC
  5
297
330
1F
100
AcDbEntity
  8
1
  6
Continuous
 62
     3
100
AcDbCircle
 10
25.49999999999999
 20
205.3
 30
0.0
 40
151.0
100
AcDbArc
 50
270.0
 51
283.0963394334516
  0
ARC
  5
298
330
1F
100
AcDbEntity
  8
1
  6
Continuous
 62
     3
100
AcDbCircle
 10
60.8717006504524
 20
62.9943113499352
 30
0.0
 40
1.132081322691663
100
AcDbArc
 50
311.7593870081477
 51
350.1167673387743
  0
ARC
  5
299
330
1F
100
AcDbEntity
  8
1
  6
Continuous
 62
     3
100
AcDbCircle
 10
16.09730748983019
 20
62.83383372737398
 30
0.0
 40
10.21003704930387
100
AcDbArc
 50
342.2198950529185
 51
359.8101345448367
  0
ARC
  5
29A
330
1F
100
AcDbEntity
  8
1
  6
Continuous
 62
     3
100
AcDbCircle
 10
-40.22378646279328
 20
18.5565791883798
 30
0.0
 40
0.2434391765731372
100
AcDbArc
 50
21.203197807908
 51
90.70378504622096
  0
ARC
  5
29B
330
1F
100
AcDbEntity
  8
1
  6
Continuous
 62
     3
100
AcDbCircle
 10
-48.9968272380343
 20
18.1558032518237
 30
0.0
 40
5.14471464602526
100
AcDbArc
 50
67.12335142135878
 51
112.8766485786412
  0
ARC
  5
29C
330
1F
100
AcDbEntity
  8
1
  6
Continuous
 62
     3
100
AcDbCircle
 10
-48.9968272380343
 20
25.1946664884797
 30
0.0
 40
5.099116596646367
100
AcDbArc
 50
246.906995875913
 51
293.093004124087
  0
ARC
  5
29D
330
1F
100
AcDbEntity
  8
1
  6
Continuous
 62
     3
100
AcDbCircle
 10
-52.97219900307051
 20
38.6437377723488
 30
0.0
 40
2.685565432588225
100
AcDbArc
 50
98.4717476413708
 51
137.1705051669303
  0
ARC
  5
29E
330
1F
100
AcDbEntity
  8
1
  6
Continuous
 62
     3
100
AcDbCircle
 10
-52.54379278207766
 20
38.74780205362651
 30
0.0
 40
2.951977198232255
100
AcDbArc
 50
144.3230948178868
 51
236.0174295759267
  0
ARC
  5
29F
330
1F
100
AcDbEntity
  8
1
  6
Continuous
 62
     3
100
AcDbCircle
 10
-41.44986169399093
 20
38.74780205362651
 30
0.0
 40
2.951977198232274
100
AcDbArc
 50
303.9825704240732
 51
35.6769051821116
  0
ARC
  5
2A0
330
1F
100
AcDbEntity
  8
1
  6
Continuous
 62
     3
100
AcDbCircle
 10
-41.02145547299808
 20
38.6437377723488
 30
0.0
 40
2.685565432588217
100
AcDbArc
 50
42.82949483306822
 51
81.52825235862936
  0
ARC
  5
2A1
330
1F
100
AcDbEntity
  8
1
  6
Continuous
 62
     3
100
AcDbCircle
 10
-28.54382772265983
 20
21.517078076465
 30
0.0
 40
25.5976111698584
100
AcDbArc
 50
173.9068168814012
 51
174.4695639636766
  0
ARC
  5
2A2
330
1F
100
AcDbEntity
  8
1
  6
Continuous
 62
     3
100
AcDbCircle
 10
-46.9968272380343
 20
0.0
 30
0.0
 40
11.50000000000004
100
AcDbArc
 50
24.07061462256685
 51
30.00000000000012
  0
ARC
  5
2A3
330
1F
100
AcDbEntity
  8
1
  6
Continuous
 62
     3
100
AcDbCircle
 10
-46.9968272380343
 20
0.0
 30
0.0
 40
11.50000000000002
100
AcDbArc
 50
324.0706146225666
 51
335.9293853774337
  0
ARC
  5
2A4
330
1F
100
AcDbEntity
  8
1
  6
Continuous
 62
     3
100
AcDbCircle
 10
-46.9968272380343
 20
0.0
 30
0.0
 40
11.49999999999996
100
AcDbArc
 50
30.00000000000012
 51
35.92938537743347
  0
ARC
  5
2A5
330
1F
100
AcDbEntity
  8
1
  6
Continuous
 62
     3
100
AcDbCircle
 10
-46.9968272380343
 20
0.0
 30
0.0
 40
11.49999999999999
100
AcDbArc
 50
84.070614622566
 51
95.92938537743377
  0
ARC
  5
2A6
330
1F
100
AcDbEntity
  8
1
  6
Continuous
 62
     3
100
AcDbCircle
 10
-46.9968272380343
 20
0.0
 30
0.0
 40
11.50000000000001
100
AcDbArc
 50
144.0706146225665
 51
155.9293853774335
  0
ARC
  5
2A7
330
1F
100
AcDbEntity
  8
1
  6
Continuous
 62
     3
100
AcDbCircle
 10
-46.9968272380343
 20
0.0
 30
0.0
 40
11.49999999999999
100
AcDbArc
 50
204.0706146225663
 51
215.9293853774334
  0
ARC
  5
2A8
330
1F
100
AcDbEntity
  8
1
  6
Continuous
 62
     3
100
AcDbCircle
 10
-46.9968272380343
 20
0.0
 30
0.0
 40
11.49999999999996
100
AcDbArc
 50
264.0706146225666
 51
275.9293853774335
  0
ARC
  5
2A9
330
1F
100
AcDbEntity
  8
1
  6
Continuous
 62
     3
100
AcDbCircle
 10
-46.9968272380343
 20
0.0
 30
0.0
 40
11.50000000000004
100
AcDbArc
 50
35.92938537743347
 51
52.50475023544129
  0
ARC
  5
2AA
330
1F
100
AcDbEntity
  8
1
  6
Continuous
 62
     3
100
AcDbCircle
 10
-46.9968272380343
 20
0.0
 30
0.0
 40
11.49999999999999
100
AcDbArc
 50
127.4952497645587
 51
144.0706146225665
  0
ARC
  5
2AB
330
1F
100
AcDbEntity
  8
1
  6
Continuous
 62
     3
100
AcDbCircle
 10
-46.9968272380343
 20
0.0
 30
0.0
 40
11.49999999999999
100
AcDbArc
 50
335.9293853774337
 51
24.07061462256685
  0
ARC
  5
2AC
330
1F
100
AcDbEntity
  8
1
  6
Continuous
 62
     3
100
AcDbCircle
 10
-46.9968272380343
 20
0.0
 30
0.0
 40
11.49999999999996
100
AcDbArc
 50
275.9293853774335
 51
324.0706146225666
  0
ARC
  5
2AD
330
1F
100
AcDbEntity
  8
1
  6
Continuous
 62
     3
100
AcDbCircle
 10
-46.9968272380343
 20
0.0
 30
0.0
 40
11.5
100
AcDbArc
 50
215.9293853774334
 51
264.0706146225666
  0
ARC
  5
2AE
330
1F
100
AcDbEntity
  8
1
  6
Continuous
 62
     3
100
AcDbCircle
 10
-46.9968272380343
 20
0.0
 30
0.0
 40
11.5
100
AcDbArc
 50
155.9293853774335
 51
204.0706146225663
  0
ARC
  5
2AF
330
1F
100
AcDbEntity
  8
1
  6
Continuous
 62
     3
100
AcDbCircle
 10
-65.44982675340876
 20
21.517078076465
 30
0.0
 40
25.5976111698584
100
AcDbArc
 50
5.5304360363234
 51
6.09318311859878
  0
ARC
  5
2B0
330
1F
100
AcDbEntity
  8
1
  6
Continuous
 62
     3
100
AcDbCircle
 10
-39.92372804586071
 20
20.83212656419511
 30
0.0
 40
0.8327729218507033
100
AcDbArc
 50
266.72046948517
 51
2.6804955357915
  0
ARC
  5
2B1
330
1F
100
AcDbEntity
  8
1
  6
Continuous
 62
     3
100
AcDbCircle
 10
-54.06992643020787
 20
20.83212656419511
 30
0.0
 40
0.8327729218506866
100
AcDbArc
 50
177.3195044642085
 51
273.2795305148289
  0
ARC
  5
2B2
330
1F
100
AcDbEntity
  8
1
  6
Continuous
 62
     3
100
AcDbCircle
 10
-44.99682723803429
 20
25.1946664884797
 30
0.0
 40
5.099116596646369
100
AcDbArc
 50
246.9069958759129
 51
293.093004124087
  0
ARC
  5
2B3
330
1F
100
AcDbEntity
  8
1
  6
Continuous
 62
     3
100
AcDbCircle
 10
-44.99682723803429
 20
18.1558032518237
 30
0.0
 40
5.14471464602526
100
AcDbArc
 50
67.12335142135878
 51
112.8766485786413
  0
ARC
  5
2B4
330
1F
100
AcDbEntity
  8
1
  6
Continuous
 62
     3
100
AcDbCircle
 10
-17.72802174880074
 20
9.12402942991245
 30
0.0
 40
4.271978251199267
100
AcDbArc
 50
146.2082664639524
 51
213.7917335360476
  0
ARC
  5
2B5
330
1F
100
AcDbEntity
  8
1
  6
Continuous
 62
     3
100
AcDbCircle
 10
-6.39710897515034
 20
0.00000000000006
 30
0.0
 40
15.60289102484964
100
AcDbArc
 50
162.5056370295171
 51
197.4943629704829
  0
ARC
  5
2B6
330
1F
100
AcDbEntity
  8
1
  6
Continuous
 62
     3
100
AcDbCircle
 10
-17.72802174880058
 20
-9.12402942991244
 30
0.0
 40
4.271978251199408
100
AcDbArc
 50
146.2082664639534
 51
213.7917335360466
  0
ARC
  5
2B7
330
1F
100
AcDbEntity
  8
1
  6
Continuous
 62
     3
100
AcDbCircle
 10
-15.2343414769508
 20
-9.10157436019356
 30
0.0
 40
3.999999999999998
100
AcDbArc
 50
323.9579475397865
 51
36.04205246021352
  0
ARC
  5
2B8
330
1F
100
AcDbEntity
  8
1
  6
Continuous
 62
     3
100
AcDbCircle
 10
-1.47695697743684
 20
24.05078329672767
 30
0.0
 40
14.99953228318745
100
AcDbArc
 50
248.3944663288541
 51
304.4125753740019
  0
ARC
  5
2B9
330
1F
100
AcDbEntity
  8
1
  6
Continuous
 62
     3
100
AcDbCircle
 10
-15.19498619388662
 20
9.15472942740865
 30
0.0
 40
4.000000000000004
100
AcDbArc
 50
323.0105727041138
 51
33.34684504840276
  0
ARC
  5
2BA
330
1F
100
AcDbEntity
  8
1
  6
Continuous
 62
     3
100
AcDbCircle
 10
23.52802174880028
 20
9.12402942991245
 30
0.0
 40
4.27197825119968
100
AcDbArc
 50
326.2082664639561
 51
33.79173353604389
  0
ARC
  5
2BB
330
1F
100
AcDbEntity
  8
1
  6
Continuous
 62
     3
100
AcDbCircle
 10
12.19710897514931
 20
0.00000000000003
 30
0.0
 40
15.60289102485067
100
AcDbArc
 50
342.5056370295184
 51
17.49436297048168
  0
ARC
  5
2BC
330
1F
100
AcDbEntity
  8
1
  6
Continuous
 62
     3
100
AcDbCircle
 10
23.52802174880012
 20
-9.1240294299124
 30
0.0
 40
4.271978251199845
100
AcDbArc
 50
326.2082664639566
 51
33.79173353604333
  0
ARC
  5
2BD
330
1F
100
AcDbEntity
  8
1
  6
Continuous
 62
     3
100
AcDbCircle
 10
-10.78477775000232
 20
-0.0212830255172
 30
0.0
 40
18.78478980676006
100
AcDbArc
 50
346.7507050245844
 51
13.24929497541559
  0
CIRCLE
  5
2BE
330
1F
100
AcDbEntity
  8
1
  6
Continuous
 62
     3
100
AcDbCircle
 10
0.0
 20
62.80000000000001
 30
0.0
 40
4.599999999999942
  0
CIRCLE
  5
2BF
330
1F
100
AcDbEntity
  8
1
  6
Continuous
 62
     3
100
AcDbCircle
 10
0.0
 20
62.80000000000001
 30
0.0
 40
3.98371685740841
  0
CIRCLE
  5
2C0
102
{ACAD_REACTORS
330
31D
102
}
330
1F
100
AcDbEntity
  8
1
  6
Continuous
 62
     3
100
AcDbCircle
 10
53.896511841044
 20
63.98088228277899
 30
0.0
 40
0.6119024428627995
  0
CIRCLE
  5
2C1
330
1F
100
AcDbEntity
  8
1
  6
Continuous
 62
     3
100
AcDbCircle
 10
-46.9968272380343
 20
0.0
 30
0.0
 40
3.75
  0
CIRCLE
  5
2C2
330
1F
100
AcDbEntity
  8
1
  6
Continuous
 62
     3
100
AcDbCircle
 10
-46.9968272380343
 20
0.0
 30
0.0
 40
5.690641397893216
  0
CIRCLE
  5
2C3
330
1F
100
AcDbEntity
  8
1
  6
Continuous
 62
     3
100
AcDbCircle
 10
-46.9968272380343
 20
0.0
 30
0.0
 40
6.690641397893103
  0
CIRCLE
  5
2C4
330
1F
100
AcDbEntity
  8
1
  6
Continuous
 62
     3
100
AcDbCircle
 10
-46.9968272380343
 20
0.0
 30
0.0
 40
10.25
  0
LWPOLYLINE
  5
2C5
330
1F
100
AcDbEntity
  8
1
  6
Continuous
 62
     3
 60
     1
100
AcDbPolyline
 90
        3
 70
     0
 43
0.0
 10
13.49999999999999
 20
-11.5
 10
13.49999999999999
 20
-12.85000000000008
 10
13.29999999999998
 20
-12.85000000000008
  0
LWPOLYLINE
  5
2C6
330
1F
100
AcDbEntity
  8
1
  6
Continuous
 62
     3
 60
     1
100
AcDbPolyline
 90
        3
 70
     0
 43
0.0
 10
-10.50000000000001
 20
-5.36249999999998
 10
-8.8875
 20
-3.75
 10
-6.69999999999997
 20
-3.75
  0
LWPOLYLINE
  5
2C7
330
1F
100
AcDbEntity
  8
1
  6
Continuous
 62
     3
 60
     1
100
AcDbPolyline
 90
        6
 70
     0
 43
0.0
 10
-26.99999999999999
 20
-5.6906413978933
 10
-17.20813046941481
 20
-5.54999999999998
 10
-15.24935320362992
 20
-5.5500000000001
 10
-14.77199999999999
 20
-6.02799999999999
 10
-11.47800000000002
 20
-6.02799999999999
 10
-10.90000000000002
 20
-5.54999999999998
  0
LWPOLYLINE
  5
2C8
330
1F
100
AcDbEntity
  8
1
  6
Continuous
 62
     3
 60
     1
100
AcDbPolyline
 90
        6
 70
     0
 43
0.0
 10
-11.00000000000007
 20
-5.54999999999998
 10
-11.47800000000002
 20
-6.02799999999999
 10
-14.77199999999999
 20
-6.02799999999999
 10
-15.24935320362992
 20
-5.5500000000001
 10
-26.99999999999999
 20
-5.6906413978933
 10
-27.99999999999999
 20
-6.69064139789339
  0
LWPOLYLINE
  5
2C9
330
1F
100
AcDbEntity
  8
1
  6
Continuous
 62
     3
 60
     1
100
AcDbPolyline
 90
        3
 70
     0
 43
0.0
 10
-14.5566243270259
 20
-10.0
 10
7.95648521142309
 20
-10.0
 10
8.55662432702589
 20
-10.0
  0
LWPOLYLINE
  5
2CA
330
1F
100
AcDbEntity
  8
1
  6
Continuous
 62
     3
 60
     1
100
AcDbPolyline
 90
        2
 70
     0
 43
0.0
 10
26.79999999999998
 20
5.69683802910342
 10
27.79999999999998
 20
6.69683802910342
  0
LWPOLYLINE
  5
2CB
330
1F
100
AcDbEntity
  8
1
  6
Continuous
 62
     3
 60
     1
100
AcDbPolyline
 90
        5
 70
     0
 43
0.0
 10
-41.57877981565752
 20
5.0
 10
-40.5507798156575
 20
6.02800000000002
 10
-37.15677981565696
 20
6.02800000000002
 10
-36.57877981565696
 20
5.45000000000002
 10
-32.27877981565751
 20
5.45000000000002
  0
ARC
  5
2CC
330
1F
100
AcDbEntity
  8
1
  6
Continuous
 62
     3
100
AcDbCircle
 10
-11.69999999999999
 20
-4.99041575982339
 30
0.0
 40
0.2999999999999998
100
AcDbArc
 50
90.0
 51
180.0
  0
ARC
  5
2CD
330
1F
100
AcDbEntity
  8
1
  6
Continuous
 62
     3
100
AcDbCircle
 10
-10.20000000000001
 20
-5.55
 30
0.0
 40
0.2999999999999998
100
AcDbArc
 50
90.0
 51
180.0000000000003
  0
ARC
  5
2CE
330
1F
100
AcDbEntity
  8
1
  6
Continuous
 62
     3
100
AcDbCircle
 10
6.69999999999999
 20
-5.55
 30
0.0
 40
0.3000000000000007
100
AcDbArc
 50
359.9999999999998
 51
90.0
  0
ARC
  5
2CF
330
1F
100
AcDbEntity
  8
1
  6
Continuous
 62
     3
100
AcDbCircle
 10
7.19999999999999
 20
-4.99041575982339
 30
0.0
 40
0.2999999999999998
100
AcDbArc
 50
0.0
 51
89.99999999999949
  0
ARC
  5
2D0
330
1F
100
AcDbEntity
  8
1
  6
Continuous
 62
     3
100
AcDbCircle
 10
-11.69999999999999
 20
4.99041575982351
 30
0.0
 40
0.2999999999999989
100
AcDbArc
 50
180.0
 51
270.0
  0
ARC
  5
2D1
330
1F
100
AcDbEntity
  8
1
  6
Continuous
 62
     3
100
AcDbCircle
 10
7.19999999999999
 20
4.99041575982351
 30
0.0
 40
0.2999999999999998
100
AcDbArc
 50
270.0
 51
0.0
  0
ARC
  5
2D2
330
1F
100
AcDbEntity
  8
1
  6
Continuous
 62
     3
100
AcDbCircle
 10
6.69999999999999
 20
5.55
 30
0.0
 40
0.2999999999999998
100
AcDbArc
 50
270.0
 51
0.0
  0
ARC
  5
2D3
330
1F
100
AcDbEntity
  8
1
  6
Continuous
 62
     3
100
AcDbCircle
 10
-10.19999999999999
 20
5.55
 30
0.0
 40
0.2999999999999989
100
AcDbArc
 50
180.0
 51
270.0
  0
ARC
  5
2D4
330
1F
100
AcDbEntity
  8
1
  6
Continuous
 62
     3
100
AcDbCircle
 10
20.04659750623529
 20
33.30000000000001
 30
0.0
 40
8.0
100
AcDbArc
 50
90.0
 51
166.155710304943
  0
ARC
  5
2D5
330
1F
100
AcDbEntity
  8
1
  6
Continuous
 62
     3
100
AcDbCircle
 10
9.18430812813268
 20
19.80000000000001
 30
0.0
 40
3.0
100
AcDbArc
 50
270.0
 51
348.13615917382
  0
ARC
  5
2D6
330
1F
100
AcDbEntity
  8
1
  6
Continuous
 62
     3
100
AcDbCircle
 10
9.19021596680498
 20
19.80000000000001
 30
0.0
 40
1.0
100
AcDbArc
 50
270.0
 51
348.0000000000038
  0
ARC
  5
2D7
330
1F
100
AcDbEntity
  8
1
  6
Continuous
 62
     3
100
AcDbCircle
 10
-6.99999999999996
 20
16.30000000000001
 30
0.0
 40
0.5
100
AcDbArc
 50
90.00000000000325
 51
180.0
  0
ARC
  5
2D8
330
1F
100
AcDbEntity
  8
1
  6
Continuous
 62
     3
100
AcDbCircle
 10
-7.49999999999996
 20
16.80000000000001
 30
0.0
 40
2.0
100
AcDbArc
 50
90.0
 51
180.0
  0
ARC
  5
2D9
330
1F
100
AcDbEntity
  8
1
  6
Continuous
 62
     3
100
AcDbCircle
 10
21.27056699012839
 20
31.80000000000001
 30
0.0
 40
4.5
100
AcDbArc
 50
90.0
 51
166.5037294760455
  0
ARC
  5
2DA
330
1F
100
AcDbEntity
  8
1
  6
Continuous
 62
     3
100
AcDbCircle
 10
13.57196253369439
 20
27.92336027723002
 30
0.0
 40
3.000000000000059
100
AcDbArc
 50
166.1557103049436
 51
202.5952247242479
  0
ARC
  5
2DB
330
1F
100
AcDbEntity
  8
1
  6
Continuous
 62
     3
100
AcDbCircle
 10
13.06298926070039
 20
21.16967865097871
 30
0.0
 40
1.000000000000078
100
AcDbArc
 50
305.4458664895643
 51
346.5037294760419
  0
ARC
  5
2DC
330
1F
100
AcDbEntity
  8
1
  6
Continuous
 62
     3
100
AcDbCircle
 10
-12.20710678118654
 20
-11.0
 30
0.0
 40
0.5000000000000125
100
AcDbArc
 50
294.4698005207021
 51
315.0
  0
ARC
  5
2DD
330
1F
100
AcDbEntity
  8
1
  6
Continuous
 62
     3
100
AcDbCircle
 10
7.65470053837929
 20
-11.0
 30
0.0
 40
0.4999999999999964
100
AcDbArc
 50
251.9768596883641
 51
270.0
  0
ARC
  5
2DE
330
1F
100
AcDbEntity
  8
1
  6
Continuous
 62
     3
100
AcDbCircle
 10
5.92264973081039
 20
-11.0
 30
0.0
 40
0.9999999999999589
100
AcDbArc
 50
30.00000000000136
 51
90.0
  0
ARC
  5
2DF
330
1F
100
AcDbEntity
  8
1
  6
Continuous
 62
     3
100
AcDbCircle
 10
7.99999999999999
 20
12.5
 30
0.0
 40
0.9999999999999928
100
AcDbArc
 50
239.9999999999997
 51
270.0
  0
ARC
  5
2E0
330
1F
100
AcDbEntity
  8
1
  6
Continuous
 62
     3
100
AcDbCircle
 10
-7.99999999999996
 20
11.0
 30
0.0
 40
1.0
100
AcDbArc
 50
270.0
 51
0.0
  0
ARC
  5
2E1
330
1F
100
AcDbEntity
  8
1
  6
Continuous
 62
     3
100
AcDbCircle
 10
0.62700449022999
 20
1.80240150188029
 30
0.0
 40
0.1500000000000151
100
AcDbArc
 50
335.5119484175095
 51
45.55452508923792
  0
ARC
  5
2E2
330
1F
100
AcDbEntity
  8
1
  6
Continuous
 62
     3
100
AcDbCircle
 10
0.46154079273808
 20
1.8389768749477
 30
0.0
 40
0.1500000000000102
100
AcDbArc
 50
109.5161458358298
 51
155.5119484175095
  0
ARC
  5
2E3
330
1F
100
AcDbEntity
  8
1
  6
Continuous
 62
     3
100
AcDbCircle
 10
-1.03442081427409
 20
-1.84527923935591
 30
0.0
 40
0.1499999999999404
100
AcDbArc
 50
291.2506468542315
 51
335.5119484175515
  0
ARC
  5
2E4
330
1F
100
AcDbEntity
  8
1
  6
Continuous
 62
     3
100
AcDbCircle
 10
-1.20149618442134
 20
-1.81224231444489
 30
0.0
 40
0.150000000000012
100
AcDbArc
 50
155.5119484175119
 51
226.3789811801092
  0
ARC
  5
2E5
330
1F
100
AcDbEntity
  8
1
  6
Continuous
 62
     3
100
AcDbCircle
 10
5.99999999999999
 20
2.5
 30
0.0
 40
0.4999999999999858
100
AcDbArc
 50
0.0
 51
90.0
  0
ARC
  5
2E6
330
1F
100
AcDbEntity
  8
1
  6
Continuous
 62
     3
100
AcDbCircle
 10
5.99999999999999
 20
-2.5
 30
0.0
 40
0.5
100
AcDbArc
 50
270.0
 51
0.0
  0
ARC
  5
2E7
330
1F
100
AcDbEntity
  8
1
  6
Continuous
 62
     3
100
AcDbCircle
 10
-14.0
 20
-2.5
 30
0.0
 40
0.5
100
AcDbArc
 50
180.0
 51
270.0
  0
ARC
  5
2E8
330
1F
100
AcDbEntity
  8
1
  6
Continuous
 62
     3
100
AcDbCircle
 10
-14.0
 20
2.5
 30
0.0
 40
0.5
100
AcDbArc
 50
90.0
 51
180.0
  0
ARC
  5
2E9
330
1F
100
AcDbEntity
  8
1
  6
Continuous
 62
     3
100
AcDbCircle
 10
-9.99999999999999
 20
54.78897773472539
 30
0.0
 40
0.5000000000000036
100
AcDbArc
 50
180.0
 51
270.0
  0
ARC
  5
2EA
330
1F
100
AcDbEntity
  8
1
  6
Continuous
 62
     3
100
AcDbCircle
 10
-9.99999999999999
 20
70.8110222652746
 30
0.0
 40
0.5
100
AcDbArc
 50
90.0
 51
180.0
  0
ARC
  5
2EB
330
1F
100
AcDbEntity
  8
1
  6
Continuous
 62
     3
100
AcDbCircle
 10
5.99999999999999
 20
70.8110222652746
 30
0.0
 40
0.5
100
AcDbArc
 50
0.0
 51
90.0
  0
ARC
  5
2EC
330
1F
100
AcDbEntity
  8
1
  6
Continuous
 62
     3
100
AcDbCircle
 10
8.36602540378449
 20
51.80000000000001
 30
0.0
 40
0.5000000000000656
100
AcDbArc
 50
209.9999999999957
 51
270.0
  0
ARC
  5
2ED
330
1F
100
AcDbEntity
  8
1
  6
Continuous
 62
     3
100
AcDbCircle
 10
8.36602540378449
 20
73.7999999999999
 30
0.0
 40
0.5
100
AcDbArc
 50
90.0
 51
149.9999999999987
  0
ARC
  5
2EE
330
1F
100
AcDbEntity
  8
1
  6
Continuous
 62
     3
100
AcDbCircle
 10
1.55
 20
53.05000000000001
 30
0.0
 40
0.5
100
AcDbArc
 50
270.0
 51
0.0
  0
ARC
  5
2EF
330
1F
100
AcDbEntity
  8
1
  6
Continuous
 62
     3
100
AcDbCircle
 10
-1.54999999999997
 20
53.05000000000001
 30
0.0
 40
0.5000000000000002
100
AcDbArc
 50
180.0
 51
270.0
  0
ARC
  5
2F0
330
1F
100
AcDbEntity
  8
1
  6
Continuous
 62
     3
100
AcDbCircle
 10
1.55
 20
72.55000000000001
 30
0.0
 40
0.5000000000000002
100
AcDbArc
 50
0.0
 51
90.0
  0
ARC
  5
2F1
330
1F
100
AcDbEntity
  8
1
  6
Continuous
 62
     3
100
AcDbCircle
 10
-1.54999999999997
 20
72.55000000000001
 30
0.0
 40
0.5
100
AcDbArc
 50
90.0
 51
180.0
  0
ARC
  5
2F2
330
1F
100
AcDbEntity
  8
1
  6
Continuous
 62
     3
100
AcDbCircle
 10
6.92264973081039
 20
74.2999999999999
 30
0.0
 40
1.0
100
AcDbArc
 50
270.0
 51
329.9999999999987
  0
ARC
  5
2F3
330
1F
100
AcDbEntity
  8
1
  6
Continuous
 62
     3
100
AcDbCircle
 10
6.92264973081039
 20
51.30000000000001
 30
0.0
 40
0.9999999999999589
100
AcDbArc
 50
30.00000000000136
 51
90.0
  0
ARC
  5
2F4
330
1F
100
AcDbEntity
  8
1
  6
Continuous
 62
     3
100
AcDbCircle
 10
59.48836210251
 20
66.39856687041339
 30
0.0
 40
1.0
100
AcDbArc
 50
20.00000000000176
 51
76.90366056654953
  0
ARC
  5
2F5
330
1F
100
AcDbEntity
  8
1
  6
Continuous
 62
     3
100
AcDbCircle
 10
59.48836210251
 20
59.2014331295866
 30
0.0
 40
1.000000000000038
100
AcDbArc
 50
283.0963394334505
 51
339.9999999999982
  0
ARC
  5
2F6
330
1F
100
AcDbEntity
  8
1
  6
Continuous
 62
     3
100
AcDbCircle
 10
-37.24682723803429
 20
12.66506350946111
 30
0.0
 40
0.4999999999999749
100
AcDbArc
 50
300.0000000000016
 51
0.0
  0
ARC
  5
2F7
330
1F
100
AcDbEntity
  8
1
  6
Continuous
 62
     3
100
AcDbCircle
 10
-37.24682723803429
 20
15.50738749710882
 30
0.0
 40
0.5
100
AcDbArc
 50
0.0
 51
80.00000000000072
  0
ARC
  5
2F8
330
1F
100
AcDbEntity
  8
1
  6
Continuous
 62
     3
100
AcDbCircle
 10
-39.49682723803429
 20
10.2113248654052
 30
0.0
 40
0.4999999999999918
100
AcDbArc
 50
120.0000000000006
 51
180.0
  0
ARC
  5
2F9
330
1F
100
AcDbEntity
  8
1
  6
Continuous
 62
     3
100
AcDbCircle
 10
-56.7468272380343
 20
12.66506350946111
 30
0.0
 40
0.5
100
AcDbArc
 50
180.0
 51
239.9999999999983
  0
ARC
  5
2FA
330
1F
100
AcDbEntity
  8
1
  6
Continuous
 62
     3
100
AcDbCircle
 10
-56.7468272380343
 20
15.50738749710882
 30
0.0
 40
0.5000000000000859
100
AcDbArc
 50
99.99999999999929
 51
180.0
  0
ARC
  5
2FB
330
1F
100
AcDbEntity
  8
1
  6
Continuous
 62
     3
100
AcDbCircle
 10
-54.4968272380343
 20
10.2113248654052
 30
0.0
 40
0.5
100
AcDbArc
 50
0.0
 51
59.99999999999946
  0
ARC
  5
2FC
330
1F
100
AcDbEntity
  8
1
  6
Continuous
 62
     3
100
AcDbCircle
 10
-38.49682723803429
 20
17.80000000000001
 30
0.0
 40
1.0
100
AcDbArc
 50
0.0
 51
90.0
  0
ARC
  5
2FD
330
1F
100
AcDbEntity
  8
1
  6
Continuous
 62
     3
100
AcDbCircle
 10
-39.79682723803428
 20
16.5
 30
0.0
 40
0.3000000000000043
100
AcDbArc
 50
0.0
 51
90.0
  0
ARC
  5
2FE
330
1F
100
AcDbEntity
  8
1
  6
Continuous
 62
     3
100
AcDbCircle
 10
-48.69682723803429
 20
18.5
 30
0.0
 40
0.3000000000000114
100
AcDbArc
 50
90.0
 51
180.0
  0
ARC
  5
2FF
330
1F
100
AcDbEntity
  8
1
  6
Continuous
 62
     3
100
AcDbCircle
 10
-41.46170212476377
 20
39.80000000000001
 30
0.0
 40
1.500000000000008
100
AcDbArc
 50
1.35751198648852
 51
90.0
  0
ARC
  5
300
330
1F
100
AcDbEntity
  8
1
  6
Continuous
 62
     3
100
AcDbCircle
 10
-40.99682723803429
 20
24.23415615293001
 30
0.0
 40
1.0
100
AcDbArc
 50
0.0
 51
90.0
  0
ARC
  5
301
330
1F
100
AcDbEntity
  8
1
  6
Continuous
 62
     3
100
AcDbCircle
 10
-52.9968272380343
 20
24.23415615293001
 30
0.0
 40
1.0
100
AcDbArc
 50
90.0
 51
180.0
  0
ARC
  5
302
330
1F
100
AcDbEntity
  8
1
  6
Continuous
 62
     3
100
AcDbCircle
 10
-52.53195235130481
 20
39.80000000000001
 30
0.0
 40
1.5
100
AcDbArc
 50
90.0
 51
178.6424880135115
  0
ARC
  5
303
330
1F
100
AcDbEntity
  8
1
  6
Continuous
 62
     3
100
AcDbCircle
 10
-53.19682723803429
 20
18.0
 30
0.0
 40
0.8000000000000134
100
AcDbArc
 50
174.5954813044211
 51
180.0
  0
ARC
  5
304
330
1F
100
AcDbEntity
  8
1
  6
Continuous
 62
     3
100
AcDbCircle
 10
-53.19682723803429
 20
18.0
 30
0.0
 40
0.8000000000000114
100
AcDbArc
 50
90.0
 51
174.5954813044211
  0
ARC
  5
305
330
1F
100
AcDbEntity
  8
1
  6
Continuous
 62
     3
100
AcDbCircle
 10
-12.20710678118654
 20
11.0
 30
0.0
 40
0.5000000000000304
100
AcDbArc
 50
45.00000000000245
 51
90.0
  0
ARC
  5
306
330
1F
100
AcDbEntity
  8
1
  6
Continuous
 62
     3
100
AcDbCircle
 10
-12.20710678118654
 20
-11.0
 30
0.0
 40
0.5
100
AcDbArc
 50
270.0
 51
294.4698005207021
  0
ARC
  5
307
330
1F
100
AcDbEntity
  8
1
  6
Continuous
 62
     3
100
AcDbCircle
 10
-10.08578643762688
 20
11.0
 30
0.0
 40
1.000000000000026
100
AcDbArc
 50
225.0000000000012
 51
270.0
  0
ARC
  5
308
330
1F
100
AcDbEntity
  8
1
  6
Continuous
 62
     3
100
AcDbCircle
 10
-10.08578643762688
 20
-11.0
 30
0.0
 40
1.0
100
AcDbArc
 50
90.0
 51
134.9999999999976
  0
ARC
  5
309
330
1F
100
AcDbEntity
  8
1
  6
Continuous
 62
     3
100
AcDbCircle
 10
7.99999999999999
 20
12.5
 30
0.0
 40
1.0
100
AcDbArc
 50
180.0
 51
239.9999999999997
  0
ARC
  5
30A
330
1F
100
AcDbEntity
  8
1
  6
Continuous
 62
     3
100
AcDbCircle
 10
7.65470053837929
 20
-11.0
 30
0.0
 40
0.4999999999999795
100
AcDbArc
 50
210.0000000000013
 51
251.9768596883641
  0
ARC
  5
30B
330
1F
100
AcDbEntity
  8
1
  6
Continuous
 62
     3
100
AcDbCircle
 10
-1.74999999999997
 20
15.20738749710882
 30
0.0
 40
0.2999999999999989
100
AcDbArc
 50
90.0
 51
180.0
  0
ARC
  5
30C
330
1F
100
AcDbEntity
  8
1
  6
Continuous
 62
     3
100
AcDbCircle
 10
1.75
 20
15.20738749710882
 30
0.0
 40
0.3000000000000003
100
AcDbArc
 50
0.0
 51
90.0
  0
ARC
  5
30D
330
1F
100
AcDbEntity
  8
1
  6
Continuous
 62
     3
100
AcDbCircle
 10
1.75
 20
12.3
 30
0.0
 40
0.3000000000000007
100
AcDbArc
 50
270.0000000000002
 51
0.0
  0
ARC
  5
30E
330
1F
100
AcDbEntity
  8
1
  6
Continuous
 62
     3
100
AcDbCircle
 10
-1.74999999999997
 20
12.3
 30
0.0
 40
0.3000000000000003
100
AcDbArc
 50
180.0
 51
270.0
  0
ARC
  5
30F
330
1F
100
AcDbEntity
  8
1
  6
Continuous
 62
     3
100
AcDbCircle
 10
-1.74999999999997
 20
10.8
 30
0.0
 40
0.3000000000000003
100
AcDbArc
 50
180.0
 51
270.0
  0
ARC
  5
310
330
1F
100
AcDbEntity
  8
1
  6
Continuous
 62
     3
100
AcDbCircle
 10
1.75
 20
10.8
 30
0.0
 40
0.3000000000000007
100
AcDbArc
 50
270.0
 51
0.0
  0
ARC
  5
311
330
1F
100
AcDbEntity
  8
1
  6
Continuous
 62
     3
100
AcDbCircle
 10
1.75
 20
15.6
 30
0.0
 40
0.3000000000000003
100
AcDbArc
 50
0.0
 51
90.0
  0
ARC
  5
312
330
1F
100
AcDbEntity
  8
1
  6
Continuous
 62
     3
100
AcDbCircle
 10
-1.74999999999997
 20
15.6
 30
0.0
 40
0.3000000000000007
100
AcDbArc
 50
90.0
 51
180.0
  0
HATCH
  5
313
330
1F
100
AcDbEntity
  8
1
  6
Continuous
 62
     4
100
AcDbHatch
 10
0.0
 20
0.0
 30
0.0
210
0.0
220
0.0
230
1.0
  2
_USER
 70
     0
 71
     1
 91
        1
 92
        1
 93
        4
 72
     1
 10
54.31376224699119
 20
62.7574940918663
 11
54.31376224699119
 21
61.19999999999998
 72
     1
 10
54.31376224699119
 20
61.19999999999998
 11
53.4792614350969
 21
61.19999999999998
 72
     1
 10
53.4792614350969
 20
61.19999999999998
 11
53.4792614350969
 21
62.7574940918663
 72
     1
 10
53.4792614350969
 20
62.7574940918663
 11
54.31376224699119
 21
62.7574940918663
 97
        4
330
130
330
12F
330
12E
330
131
 75
     1
 76
     0
 52
90.00000000000001
 41
0.1
 77
     0
 78
     1
 53
90.00000000000001
 43
0.0
 44
0.0
 45
-0.1
 46
0.0
 79
     0
 98
        1
 10
0.0
 20
0.0
  0
HATCH
  5
314
330
1F
100
AcDbEntity
  8
1
  6
Continuous
 62
     4
100
AcDbHatch
 10
0.0
 20
0.0
 30
0.0
210
0.0
220
0.0
230
1.0
  2
_USER
 70
     0
 71
     1
 91
        2
 92
        1
 93
        8
 72
     1
 10
51.59327426876769
 20
63.14679816569758
 11
50.41253846208238
 21
63.14679816569758
 72
     1
 10
50.41253846208238
 20
63.14679816569758
 11
49.14711965437908
 21
61.19999999999998
 72
     1
 10
49.14711965437908
 20
61.19999999999998
 11
49.70563347876327
 21
61.19999999999998
 72
     1
 10
49.70563347876327
 20
61.19999999999998
 11
49.99483079075208
 21
61.64491894152129
 72
     1
 10
49.99483079075208
 20
61.64491894152129
 11
51.48360863319459
 21
61.64491894152129
 72
     1
 10
51.48360863319459
 20
61.64491894152129
 11
51.75055999810738
 21
61.19999999999998
 72
     1
 10
51.75055999810738
 20
61.19999999999998
 11
52.76135316818619
 21
61.19999999999998
 72
     1
 10
52.76135316818619
 20
61.19999999999998
 11
51.59327426876769
 21
63.14679816569758
 97
        8
330
139
330
138
330
137
330
136
330
135
330
13C
330
13B
330
13A
 92
       16
 93
        3
 72
     1
 10
50.76899526882229
 20
62.83594121547528
 11
51.34996627281308
 21
61.8676562088238
 72
     1
 10
51.34996627281308
 20
61.8676562088238
 11
50.1396100144988
 21
61.8676562088238
 72
     1
 10
50.1396100144988
 20
61.8676562088238
 11
50.76899526882229
 21
62.83594121547528
 97
        3
330
132
330
133
330
134
 75
     1
 76
     0
 52
90.00000000000001
 41
0.1
 77
     0
 78
     1
 53
90.00000000000001
 43
0.0
 44
0.0
 45
-0.1
 46
0.0
 79
     0
 98
        1
 10
0.0
 20
0.0
  0
HATCH
  5
315
330
1F
100
AcDbEntity
  8
1
  6
Continuous
 62
     4
100
AcDbHatch
 10
0.0
 20
0.0
 30
0.0
210
0.0
220
0.0
230
1.0
  2
_USER
 70
     0
 71
     1
 91
        1
 92
        1
 93
       15
 72
     1
 10
48.36297140414388
 20
63.14679816569758
 11
48.36297140414388
 21
61.19999999999998
 72
     1
 10
48.36297140414388
 20
61.19999999999998
 11
47.52847059224959
 21
61.19999999999998
 72
     1
 10
47.52847059224959
 20
61.19999999999998
 11
47.52847059224959
 21
62.8574267678758
 72
     1
 10
47.52847059224959
 20
62.8574267678758
 11
47.3059217637593
 21
62.8574267678758
 72
     1
 10
47.3059217637593
 20
62.8574267678758
 11
46.73439529207789
 21
61.19999999999998
 72
     1
 10
46.73439529207789
 20
61.19999999999998
 11
45.705765697668
 21
61.19999999999998
 72
     1
 10
45.705765697668
 20
61.19999999999998
 11
45.07708657881849
 21
62.8574267678758
 72
     1
 10
45.07708657881849
 20
62.8574267678758
 11
44.85923473966369
 21
62.8574267678758
 72
     1
 10
44.85923473966369
 20
62.8574267678758
 11
44.85923473966369
 21
61.19999999999998
 72
     1
 10
44.85923473966369
 20
61.19999999999998
 11
44.35842313391029
 21
61.19999999999998
 72
     1
 10
44.35842313391029
 20
61.19999999999998
 11
44.35842313391029
 21
63.14679816569758
 72
     1
 10
44.35842313391029
 20
63.14679816569758
 11
45.84146901465959
 21
63.14679816569758
 72
     1
 10
45.84146901465959
 20
63.14679816569758
 11
46.3606972690271
 21
61.48526775172149
 72
     1
 10
46.3606972690271
 20
61.48526775172149
 11
46.87992552339458
 21
63.14679816569758
 72
     1
 10
46.87992552339458
 20
63.14679816569758
 11
48.36297140414388
 21
63.14679816569758
 97
       15
330
143
330
142
330
12B
330
12C
330
141
330
140
330
12A
330
12D
330
13F
330
13E
330
13D
330
147
330
146
330
145
330
144
 75
     1
 76
     0
 52
90.00000000000001
 41
0.1
 77
     0
 78
     1
 53
90.00000000000001
 43
0.0
 44
0.0
 45
-0.1
 46
0.0
 79
     0
 98
        1
 10
0.0
 20
0.0
  0
HATCH
  5
316
330
1F
100
AcDbEntity
  8
1
  6
Continuous
 62
     4
100
AcDbHatch
 10
0.0
 20
0.0
 30
0.0
210
0.0
220
0.0
230
1.0
  2
_USER
 70
     0
 71
     1
 91
        2
 92
        1
 93
        8
 72
     1
 10
42.47243596758128
 20
63.14679816569758
 11
41.29170016089589
 21
63.14679816569758
 72
     1
 10
41.29170016089589
 20
63.14679816569758
 11
40.0262813531925
 21
61.19999999999998
 72
     1
 10
40.0262813531925
 20
61.19999999999998
 11
40.58479517757678
 21
61.19999999999998
 72
     1
 10
40.58479517757678
 20
61.19999999999998
 11
40.87399248956569
 21
61.64491894152129
 72
     1
 10
40.87399248956569
 20
61.64491894152129
 11
42.36277033200818
 21
61.64491894152129
 72
     1
 10
42.36277033200818
 20
61.64491894152129
 11
42.629721696921
 21
61.19999999999998
 72
     1
 10
42.629721696921
 20
61.19999999999998
 11
43.64051486699969
 21
61.19999999999998
 72
     1
 10
43.64051486699969
 20
61.19999999999998
 11
42.47243596758128
 21
63.14679816569758
 97
        8
330
150
330
14F
330
14E
330
14D
330
14C
330
14B
330
152
330
151
 92
       16
 93
        3
 72
     1
 10
42.22912797162658
 20
61.8676562088238
 11
41.01877171331228
 21
61.8676562088238
 72
     1
 10
41.01877171331228
 20
61.8676562088238
 11
41.6481569676358
 21
62.83594121547528
 72
     1
 10
41.6481569676358
 20
62.83594121547528
 11
42.22912797162658
 21
61.8676562088238
 97
        3
330
148
330
149
330
14A
 75
     1
 76
     0
 52
90.00000000000001
 41
0.1
 77
     0
 78
     1
 53
90.00000000000001
 43
0.0
 44
0.0
 45
-0.1
 46
0.0
 79
     0
 98
        1
 10
0.0
 20
0.0
  0
HATCH
  5
317
330
1F
100
AcDbEntity
  8
1
  6
Continuous
 62
     4
100
AcDbHatch
 10
0.0
 20
0.0
 30
0.0
210
0.0
220
0.0
230
1.0
  2
_USER
 70
     0
 71
     1
 91
        1
 92
        1
 93
       12
 72
     1
 10
36.07180784807628
 20
63.14679816569758
 11
36.07180784807628
 21
61.19999999999998
 72
     1
 10
36.07180784807628
 20
61.19999999999998
 11
36.90630865997068
 21
61.19999999999998
 72
     1
 10
36.90630865997068
 20
61.19999999999998
 11
36.90630865997068
 21
62.0342230153524
 72
     1
 10
36.90630865997068
 20
62.0342230153524
 11
38.40763229106309
 21
62.0342230153524
 72
     1
 10
38.40763229106309
 20
62.0342230153524
 11
38.40763229106309
 21
61.19999999999998
 72
     1
 10
38.40763229106309
 20
61.19999999999998
 11
39.24213310295738
 21
61.19999999999998
 72
     1
 10
39.24213310295738
 20
61.19999999999998
 11
39.24213310295738
 21
63.14679816569758
 72
     1
 10
39.24213310295738
 20
63.14679816569758
 11
38.40763229106309
 21
63.14679816569758
 72
     1
 10
38.40763229106309
 20
63.14679816569758
 11
38.40763229106309
 21
62.31257515034511
 72
     1
 10
38.40763229106309
 20
62.31257515034511
 11
36.90630865997068
 21
62.31257515034511
 72
     1
 10
36.90630865997068
 20
62.31257515034511
 11
36.90630865997068
 21
63.14679816569758
 72
     1
 10
36.90630865997068
 20
63.14679816569758
 11
36.07180784807628
 21
63.14679816569758
 97
       12
330
15D
330
15C
330
15B
330
15A
330
159
330
158
330
157
330
156
330
155
330
154
330
153
330
15E
 75
     1
 76
     0
 52
90.00000000000001
 41
0.1
 77
     0
 78
     1
 53
90.00000000000001
 43
0.0
 44
0.0
 45
-0.1
 46
0.0
 79
     0
 98
        1
 10
0.0
 20
0.0
  0
HATCH
  5
318
330
1F
100
AcDbEntity
  8
1
  6
Continuous
 62
     4
100
AcDbHatch
 10
0.0
 20
0.0
 30
0.0
210
0.0
220
0.0
230
1.0
  2
_USER
 70
     0
 71
     1
 91
        1
 92
        1
 93
        4
 72
     1
 10
34.67015059092748
 20
64.655446106315
 11
34.67015059092748
 21
61.19999999999998
 72
     1
 10
34.67015059092748
 20
61.19999999999998
 11
33.37435830105939
 21
61.19999999999998
 72
     1
 10
33.37435830105939
 20
61.19999999999998
 11
33.37435830105939
 21
64.655446106315
 72
     1
 10
33.37435830105939
 20
64.655446106315
 11
34.67015059092748
 21
64.655446106315
 97
        4
330
161
330
162
330
15F
330
160
 75
     1
 76
     0
 52
90.00000000000001
 41
0.1
 77
     0
 78
     1
 53
90.00000000000001
 43
0.0
 44
0.0
 45
-0.1
 46
0.0
 79
     0
 98
        1
 10
0.0
 20
0.0
  0
HATCH
  5
319
330
1F
100
AcDbEntity
  8
1
  6
Continuous
 62
     4
100
AcDbHatch
 10
0.0
 20
0.0
 30
0.0
210
0.0
220
0.0
230
1.0
  2
_USER
 70
     0
 71
     1
 91
        1
 92
        1
 93
        4
 72
     1
 10
30.78277372132308
 20
64.655446106315
 11
30.78277372132308
 21
61.19999999999998
 72
     1
 10
30.78277372132308
 20
61.19999999999998
 11
29.48698143145499
 21
61.19999999999998
 72
     1
 10
29.48698143145499
 20
61.19999999999998
 11
29.48698143145499
 21
64.655446106315
 72
     1
 10
29.48698143145499
 20
64.655446106315
 11
30.78277372132308
 21
64.655446106315
 97
        4
330
163
330
164
330
165
330
166
 75
     1
 76
     0
 52
90.00000000000001
 41
0.1
 77
     0
 78
     1
 53
90.00000000000001
 43
0.0
 44
0.0
 45
-0.1
 46
0.0
 79
     0
 98
        1
 10
0.0
 20
0.0
  0
HATCH
  5
31A
330
1F
100
AcDbEntity
  8
1
  6
Continuous
 62
     4
100
AcDbHatch
 10
0.0
 20
0.0
 30
0.0
210
0.0
220
0.0
230
1.0
  2
_USER
 70
     0
 71
     1
 91
        1
 92
        1
 93
        4
 72
     1
 10
32.72646215612529
 20
64.655446106315
 11
32.72646215612529
 21
61.19999999999998
 72
     1
 10
32.72646215612529
 20
61.19999999999998
 11
31.43066986625719
 21
61.19999999999998
 72
     1
 10
31.43066986625719
 20
61.19999999999998
 11
31.43066986625719
 21
64.655446106315
 72
     1
 10
31.43066986625719
 20
64.655446106315
 11
32.72646215612529
 21
64.655446106315
 97
        4
330
169
330
16A
330
167
330
168
 75
     1
 76
     0
 52
90.00000000000001
 41
0.1
 77
     0
 78
     1
 53
90.00000000000001
 43
0.0
 44
0.0
 45
-0.1
 46
0.0
 79
     0
 98
        1
 10
0.0
 20
0.0
  0
HATCH
  5
31B
330
1F
100
AcDbEntity
  8
1
  6
Continuous
 62
     4
100
AcDbHatch
 10
0.0
 20
0.0
 30
0.0
210
0.0
220
0.0
230
1.0
  2
_USER
 70
     0
 71
     1
 91
        1
 92
        1
 93
        3
 72
     1
 10
26.42997810759049
 20
66.0691710837767
 11
24.99926550748879
 21
67.76616627262601
 72
     1
 10
24.99926550748879
 20
67.76616627262601
 11
25.20986461693668
 21
65.6988851034618
 72
     1
 10
25.20986461693668
 20
65.6988851034618
 11
26.42997810759049
 21
66.0691710837767
 97
        3
330
16D
330
16B
330
16C
 75
     1
 76
     0
 52
90.00000000000001
 41
0.1
 77
     0
 78
     1
 53
90.00000000000001
 43
0.0
 44
0.0
 45
-0.1
 46
0.0
 79
     0
 98
        1
 10
0.0
 20
0.0
  0
HATCH
  5
31C
330
1F
100
AcDbEntity
  8
1
  6
Continuous
 62
     4
100
AcDbHatch
 10
0.0
 20
0.0
 30
0.0
210
0.0
220
0.0
230
1.0
  2
_USER
 70
     0
 71
     1
 91
        1
 92
        1
 93
        3
 72
     1
 10
25.20986461693668
 20
59.90111489653818
 11
24.99926550748879
 21
57.83383372737398
 72
     1
 10
24.99926550748879
 20
57.83383372737398
 11
26.42997810759049
 21
59.53082891622329
 72
     1
 10
26.42997810759049
 20
59.53082891622329
 11
25.20986461693668
 21
59.90111489653818
 97
        3
330
170
330
16E
330
16F
 75
     1
 76
     0
 52
90.00000000000001
 41
0.1
 77
     0
 78
     1
 53
90.00000000000001
 43
0.0
 44
0.0
 45
-0.1
 46
0.0
 79
     0
 98
        1
 10
0.0
 20
0.0
  0
HATCH
  5
31D
330
1F
100
AcDbEntity
  8
1
  6
Continuous
 62
     4
100
AcDbHatch
 10
0.0
 20
0.0
 30
0.0
210
0.0
220
0.0
230
1.0
  2
_USER
 70
     0
 71
     1
 91
        1
 92
        1
 93
        1
 72
     2
 10
53.896511841044
 20
63.98088228277899
 40
0.6119024428627995
 50
0.0
 51
360.0
 73
     1
 97
        1
330
2C0
 75
     1
 76
     0
 52
90.00000000000001
 41
0.1
 77
     0
 78
     1
 53
90.00000000000001
 43
0.0
 44
0.0
 45
-0.1
 46
0.0
 79
     0
 98
        1
 10
0.0
 20
0.0
  0
ENDSEC
  0
SECTION
  2
OBJECTS
  0
DICTIONARY
  5
C
330
0
100
AcDbDictionary
281
     1
  3
ACAD_GROUP
350
D
  3
ACAD_LAYOUT
350
1A
  3
ACAD_MATERIAL
350
43
  3
ACAD_MLEADERSTYLE
350
320
  3
ACAD_MLINESTYLE
350
17
  3
ACAD_PLOTSETTINGS
350
19
  3
ACAD_PLOTSTYLENAME
350
E
  3
ACAD_SCALELIST
350
47
  3
ACAD_VISUALSTYLE
350
2A
  3
AcDbVariableDictionary
350
31E
  0
DICTIONARY
  5
D
102
{ACAD_REACTORS
330
C
102
}
330
C
100
AcDbDictionary
281
     1
  0
DICTIONARY
  5
1A
102
{ACAD_REACTORS
330
C
102
}
330
C
100
AcDbDictionary
281
     1
  3
Layout1
350
1E
  3
Layout2
350
26
  3
Model
350
22
  0
DICTIONARY
  5
43
102
{ACAD_REACTORS
330
C
102
}
330
C
100
AcDbDictionary
281
     1
  3
ByBlock
350
45
  3
ByLayer
350
44
  3
Global
350
46
  0
DICTIONARY
  5
320
102
{ACAD_REACTORS
330
C
102
}
330
C
100
AcDbDictionary
281
     1
  0
DICTIONARY
  5
17
102
{ACAD_REACTORS
330
C
102
}
330
C
100
AcDbDictionary
281
     1
  3
Standard
350
18
  0
DICTIONARY
  5
19
102
{ACAD_REACTORS
330
C
102
}
330
C
100
AcDbDictionary
281
     1
  0
ACDBDICTIONARYWDFLT
  5
E
102
{ACAD_REACTORS
330
C
102
}
330
C
100
AcDbDictionary
281
     1
  3
Normal
350
F
100
AcDbDictionaryWithDefault
340
F
  0
DICTIONARY
  5
47
102
{ACAD_REACTORS
330
C
102
}
330
C
100
AcDbDictionary
281
     1
  3
A0
350
48
  3
A1
350
49
  3
A2
350
4A
  3
A3
350
4B
  3
A4
350
4C
  3
A5
350
4D
  3
A6
350
4E
  3
A7
350
4F
  3
A8
350
50
  3
A9
350
51
  3
B0
350
52
  3
B1
350
53
  3
B2
350
54
  3
B3
350
55
  3
B4
350
56
  3
B5
350
57
  3
B6
350
58
  3
B7
350
59
  3
B8
350
5A
  3
B9
350
5B
  3
C0
350
5C
  3
C1
350
5D
  3
C2
350
5E
  3
C3
350
5F
  3
C4
350
60
  3
C5
350
61
  3
C6
350
62
  3
C7
350
63
  3
C8
350
64
  3
C9
350
65
  3
D0
350
66
  3
D1
350
67
  3
D2
350
68
  0
DICTIONARY
  5
2A
102
{ACAD_REACTORS
330
C
102
}
330
C
100
AcDbDictionary
281
     1
  3
2dWireframe
350
2F
  3
Basic
350
32
  3
Brighten
350
36
  3
ColorChange
350
3A
  3
Conceptual
350
34
  3
Dim
350
35
  3
EdgeColorOff
350
3D
  3
Facepattern
350
39
  3
Flat
350
2B
  3
FlatWithEdges
350
2C
  3
Gouraud
350
2D
  3
GouraudWithEdges
350
2E
  3
Hidden
350
31
  3
JitterOff
350
3B
  3
Linepattern
350
38
  3
OverhangOff
350
3C
  3
Realistic
350
33
  3
Shaded
350
42
  3
Shaded with edges
350
41
  3
Shades of Gray
350
3E
  3
Sketchy
350
3F
  3
Thicken
350
37
  3
Wireframe
350
30
  3
X-Ray
350
40
  0
DICTIONARY
  5
31E
102
{ACAD_REACTORS
330
C
102
}
330
C
100
AcDbDictionary
281
     1
  3
CANNOSCALE
350
325
  3
DIMASSOC
350
323
  3
HIDETEXT
350
324
  3
MSLTSCALE
350
326
  0
LAYOUT
  5
1E
102
{ACAD_REACTORS
330
1A
102
}
330
1A
100
AcDbPlotSettings
  1

  2
none_device
  4

  6

 40
0.0
 41
0.0
 42
0.0
 43
0.0
 44
0.0
 45
0.0
 46
0.0
 47
0.0
 48
0.0
 49
0.0
140
0.0
141
0.0
142
1.0
143
1.0
 70
   688
 72
     0
 73
     0
 74
     5
  7

 75
    16
147
1.0
148
0.0
149
0.0
100
AcDbLayout
  1
Layout1
 70
     1
 71
     1
 10
0.0
 20
0.0
 11
12.0
 21
9.0
 12
0.0
 22
0.0
 32
0.0
 14
1.00000000000000E+20
 24
1.00000000000000E+20
 34
1.00000000000000E+20
 15
-1.00000000000000E+20
 25
-1.00000000000000E+20
 35
-1.00000000000000E+20
146
0.0
 13
0.0
 23
0.0
 33
0.0
 16
1.0
 26
0.0
 36
0.0
 17
0.0
 27
1.0
 37
0.0
 76
     0
330
1B
  0
LAYOUT
  5
26
102
{ACAD_REACTORS
330
1A
102
}
330
1A
100
AcDbPlotSettings
  1

  2
none_device
  4

  6

 40
0.0
 41
0.0
 42
0.0
 43
0.0
 44
0.0
 45
0.0
 46
0.0
 47
0.0
 48
0.0
 49
0.0
140
0.0
141
0.0
142
1.0
143
1.0
 70
   688
 72
     0
 73
     0
 74
     5
  7

 75
    16
147
1.0
148
0.0
149
0.0
100
AcDbLayout
  1
Layout2
 70
     1
 71
     2
 10
0.0
 20
0.0
 11
0.0
 21
0.0
 12
0.0
 22
0.0
 32
0.0
 14
0.0
 24
0.0
 34
0.0
 15
0.0
 25
0.0
 35
0.0
146
0.0
 13
0.0
 23
0.0
 33
0.0
 16
1.0
 26
0.0
 36
0.0
 17
0.0
 27
1.0
 37
0.0
 76
     0
330
23
  0
LAYOUT
  5
22
102
{ACAD_REACTORS
330
1A
102
}
330
1A
100
AcDbPlotSettings
  1

  2
none_device
  4
Letter_(8.50_x_11.00_Inches)
  6

 40
6.35
 41
6.35
 42
6.35000508
 43
6.35000508
 44
215.9
 45
279.4
 46
0.0
 47
0.0
 48
0.0
 49
0.0
140
0.0
141
0.0
142
1.0
143
1.0
 70
  1712
 72
     0
 73
     0
 74
     0
  7

 75
     0
147
1.0
148
0.0
149
0.0
100
AcDbLayout
  1
Model
 70
     1
 71
     0
 10
0.0
 20
0.0
 11
12.0
 21
9.0
 12
0.0
 22
0.0
 32
0.0
 14
-60.01739496941036
 24
-18.098809066172
 34
0.0
 15
63.31885711200519
 25
74.3776689174492
 35
0.0
146
0.0
 13
0.0
 23
0.0
 33
0.0
 16
1.0
 26
0.0
 36
0.0
 17
0.0
 27
1.0
 37
0.0
 76
     0
330
1F
331
29
  0
MATERIAL
  5
45
102
{ACAD_REACTORS
330
43
102
}
102
{ACAD_XDICTIONARY
360
359
102
}
330
43
100
AcDbMaterial
  1
ByBlock
  0
MATERIAL
  5
44
102
{ACAD_REACTORS
330
43
102
}
102
{ACAD_XDICTIONARY
360
357
102
}
330
43
100
AcDbMaterial
  1
ByLayer
  0
MATERIAL
  5
46
102
{ACAD_REACTORS
330
43
102
}
102
{ACAD_XDICTIONARY
360
35B
102
}
330
43
100
AcDbMaterial
  1
Global
  0
MLINESTYLE
  5
18
102
{ACAD_REACTORS
330
17
102
}
330
17
100
AcDbMlineStyle
  2
Standard
 70
     0
  3

 62
   256
 51
90.0
 52
90.0
 71
     2
 49
0.5
 62
   256
  6
BYLAYER
 49
-0.5
 62
   256
  6
BYLAYER
  0
ACDBPLACEHOLDER
  5
F
102
{ACAD_REACTORS
330
E
102
}
330
E
  0
SCALE
  5
48
102
{ACAD_REACTORS
330
47
102
}
330
47
100
AcDbScale
 70
     0
300
1:1
140
1.0
141
1.0
290
     1
  0
SCALE
  5
49
102
{ACAD_REACTORS
330
47
102
}
330
47
100
AcDbScale
 70
     0
300
1:2
140
1.0
141
2.0
290
     0
  0
SCALE
  5
4A
102
{ACAD_REACTORS
330
47
102
}
330
47
100
AcDbScale
 70
     0
300
1:4
140
1.0
141
4.0
290
     0
  0
SCALE
  5
4B
102
{ACAD_REACTORS
330
47
102
}
330
47
100
AcDbScale
 70
     0
300
1:5
140
1.0
141
5.0
290
     0
  0
SCALE
  5
4C
102
{ACAD_REACTORS
330
47
102
}
330
47
100
AcDbScale
 70
     0
300
1:8
140
1.0
141
8.0
290
     0
  0
SCALE
  5
4D
102
{ACAD_REACTORS
330
47
102
}
330
47
100
AcDbScale
 70
     0
300
1:10
140
1.0
141
10.0
290
     0
  0
SCALE
  5
4E
102
{ACAD_REACTORS
330
47
102
}
330
47
100
AcDbScale
 70
     0
300
1:16
140
1.0
141
16.0
290
     0
  0
SCALE
  5
4F
102
{ACAD_REACTORS
330
47
102
}
330
47
100
AcDbScale
 70
     0
300
1:20
140
1.0
141
20.0
290
     0
  0
SCALE
  5
50
102
{ACAD_REACTORS
330
47
102
}
330
47
100
AcDbScale
 70
     0
300
1:30
140
1.0
141
30.0
290
     0
  0
SCALE
  5
51
102
{ACAD_REACTORS
330
47
102
}
330
47
100
AcDbScale
 70
     0
300
1:40
140
1.0
141
40.0
290
     0
  0
SCALE
  5
52
102
{ACAD_REACTORS
330
47
102
}
330
47
100
AcDbScale
 70
     0
300
1:50
140
1.0
141
50.0
290
     0
  0
SCALE
  5
53
102
{ACAD_REACTORS
330
47
102
}
330
47
100
AcDbScale
 70
     0
300
1:100
140
1.0
141
100.0
290
     0
  0
SCALE
  5
54
102
{ACAD_REACTORS
330
47
102
}
330
47
100
AcDbScale
 70
     0
300
2:1
140
2.0
141
1.0
290
     0
  0
SCALE
  5
55
102
{ACAD_REACTORS
330
47
102
}
330
47
100
AcDbScale
 70
     0
300
4:1
140
4.0
141
1.0
290
     0
  0
SCALE
  5
56
102
{ACAD_REACTORS
330
47
102
}
330
47
100
AcDbScale
 70
     0
300
8:1
140
8.0
141
1.0
290
     0
  0
SCALE
  5
57
102
{ACAD_REACTORS
330
47
102
}
330
47
100
AcDbScale
 70
     0
300
10:1
140
10.0
141
1.0
290
     0
  0
SCALE
  5
58
102
{ACAD_REACTORS
330
47
102
}
330
47
100
AcDbScale
 70
     0
300
100:1
140
100.0
141
1.0
290
     0
  0
SCALE
  5
59
102
{ACAD_REACTORS
330
47
102
}
330
47
100
AcDbScale
 70
     0
300
1/128" = 1'-0"
140
0.0078125
141
12.0
290
     0
  0
SCALE
  5
5A
102
{ACAD_REACTORS
330
47
102
}
330
47
100
AcDbScale
 70
     0
300
1/64" = 1'-0"
140
0.015625
141
12.0
290
     0
  0
SCALE
  5
5B
102
{ACAD_REACTORS
330
47
102
}
330
47
100
AcDbScale
 70
     0
300
1/32" = 1'-0"
140
0.03125
141
12.0
290
     0
  0
SCALE
  5
5C
102
{ACAD_REACTORS
330
47
102
}
330
47
100
AcDbScale
 70
     0
300
1/16" = 1'-0"
140
0.0625
141
12.0
290
     0
  0
SCALE
  5
5D
102
{ACAD_REACTORS
330
47
102
}
330
47
100
AcDbScale
 70
     0
300
3/32" = 1'-0"
140
0.09375
141
12.0
290
     0
  0
SCALE
  5
5E
102
{ACAD_REACTORS
330
47
102
}
330
47
100
AcDbScale
 70
     0
300
1/8" = 1'-0"
140
0.125
141
12.0
290
     0
  0
SCALE
  5
5F
102
{ACAD_REACTORS
330
47
102
}
330
47
100
AcDbScale
 70
     0
300
3/16" = 1'-0"
140
0.1875
141
12.0
290
     0
  0
SCALE
  5
60
102
{ACAD_REACTORS
330
47
102
}
330
47
100
AcDbScale
 70
     0
300
1/4" = 1'-0"
140
0.25
141
12.0
290
     0
  0
SCALE
  5
61
102
{ACAD_REACTORS
330
47
102
}
330
47
100
AcDbScale
 70
     0
300
3/8" = 1'-0"
140
0.375
141
12.0
290
     0
  0
SCALE
  5
62
102
{ACAD_REACTORS
330
47
102
}
330
47
100
AcDbScale
 70
     0
300
1/2" = 1'-0"
140
0.5
141
12.0
290
     0
  0
SCALE
  5
63
102
{ACAD_REACTORS
330
47
102
}
330
47
100
AcDbScale
 70
     0
300
3/4" = 1'-0"
140
0.75
141
12.0
290
     0
  0
SCALE
  5
64
102
{ACAD_REACTORS
330
47
102
}
330
47
100
AcDbScale
 70
     0
300
1" = 1'-0"
140
1.0
141
12.0
290
     0
  0
SCALE
  5
65
102
{ACAD_REACTORS
330
47
102
}
330
47
100
AcDbScale
 70
     0
300
1-1/2" = 1'-0"
140
1.5
141
12.0
290
     0
  0
SCALE
  5
66
102
{ACAD_REACTORS
330
47
102
}
330
47
100
AcDbScale
 70
     0
300
3" = 1'-0"
140
3.0
141
12.0
290
     0
  0
SCALE
  5
67
102
{ACAD_REACTORS
330
47
102
}
330
47
100
AcDbScale
 70
     0
300
6" = 1'-0"
140
6.0
141
12.0
290
     0
  0
SCALE
  5
68
102
{ACAD_REACTORS
330
47
102
}
330
47
100
AcDbScale
 70
     0
300
1'-0" = 1'-0"
140
12.0
141
12.0
290
     0
  0
VISUALSTYLE
  5
2F
102
{ACAD_REACTORS
330
2A
102
}
102
{ACAD_XDICTIONARY
360
32F
102
}
330
2A
100
AcDbVisualStyle
  2
2dWireframe
 70
     4
 71
     0
 72
     2
 73
     0
 90
        0
 40
0.6
 41
30.0
 62
     5
 63
     7
 74
     1
 91
        4
 64
     7
 65
   257
 75
     1
175
     1
 42
1.0
 92
        0
 66
   257
 43
1.0
 76
     1
 77
     6
 78
     2
 67
     7
 79
     5
170
     0
171
     0
290
     0
174
     0
 93
        1
 44
0.0
173
     0
291
     0
 45
0.0
1001
ACAD
1000
AcDbSavedByObjectVersion
1070
     0
  0
VISUALSTYLE
  5
32
102
{ACAD_REACTORS
330
2A
102
}
102
{ACAD_XDICTIONARY
360
335
102
}
330
2A
100
AcDbVisualStyle
  2
Basic
 70
     7
 71
     1
 72
     0
 73
     1
 90
        0
 40
0.6
 41
30.0
 62
     5
 63
     7
 74
     0
 91
        4
 64
     7
 65
   257
 75
     1
175
     1
 42
1.0
 92
        8
 66
     7
 43
1.0
 76
     1
 77
     6
 78
     2
 67
     7
 79
     5
170
     0
171
     0
290
     0
174
     0
 93
        1
 44
0.0
173
     0
291
     1
 45
0.0
1001
ACAD
1000
AcDbSavedByObjectVersion
1070
     0
  0
VISUALSTYLE
  5
36
102
{ACAD_REACTORS
330
2A
102
}
102
{ACAD_XDICTIONARY
360
33D
102
}
330
2A
100
AcDbVisualStyle
  2
Brighten
 70
    12
 71
     2
 72
     2
 73
     0
 90
        0
 40
0.6
 41
30.0
 62
     5
 63
     7
 74
     1
 91
        4
 64
     7
 65
   257
 75
     1
175
     1
 42
1.0
 92
        8
 66
     7
 43
1.0
 76
     1
 77
     6
 78
     2
 67
     7
 79
     5
170
     0
171
     0
290
     0
174
     0
 93
        1
 44
50.0
173
     0
291
     1
 45
0.0
1001
ACAD
1000
AcDbSavedByObjectVersion
1070
     0
  0
VISUALSTYLE
  5
3A
102
{ACAD_REACTORS
330
2A
102
}
102
{ACAD_XDICTIONARY
360
345
102
}
330
2A
100
AcDbVisualStyle
  2
ColorChange
 70
    16
 71
     2
 72
     2
 73
     3
 90
        0
 40
0.6
 41
30.0
 62
     5
 63
     8
 74
     1
 91
        4
 64
     7
 65
   257
 75
     1
175
     1
 42
1.0
 92
        8
 66
     8
 43
1.0
 76
     1
 77
     6
 78
     2
 67
     7
 79
     5
170
     0
171
     0
290
     0
174
     0
 93
        1
 44
0.0
173
     0
291
     1
 45
0.0
1001
ACAD
1000
AcDbSavedByObjectVersion
1070
     0
  0
VISUALSTYLE
  5
34
102
{ACAD_REACTORS
330
2A
102
}
102
{ACAD_XDICTIONARY
360
339
102
}
330
2A
100
AcDbVisualStyle
  2
Conceptual
 70
     9
 71
     3
 72
     2
 73
     0
 90
        0
 40
0.6
 41
30.0
 62
     5
 63
     7
 74
     2
 91
        2
 64
     7
 65
   257
 75
     1
175
     1
 42
179.0
 92
        8
 66
     7
 43
1.0
 76
     1
 77
     6
 78
     2
 67
     7
 79
     3
170
     0
171
     0
290
     0
174
     0
 93
        1
 44
0.0
173
     0
291
     0
 45
0.0
1001
ACAD
1000
AcDbSavedByObjectVersion
1070
     0
  0
VISUALSTYLE
  5
35
102
{ACAD_REACTORS
330
2A
102
}
102
{ACAD_XDICTIONARY
360
33B
102
}
330
2A
100
AcDbVisualStyle
  2
Dim
 70
    11
 71
     2
 72
     2
 73
     0
 90
        0
 40
0.6
 41
30.0
 62
     5
 63
     7
 74
     1
 91
        4
 64
     7
 65
   257
 75
     1
175
     1
 42
1.0
 92
        8
 66
     7
 43
1.0
 76
     1
 77
     6
 78
     2
 67
     7
 79
     5
170
     0
171
     0
290
     0
174
     0
 93
        1
 44
-50.0
173
     0
291
     1
 45
0.0
1001
ACAD
1000
AcDbSavedByObjectVersion
1070
     0
  0
VISUALSTYLE
  5
3D
102
{ACAD_REACTORS
330
2A
102
}
102
{ACAD_XDICTIONARY
360
34B
102
}
330
2A
100
AcDbVisualStyle
  2
EdgeColorOff
 70
    22
 71
     2
 72
     2
 73
     0
 90
        0
 40
0.6
 41
30.0
 62
     5
 63
     7
 74
     1
 91
        4
 64
     7
 65
   257
 75
     1
175
     1
 42
1.0
 92
        8
 66
     7
 43
1.0
 76
     1
 77
     6
 78
     2
 67
     7
 79
     5
170
     0
171
     0
290
     0
174
     0
 93
        1
 44
0.0
173
     0
291
     1
 45
0.0
1001
ACAD
1000
AcDbSavedByObjectVersion
1070
     0
  0
VISUALSTYLE
  5
39
102
{ACAD_REACTORS
330
2A
102
}
102
{ACAD_XDICTIONARY
360
343
102
}
330
2A
100
AcDbVisualStyle
  2
Facepattern
 70
    15
 71
     2
 72
     2
 73
     0
 90
        0
 40
0.6
 41
30.0
 62
     5
 63
     7
 74
     1
 91
        4
 64
     7
 65
   257
 75
     1
175
     1
 42
1.0
 92
        8
 66
     7
 43
1.0
 76
     1
 77
     6
 78
     2
 67
     7
 79
     5
170
     0
171
     0
290
     0
174
     0
 93
        1
 44
0.0
173
     0
291
     1
 45
0.0
1001
ACAD
1000
AcDbSavedByObjectVersion
1070
     0
  0
VISUALSTYLE
  5
2B
102
{ACAD_REACTORS
330
2A
102
}
102
{ACAD_XDICTIONARY
360
327
102
}
330
2A
100
AcDbVisualStyle
  2
Flat
 70
     0
 71
     2
 72
     1
 73
     1
 90
        2
 40
0.6
 41
30.0
 62
     5
 63
     7
 74
     0
 91
        0
 64
     7
 65
   257
 75
     1
175
     1
 42
1.0
 92
        8
 66
     7
 43
1.0
 76
     1
 77
     6
 78
     2
 67
     7
 79
     5
170
     0
171
     0
290
     0
174
     0
 93
       13
 44
0.0
173
     0
291
     1
 45
0.0
1001
ACAD
1000
AcDbSavedByObjectVersion
1070
     0
  0
VISUALSTYLE
  5
2C
102
{ACAD_REACTORS
330
2A
102
}
102
{ACAD_XDICTIONARY
360
329
102
}
330
2A
100
AcDbVisualStyle
  2
FlatWithEdges
 70
     1
 71
     2
 72
     1
 73
     1
 90
        2
 40
0.6
 41
30.0
 62
     5
 63
     7
 74
     1
 91
        0
 64
     7
 65
   257
 75
     1
175
     1
 42
1.0
 92
        0
 66
   257
 43
1.0
 76
     1
 77
     6
 78
     2
 67
     7
 79
     5
170
     0
171
     0
290
     0
174
     0
 93
       13
 44
0.0
173
     0
291
     1
 45
0.0
1001
ACAD
1000
AcDbSavedByObjectVersion
1070
     0
  0
VISUALSTYLE
  5
2D
102
{ACAD_REACTORS
330
2A
102
}
102
{ACAD_XDICTIONARY
360
32B
102
}
330
2A
100
AcDbVisualStyle
  2
Gouraud
 70
     2
 71
     2
 72
     2
 73
     1
 90
        2
 40
0.6
 41
30.0
 62
     5
 63
     7
 74
     0
 91
        0
 64
     7
 65
   257
 75
     1
175
     1
 42
1.0
 92
        0
 66
     7
 43
1.0
 76
     1
 77
     6
 78
     2
 67
     7
 79
     5
170
     0
171
     0
290
     0
174
     0
 93
       13
 44
0.0
173
     0
291
     1
 45
0.0
1001
ACAD
1000
AcDbSavedByObjectVersion
1070
     0
  0
VISUALSTYLE
  5
2E
102
{ACAD_REACTORS
330
2A
102
}
102
{ACAD_XDICTIONARY
360
32D
102
}
330
2A
100
AcDbVisualStyle
  2
GouraudWithEdges
 70
     3
 71
     2
 72
     2
 73
     1
 90
        2
 40
0.6
 41
30.0
 62
     5
 63
     7
 74
     1
 91
        0
 64
     7
 65
   257
 75
     1
175
     1
 42
1.0
 92
        0
 66
   257
 43
1.0
 76
     1
 77
     6
 78
     2
 67
     7
 79
     5
170
     0
171
     0
290
     0
174
     0
 93
       13
 44
0.0
173
     0
291
     1
 45
0.0
1001
ACAD
1000
AcDbSavedByObjectVersion
1070
     0
  0
VISUALSTYLE
  5
31
102
{ACAD_REACTORS
330
2A
102
}
102
{ACAD_XDICTIONARY
360
333
102
}
330
2A
100
AcDbVisualStyle
  2
Hidden
 70
     6
 71
     1
 72
     2
 73
     2
 90
        0
 40
0.6
 41
30.0
 62
     5
 63
     7
 74
     2
 91
        2
 64
     7
 65
   257
 75
     2
175
     1
 42
40.0
 92
        0
 66
   257
 43
1.0
 76
     1
 77
     6
 78
     2
 67
     7
 79
     3
170
     0
171
     0
290
     0
174
     0
 93
        1
 44
0.0
173
     0
291
     0
 45
0.0
1001
ACAD
1000
AcDbSavedByObjectVersion
1070
     0
  0
VISUALSTYLE
  5
3B
102
{ACAD_REACTORS
330
2A
102
}
102
{ACAD_XDICTIONARY
360
347
102
}
330
2A
100
AcDbVisualStyle
  2
JitterOff
 70
    20
 71
     2
 72
     2
 73
     0
 90
        0
 40
0.6
 41
30.0
 62
     5
 63
     7
 74
     1
 91
        4
 64
     7
 65
   257
 75
     1
175
     1
 42
1.0
 92
       10
 66
     7
 43
1.0
 76
     1
 77
     6
 78
     2
 67
     7
 79
     5
170
     0
171
     0
290
     0
174
     0
 93
        1
 44
0.0
173
     0
291
     1
 45
0.0
1001
ACAD
1000
AcDbSavedByObjectVersion
1070
     0
  0
VISUALSTYLE
  5
38
102
{ACAD_REACTORS
330
2A
102
}
102
{ACAD_XDICTIONARY
360
341
102
}
330
2A
100
AcDbVisualStyle
  2
Linepattern
 70
    14
 71
     2
 72
     2
 73
     0
 90
        0
 40
0.6
 41
30.0
 62
     5
 63
     7
 74
     1
 91
        4
 64
     7
 65
   257
 75
     7
175
     7
 42
1.0
 92
        8
 66
     7
 43
1.0
 76
     1
 77
     6
 78
     2
 67
     7
 79
     5
170
     0
171
     0
290
     0
174
     0
 93
        1
 44
0.0
173
     0
291
     1
 45
0.0
1001
ACAD
1000
AcDbSavedByObjectVersion
1070
     0
  0
VISUALSTYLE
  5
3C
102
{ACAD_REACTORS
330
2A
102
}
102
{ACAD_XDICTIONARY
360
349
102
}
330
2A
100
AcDbVisualStyle
  2
OverhangOff
 70
    21
 71
     2
 72
     2
 73
     0
 90
        0
 40
0.6
 41
30.0
 62
     5
 63
     7
 74
     1
 91
        4
 64
     7
 65
   257
 75
     1
175
     1
 42
1.0
 92
        9
 66
     7
 43
1.0
 76
     1
 77
     6
 78
     2
 67
     7
 79
     5
170
     0
171
     0
290
     0
174
     0
 93
        1
 44
0.0
173
     0
291
     1
 45
0.0
1001
ACAD
1000
AcDbSavedByObjectVersion
1070
     0
  0
VISUALSTYLE
  5
33
102
{ACAD_REACTORS
330
2A
102
}
102
{ACAD_XDICTIONARY
360
337
102
}
330
2A
100
AcDbVisualStyle
  2
Realistic
 70
     8
 71
     2
 72
     3
 73
     0
 90
        2
 40
0.6
 41
30.0
 62
     5
 63
     7
 74
     0
 91
        0
 64
     7
 65
   257
 75
     1
175
     1
 42
1.0
 92
        8
 66
   257
 43
1.0
 76
     1
 77
     6
 78
     2
 67
     7
 79
     3
170
     0
171
     0
290
     0
174
     0
 93
       13
 44
0.0
173
     0
291
     0
 45
0.0
1001
ACAD
1000
AcDbSavedByObjectVersion
1070
     0
  0
VISUALSTYLE
  5
42
102
{ACAD_REACTORS
330
2A
102
}
102
{ACAD_XDICTIONARY
360
355
102
}
330
2A
100
AcDbVisualStyle
  2
Shaded
 70
    27
 71
     2
 72
     2
 73
     1
 90
        2
 40
0.6
 41
30.0
 62
     5
 63
     7
 74
     0
 91
        4
 64
     7
 65
   257
 75
     1
175
     1
 42
1.0
 92
        8
 66
   257
 43
1.0
 76
     1
 77
     6
 78
     2
 67
     8
 79
     3
170
     0
171
     0
290
     0
174
     0
 93
        5
 44
0.0
173
     0
291
     0
 45
0.0
1001
ACAD
1000
AcDbSavedByObjectVersion
1070
     0
  0
VISUALSTYLE
  5
41
102
{ACAD_REACTORS
330
2A
102
}
102
{ACAD_XDICTIONARY
360
353
102
}
330
2A
100
AcDbVisualStyle
  2
Shaded with edges
 70
    26
 71
     2
 72
     2
 73
     1
 90
        2
 40
0.6
 41
30.0
 62
     5
 63
     7
 74
     1
 91
       10
 64
     7
 65
   257
 75
     2
175
     1
 42
1.0
 92
        8
 66
   257
 43
1.0
 76
     1
 77
     6
 78
     2
 67
     7
 79
     3
170
     0
171
     0
290
     0
174
     0
 93
        5
 44
0.0
173
     0
291
     0
 45
0.0
1001
ACAD
1000
AcDbSavedByObjectVersion
1070
     0
  0
VISUALSTYLE
  5
3E
102
{ACAD_REACTORS
330
2A
102
}
102
{ACAD_XDICTIONARY
360
34D
102
}
330
2A
100
AcDbVisualStyle
  2
Shades of Gray
 70
    23
 71
     2
 72
     2
 73
     3
 90
        0
 40
0.6
 41
30.0
 62
     5
 63
     7
 74
     2
 91
        2
 64
     7
 65
     7
 75
     1
175
     1
 42
40.0
 92
        8
 66
     7
 43
1.0
 76
     1
 77
     6
 78
     2
 67
     7
 79
     3
170
     0
171
     0
290
     0
174
     0
 93
        1
 44
0.0
173
     0
291
     0
 45
0.0
1001
ACAD
1000
AcDbSavedByObjectVersion
1070
     0
  0
VISUALSTYLE
  5
3F
102
{ACAD_REACTORS
330
2A
102
}
102
{ACAD_XDICTIONARY
360
34F
102
}
330
2A
100
AcDbVisualStyle
  2
Sketchy
 70
    24
 71
     1
 72
     2
 73
     2
 90
        0
 40
0.6
 41
30.0
 62
     5
 63
     7
 74
     2
 91
        2
 64
     7
 65
     7
 75
     1
175
     1
 42
40.0
 92
       11
 66
     7
 43
1.0
 76
     1
 77
     6
 78
     2
 67
     7
 79
     6
170
     0
171
     0
290
     0
174
     0
 93
        1
 44
0.0
173
     0
291
     0
 45
0.0
1001
ACAD
1000
AcDbSavedByObjectVersion
1070
     0
  0
VISUALSTYLE
  5
37
102
{ACAD_REACTORS
330
2A
102
}
102
{ACAD_XDICTIONARY
360
33F
102
}
330
2A
100
AcDbVisualStyle
  2
Thicken
 70
    13
 71
     2
 72
     2
 73
     0
 90
        0
 40
0.6
 41
30.0
 62
     5
 63
     7
 74
     1
 91
        4
 64
     7
 65
   257
 75
     1
175
     1
 42
1.0
 92
       12
 66
     7
 43
1.0
 76
     1
 77
     6
 78
     2
 67
     7
 79
     5
170
     0
171
     0
290
     0
174
     0
 93
        1
 44
0.0
173
     0
291
     1
 45
0.0
1001
ACAD
1000
AcDbSavedByObjectVersion
1070
     0
  0
VISUALSTYLE
  5
30
102
{ACAD_REACTORS
330
2A
102
}
102
{ACAD_XDICTIONARY
360
331
102
}
330
2A
100
AcDbVisualStyle
  2
Wireframe
 70
     5
 71
     0
 72
     2
 73
     0
 90
        0
 40
0.6
 41
30.0
 62
     5
 63
     7
 74
     1
 91
        4
 64
     7
 65
   257
 75
     1
175
     1
 42
1.0
 92
        0
 66
   257
 43
1.0
 76
     1
 77
     6
 78
     2
 67
     7
 79
     3
170
     0
171
     0
290
     0
174
     0
 93
        1
 44
0.0
173
     0
291
     0
 45
0.0
1001
ACAD
1000
AcDbSavedByObjectVersion
1070
     0
  0
VISUALSTYLE
  5
40
102
{ACAD_REACTORS
330
2A
102
}
102
{ACAD_XDICTIONARY
360
351
102
}
330
2A
100
AcDbVisualStyle
  2
X-Ray
 70
    25
 71
     2
 72
     2
 73
     1
 90
        1
 40
0.5
 41
30.0
 62
     5
 63
     7
 74
     1
 91
        0
 64
     7
 65
   257
 75
     1
175
     1
 42
1.0
 92
        8
 66
     7
 43
1.0
 76
     1
 77
     6
 78
     2
 67
     7
 79
     3
170
     0
171
     0
290
     0
174
     0
 93
       13
 44
0.0
173
     0
291
     0
 45
0.0
1001
ACAD
1000
AcDbSavedByObjectVersion
1070
     0
  0
DICTIONARYVAR
  5
325
102
{ACAD_REACTORS
330
31E
102
}
330
31E
100
DictionaryVariables
280
     0
  1
1:1
  0
DICTIONARYVAR
  5
323
102
{ACAD_REACTORS
330
31E
102
}
330
31E
100
DictionaryVariables
280
     0
  1
2
  0
DICTIONARYVAR
  5
324
102
{ACAD_REACTORS
330
31E
102
}
330
31E
100
DictionaryVariables
280
     0
  1
1
  0
DICTIONARYVAR
  5
326
102
{ACAD_REACTORS
330
31E
102
}
330
31E
100
DictionaryVariables
280
     0
  1
1
  0
DICTIONARY
  5
359
330
45
100
AcDbDictionary
280
     1
281
     1
  3
ACAD_XREC_ROUNDTRIP
360
35A
  0
DICTIONARY
  5
357
330
44
100
AcDbDictionary
280
     1
281
     1
  3
ACAD_XREC_ROUNDTRIP
360
358
  0
DICTIONARY
  5
35B
330
46
100
AcDbDictionary
280
     1
281
     1
  3
ACAD_XREC_ROUNDTRIP
360
35C
  0
DICTIONARY
  5
32F
330
2F
100
AcDbDictionary
280
     1
281
     1
  3
ACAD_XREC_ROUNDTRIP
360
330
  0
DICTIONARY
  5
335
330
32
100
AcDbDictionary
280
     1
281
     1
  3
ACAD_XREC_ROUNDTRIP
360
336
  0
DICTIONARY
  5
33D
330
36
100
AcDbDictionary
280
     1
281
     1
  3
ACAD_XREC_ROUNDTRIP
360
33E
  0
DICTIONARY
  5
345
330
3A
100
AcDbDictionary
280
     1
281
     1
  3
ACAD_XREC_ROUNDTRIP
360
346
  0
DICTIONARY
  5
339
330
34
100
AcDbDictionary
280
     1
281
     1
  3
ACAD_XREC_ROUNDTRIP
360
33A
  0
DICTIONARY
  5
33B
330
35
100
AcDbDictionary
280
     1
281
     1
  3
ACAD_XREC_ROUNDTRIP
360
33C
  0
DICTIONARY
  5
34B
330
3D
100
AcDbDictionary
280
     1
281
     1
  3
ACAD_XREC_ROUNDTRIP
360
34C
  0
DICTIONARY
  5
343
330
39
100
AcDbDictionary
280
     1
281
     1
  3
ACAD_XREC_ROUNDTRIP
360
344
  0
DICTIONARY
  5
327
330
2B
100
AcDbDictionary
280
     1
281
     1
  3
ACAD_XREC_ROUNDTRIP
360
328
  0
DICTIONARY
  5
329
330
2C
100
AcDbDictionary
280
     1
281
     1
  3
ACAD_XREC_ROUNDTRIP
360
32A
  0
DICTIONARY
  5
32B
330
2D
100
AcDbDictionary
280
     1
281
     1
  3
ACAD_XREC_ROUNDTRIP
360
32C
  0
DICTIONARY
  5
32D
330
2E
100
AcDbDictionary
280
     1
281
     1
  3
ACAD_XREC_ROUNDTRIP
360
32E
  0
DICTIONARY
  5
333
330
31
100
AcDbDictionary
280
     1
281
     1
  3
ACAD_XREC_ROUNDTRIP
360
334
  0
DICTIONARY
  5
347
330
3B
100
AcDbDictionary
280
     1
281
     1
  3
ACAD_XREC_ROUNDTRIP
360
348
  0
DICTIONARY
  5
341
330
38
100
AcDbDictionary
280
     1
281
     1
  3
ACAD_XREC_ROUNDTRIP
360
342
  0
DICTIONARY
  5
349
330
3C
100
AcDbDictionary
280
     1
281
     1
  3
ACAD_XREC_ROUNDTRIP
360
34A
  0
DICTIONARY
  5
337
330
33
100
AcDbDictionary
280
     1
281
     1
  3
ACAD_XREC_ROUNDTRIP
360
338
  0
DICTIONARY
  5
355
330
42
100
AcDbDictionary
280
     1
281
     1
  3
ACAD_XREC_ROUNDTRIP
360
356
  0
DICTIONARY
  5
353
330
41
100
AcDbDictionary
280
     1
281
     1
  3
ACAD_XREC_ROUNDTRIP
360
354
  0
DICTIONARY
  5
34D
330
3E
100
AcDbDictionary
280
     1
281
     1
  3
ACAD_XREC_ROUNDTRIP
360
34E
  0
DICTIONARY
  5
34F
330
3F
100
AcDbDictionary
280
     1
281
     1
  3
ACAD_XREC_ROUNDTRIP
360
350
  0
DICTIONARY
  5
33F
330
37
100
AcDbDictionary
280
     1
281
     1
  3
ACAD_XREC_ROUNDTRIP
360
340
  0
DICTIONARY
  5
331
330
30
100
AcDbDictionary
280
     1
281
     1
  3
ACAD_XREC_ROUNDTRIP
360
332
  0
DICTIONARY
  5
351
330
40
100
AcDbDictionary
280
     1
281
     1
  3
ACAD_XREC_ROUNDTRIP
360
352
  0
XRECORD
  5
35A
102
{ACAD_REACTORS
330
359
102
}
330
359
100
AcDbXrecord
280
     1
102
MATERIAL
148
0.0
149
0.0
149
0.0
 93
        0
 94
      127
282
     0
 72
     1
 77
     1
171
     1
175
     1
179
     1
273
     0
  0
XRECORD
  5
358
102
{ACAD_REACTORS
330
357
102
}
330
357
100
AcDbXrecord
280
     1
102
MATERIAL
148
0.0
149
0.0
149
0.0
 93
        0
 94
      127
282
     0
 72
     1
 77
     1
171
     1
175
     1
179
     1
273
     0
  0
XRECORD
  5
35C
102
{ACAD_REACTORS
330
35B
102
}
330
35B
100
AcDbXrecord
280
     1
102
MATERIAL
148
0.0
149
0.0
149
0.0
 93
        0
 94
      127
282
     0
 72
     1
 77
     1
171
     1
175
     1
179
     1
273
     0
  0
XRECORD
  5
330
102
{ACAD_REACTORS
330
32F
102
}
330
32F
100
AcDbXrecord
280
     1
102
RTVSPropertyOp0
 70
     1
102
RTVSPropertyOp1
 70
     1
102
RTVSPropertyOp2
 70
     1
102
RTVSPropertyOp3
 70
     1
102
RTVSPropertyOp4
 70
     1
102
RTVSPropertyOp5
 70
     1
102
RTVSPropertyOp6
 70
     1
102
RTVSPropertyOp7
 70
     1
102
RTVSPropertyOp8
 70
     1
102
RTVSPropertyOp9
 70
     1
102
RTVSPropertyOp10
 70
     1
102
RTVSPropertyOp11
 70
     1
102
RTVSPropertyOp12
 70
     1
102
RTVSPropertyOp13
 70
     1
102
RTVSPropertyOp14
 70
     1
102
RTVSPropertyOp15
 70
     1
102
RTVSPropertyOp16
 70
     1
102
RTVSPropertyOp17
 70
     1
102
RTVSPropertyOp18
 70
     1
102
RTVSPropertyOp19
 70
     1
102
RTVSPropertyOp20
 70
     1
102
RTVSPropertyOp21
 70
     1
102
RTVSPropertyOp22
 70
     1
102
RTVSPropertyOp23
 70
     1
102
RTVSPropertyOp24
 70
     1
102
RTVSPropertyOp25
 70
     1
102
RTVSPropertyOp26
 70
     1
102
RTVSPropertyOp27
 70
     1
102
RTVSPropertyOp28
 70
     1
102
RTVSPropertyOp29
 70
     1
102
RTVSPropertyOp30
 70
     1
102
RTVSPropertyOp31
 70
     1
102
RTVSPropertyOp32
 70
     1
102
RTVSPropertyOp33
 70
     1
102
RTVSPropertyOp34
 70
     1
102
RTVSPropertyOp35
 70
     1
102
RTVSPropertyOp36
 70
     1
102
RTVSPropertyOp37
 70
     1
102
RTVSPropertyOp38
 70
     1
102
RTVSPropertyOp39
 70
     1
102
RTVSPropertyOp40
 70
     1
102
RTVSPropertyOp41
 70
     1
102
RTVSPropertyOp42
 70
     1
102
RTVSPropertyOp43
 70
     1
102
RTVSPropertyOp44
 70
     1
102
RTVSPropertyOp45
 70
     1
102
RTVSPropertyOp46
 70
     1
102
RTVSPropertyOp47
 70
     1
102
RTVSPropertyOp48
 70
     1
102
RTVSPropertyOp49
 70
     1
102
RTVSPropertyOp50
 70
     1
102
RTVSPropertyOp51
 70
     0
102
RTVSPropertyOp52
 70
     0
102
RTVSPropertyOp53
 70
     1
102
RTVSPropertyOp54
 70
     1
102
RTVSPropertyOp55
 70
     1
102
RTVSPropertyOp56
 70
     1
102
RTVSPropertyOp57
 70
     1
102
RTVSPost2010Prop28
280
     1
102
RTVSPost2010PropOp28
 70
     1
102
RTVSPost2010Prop29
280
     1
102
RTVSPost2010PropOp29
 70
     1
102
RTVSPost2010Prop30
280
     0
102
RTVSPost2010PropOp30
 70
     1
102
RTVSPost2010Prop31
280
     0
102
RTVSPost2010PropOp31
 70
     1
102
RTVSPost2010Prop32
280
     0
102
RTVSPost2010PropOp32
 70
     1
102
RTVSPost2010Prop33
280
     0
102
RTVSPost2010PropOp33
 70
     1
102
RTVSPost2010Prop34
280
     0
102
RTVSPost2010PropOp34
 70
     1
102
RTVSPost2010Prop35
280
     0
102
RTVSPost2010PropOp35
 70
     1
102
RTVSPost2010Prop36
280
     0
102
RTVSPost2010PropOp36
 70
     1
102
RTVSPost2010Prop37
 90
       50
102
RTVSPost2010PropOp37
 70
     1
102
RTVSPost2010Prop38
140
0.0
102
RTVSPost2010PropOp38
 70
     1
102
RTVSPost2010Prop39
140
1.0
102
RTVSPost2010PropOp39
 70
     1
102
RTVSPost2010Prop40
 90
        0
102
RTVSPost2010PropOp40
 70
     1
102
RTVSPost2010Prop41ColorIndex
 90
       18
102
RTVSPost2010Prop41ColorRGB
 90
        0
102
RTVSPost2010PropOp41
 70
     1
102
RTVSPost2010Prop42
 90
       50
102
RTVSPost2010PropOp42
 70
     1
102
RTVSPost2010Prop43
 90
        3
102
RTVSPost2010PropOp43
 70
     1
102
RTVSPost2010Prop44ColorIndex
 90
        5
102
RTVSPost2010Prop44ColorRGB
 90
      255
102
RTVSPost2010PropOp44
 70
     1
102
RTVSPost2010Prop45
280
     0
102
RTVSPost2010PropOp45
 70
     1
102
RTVSPost2010Prop46
 90
       50
102
RTVSPost2010PropOp46
 70
     1
102
RTVSPost2010Prop47
 90
       50
102
RTVSPost2010PropOp47
 70
     1
102
RTVSPost2010Prop48
 90
       50
102
RTVSPost2010PropOp48
 70
     1
102
RTVSPost2010Prop49
280
     0
102
RTVSPost2010PropOp49
 70
     1
102
RTVSPost2010Prop50
 90
       50
102
RTVSPost2010PropOp50
 70
     1
102
RTVSPost2010Prop51ColorIndex
 90
      256
102
RTVSPost2010Prop51ColorRGB
 90
-16777216
102
RTVSPost2010PropOp51
 70
     0
102
RTVSPost2010Prop52
140
1.0
102
RTVSPost2010PropOp52
 70
     0
102
RTVSPost2010Prop53
 90
        2
102
RTVSPost2010PropOp53
 70
     1
102
RTVSPost2010Prop54
  1
strokes_ogs.tif
102
RTVSPost2010PropOp54
 70
     1
102
RTVSPost2010Prop55
280
     0
102
RTVSPost2010PropOp55
 70
     1
102
RTVSPost2010Prop56
140
1.0
102
RTVSPost2010PropOp56
 70
     1
102
RTVSPost2010Prop57
140
1.0
102
RTVSPost2010PropOp57
 70
     1
  0
XRECORD
  5
336
102
{ACAD_REACTORS
330
335
102
}
330
335
100
AcDbXrecord
280
     1
102
RTVSPropertyOp0
 70
     1
102
RTVSPropertyOp1
 70
     1
102
RTVSPropertyOp2
 70
     1
102
RTVSPropertyOp3
 70
     1
102
RTVSPropertyOp4
 70
     1
102
RTVSPropertyOp5
 70
     1
102
RTVSPropertyOp6
 70
     1
102
RTVSPropertyOp7
 70
     1
102
RTVSPropertyOp8
 70
     1
102
RTVSPropertyOp9
 70
     1
102
RTVSPropertyOp10
 70
     1
102
RTVSPropertyOp11
 70
     1
102
RTVSPropertyOp12
 70
     1
102
RTVSPropertyOp13
 70
     1
102
RTVSPropertyOp14
 70
     1
102
RTVSPropertyOp15
 70
     1
102
RTVSPropertyOp16
 70
     1
102
RTVSPropertyOp17
 70
     1
102
RTVSPropertyOp18
 70
     1
102
RTVSPropertyOp19
 70
     1
102
RTVSPropertyOp20
 70
     1
102
RTVSPropertyOp21
 70
     1
102
RTVSPropertyOp22
 70
     1
102
RTVSPropertyOp23
 70
     1
102
RTVSPropertyOp24
 70
     1
102
RTVSPropertyOp25
 70
     1
102
RTVSPropertyOp26
 70
     1
102
RTVSPropertyOp27
 70
     1
102
RTVSPropertyOp28
 70
     1
102
RTVSPropertyOp29
 70
     1
102
RTVSPropertyOp30
 70
     1
102
RTVSPropertyOp31
 70
     1
102
RTVSPropertyOp32
 70
     1
102
RTVSPropertyOp33
 70
     1
102
RTVSPropertyOp34
 70
     1
102
RTVSPropertyOp35
 70
     1
102
RTVSPropertyOp36
 70
     1
102
RTVSPropertyOp37
 70
     1
102
RTVSPropertyOp38
 70
     1
102
RTVSPropertyOp39
 70
     1
102
RTVSPropertyOp40
 70
     1
102
RTVSPropertyOp41
 70
     1
102
RTVSPropertyOp42
 70
     1
102
RTVSPropertyOp43
 70
     1
102
RTVSPropertyOp44
 70
     1
102
RTVSPropertyOp45
 70
     1
102
RTVSPropertyOp46
 70
     1
102
RTVSPropertyOp47
 70
     1
102
RTVSPropertyOp48
 70
     1
102
RTVSPropertyOp49
 70
     1
102
RTVSPropertyOp50
 70
     1
102
RTVSPropertyOp51
 70
     0
102
RTVSPropertyOp52
 70
     0
102
RTVSPropertyOp53
 70
     1
102
RTVSPropertyOp54
 70
     1
102
RTVSPropertyOp55
 70
     1
102
RTVSPropertyOp56
 70
     1
102
RTVSPropertyOp57
 70
     1
102
RTVSPost2010Prop28
280
     0
102
RTVSPost2010PropOp28
 70
     1
102
RTVSPost2010Prop29
280
     1
102
RTVSPost2010PropOp29
 70
     1
102
RTVSPost2010Prop30
280
     1
102
RTVSPost2010PropOp30
 70
     1
102
RTVSPost2010Prop31
280
     0
102
RTVSPost2010PropOp31
 70
     1
102
RTVSPost2010Prop32
280
     0
102
RTVSPost2010PropOp32
 70
     1
102
RTVSPost2010Prop33
280
     0
102
RTVSPost2010PropOp33
 70
     1
102
RTVSPost2010Prop34
280
     0
102
RTVSPost2010PropOp34
 70
     1
102
RTVSPost2010Prop35
280
     0
102
RTVSPost2010PropOp35
 70
     1
102
RTVSPost2010Prop36
280
     0
102
RTVSPost2010PropOp36
 70
     1
102
RTVSPost2010Prop37
 90
       50
102
RTVSPost2010PropOp37
 70
     1
102
RTVSPost2010Prop38
140
0.0
102
RTVSPost2010PropOp38
 70
     1
102
RTVSPost2010Prop39
140
1.0
102
RTVSPost2010PropOp39
 70
     1
102
RTVSPost2010Prop40
 90
        0
102
RTVSPost2010PropOp40
 70
     1
102
RTVSPost2010Prop41ColorIndex
 90
       18
102
RTVSPost2010Prop41ColorRGB
 90
        0
102
RTVSPost2010PropOp41
 70
     1
102
RTVSPost2010Prop42
 90
       50
102
RTVSPost2010PropOp42
 70
     1
102
RTVSPost2010Prop43
 90
        3
102
RTVSPost2010PropOp43
 70
     1
102
RTVSPost2010Prop44ColorIndex
 90
        5
102
RTVSPost2010Prop44ColorRGB
 90
      255
102
RTVSPost2010PropOp44
 70
     1
102
RTVSPost2010Prop45
280
     0
102
RTVSPost2010PropOp45
 70
     1
102
RTVSPost2010Prop46
 90
       50
102
RTVSPost2010PropOp46
 70
     1
102
RTVSPost2010Prop47
 90
       50
102
RTVSPost2010PropOp47
 70
     1
102
RTVSPost2010Prop48
 90
       50
102
RTVSPost2010PropOp48
 70
     1
102
RTVSPost2010Prop49
280
     0
102
RTVSPost2010PropOp49
 70
     1
102
RTVSPost2010Prop50
 90
       50
102
RTVSPost2010PropOp50
 70
     1
102
RTVSPost2010Prop51ColorIndex
 90
      256
102
RTVSPost2010Prop51ColorRGB
 90
-16777216
102
RTVSPost2010PropOp51
 70
     0
102
RTVSPost2010Prop52
140
1.0
102
RTVSPost2010PropOp52
 70
     0
102
RTVSPost2010Prop53
 90
        2
102
RTVSPost2010PropOp53
 70
     1
102
RTVSPost2010Prop54
  1
strokes_ogs.tif
102
RTVSPost2010PropOp54
 70
     1
102
RTVSPost2010Prop55
280
     0
102
RTVSPost2010PropOp55
 70
     1
102
RTVSPost2010Prop56
140
1.0
102
RTVSPost2010PropOp56
 70
     1
102
RTVSPost2010Prop57
140
1.0
102
RTVSPost2010PropOp57
 70
     1
  0
XRECORD
  5
33E
102
{ACAD_REACTORS
330
33D
102
}
330
33D
100
AcDbXrecord
280
     1
102
RTVSPropertyOp0
 70
     1
102
RTVSPropertyOp1
 70
     1
102
RTVSPropertyOp2
 70
     1
102
RTVSPropertyOp3
 70
     1
102
RTVSPropertyOp4
 70
     1
102
RTVSPropertyOp5
 70
     1
102
RTVSPropertyOp6
 70
     1
102
RTVSPropertyOp7
 70
     1
102
RTVSPropertyOp8
 70
     1
102
RTVSPropertyOp9
 70
     1
102
RTVSPropertyOp10
 70
     1
102
RTVSPropertyOp11
 70
     1
102
RTVSPropertyOp12
 70
     1
102
RTVSPropertyOp13
 70
     1
102
RTVSPropertyOp14
 70
     1
102
RTVSPropertyOp15
 70
     1
102
RTVSPropertyOp16
 70
     1
102
RTVSPropertyOp17
 70
     1
102
RTVSPropertyOp18
 70
     1
102
RTVSPropertyOp19
 70
     1
102
RTVSPropertyOp20
 70
     1
102
RTVSPropertyOp21
 70
     1
102
RTVSPropertyOp22
 70
     1
102
RTVSPropertyOp23
 70
     1
102
RTVSPropertyOp24
 70
     1
102
RTVSPropertyOp25
 70
     1
102
RTVSPropertyOp26
 70
     1
102
RTVSPropertyOp27
 70
     1
102
RTVSPropertyOp28
 70
     1
102
RTVSPropertyOp29
 70
     1
102
RTVSPropertyOp30
 70
     1
102
RTVSPropertyOp31
 70
     1
102
RTVSPropertyOp32
 70
     1
102
RTVSPropertyOp33
 70
     1
102
RTVSPropertyOp34
 70
     1
102
RTVSPropertyOp35
 70
     1
102
RTVSPropertyOp36
 70
     1
102
RTVSPropertyOp37
 70
     1
102
RTVSPropertyOp38
 70
     1
102
RTVSPropertyOp39
 70
     1
102
RTVSPropertyOp40
 70
     1
102
RTVSPropertyOp41
 70
     1
102
RTVSPropertyOp42
 70
     1
102
RTVSPropertyOp43
 70
     1
102
RTVSPropertyOp44
 70
     1
102
RTVSPropertyOp45
 70
     1
102
RTVSPropertyOp46
 70
     1
102
RTVSPropertyOp47
 70
     1
102
RTVSPropertyOp48
 70
     1
102
RTVSPropertyOp49
 70
     1
102
RTVSPropertyOp50
 70
     1
102
RTVSPropertyOp51
 70
     0
102
RTVSPropertyOp52
 70
     0
102
RTVSPropertyOp53
 70
     1
102
RTVSPropertyOp54
 70
     1
102
RTVSPropertyOp55
 70
     1
102
RTVSPropertyOp56
 70
     1
102
RTVSPropertyOp57
 70
     1
102
RTVSPost2010Prop28
280
     0
102
RTVSPost2010PropOp28
 70
     1
102
RTVSPost2010Prop29
280
     1
102
RTVSPost2010PropOp29
 70
     1
102
RTVSPost2010Prop30
280
     1
102
RTVSPost2010PropOp30
 70
     1
102
RTVSPost2010Prop31
280
     0
102
RTVSPost2010PropOp31
 70
     1
102
RTVSPost2010Prop32
280
     0
102
RTVSPost2010PropOp32
 70
     1
102
RTVSPost2010Prop33
280
     0
102
RTVSPost2010PropOp33
 70
     1
102
RTVSPost2010Prop34
280
     0
102
RTVSPost2010PropOp34
 70
     1
102
RTVSPost2010Prop35
280
     0
102
RTVSPost2010PropOp35
 70
     1
102
RTVSPost2010Prop36
280
     0
102
RTVSPost2010PropOp36
 70
     1
102
RTVSPost2010Prop37
 90
       50
102
RTVSPost2010PropOp37
 70
     1
102
RTVSPost2010Prop38
140
0.0
102
RTVSPost2010PropOp38
 70
     1
102
RTVSPost2010Prop39
140
1.0
102
RTVSPost2010PropOp39
 70
     1
102
RTVSPost2010Prop40
 90
        0
102
RTVSPost2010PropOp40
 70
     1
102
RTVSPost2010Prop41ColorIndex
 90
       18
102
RTVSPost2010Prop41ColorRGB
 90
        0
102
RTVSPost2010PropOp41
 70
     1
102
RTVSPost2010Prop42
 90
       50
102
RTVSPost2010PropOp42
 70
     1
102
RTVSPost2010Prop43
 90
        3
102
RTVSPost2010PropOp43
 70
     1
102
RTVSPost2010Prop44ColorIndex
 90
        5
102
RTVSPost2010Prop44ColorRGB
 90
      255
102
RTVSPost2010PropOp44
 70
     1
102
RTVSPost2010Prop45
280
     0
102
RTVSPost2010PropOp45
 70
     1
102
RTVSPost2010Prop46
 90
       50
102
RTVSPost2010PropOp46
 70
     1
102
RTVSPost2010Prop47
 90
       50
102
RTVSPost2010PropOp47
 70
     1
102
RTVSPost2010Prop48
 90
       50
102
RTVSPost2010PropOp48
 70
     1
102
RTVSPost2010Prop49
280
     0
102
RTVSPost2010PropOp49
 70
     1
102
RTVSPost2010Prop50
 90
       50
102
RTVSPost2010PropOp50
 70
     1
102
RTVSPost2010Prop51ColorIndex
 90
      256
102
RTVSPost2010Prop51ColorRGB
 90
-16777216
102
RTVSPost2010PropOp51
 70
     0
102
RTVSPost2010Prop52
140
1.0
102
RTVSPost2010PropOp52
 70
     0
102
RTVSPost2010Prop53
 90
        2
102
RTVSPost2010PropOp53
 70
     1
102
RTVSPost2010Prop54
  1
strokes_ogs.tif
102
RTVSPost2010PropOp54
 70
     1
102
RTVSPost2010Prop55
280
     0
102
RTVSPost2010PropOp55
 70
     1
102
RTVSPost2010Prop56
140
1.0
102
RTVSPost2010PropOp56
 70
     1
102
RTVSPost2010Prop57
140
1.0
102
RTVSPost2010PropOp57
 70
     1
  0
XRECORD
  5
346
102
{ACAD_REACTORS
330
345
102
}
330
345
100
AcDbXrecord
280
     1
102
RTVSPropertyOp0
 70
     1
102
RTVSPropertyOp1
 70
     1
102
RTVSPropertyOp2
 70
     1
102
RTVSPropertyOp3
 70
     1
102
RTVSPropertyOp4
 70
     1
102
RTVSPropertyOp5
 70
     1
102
RTVSPropertyOp6
 70
     1
102
RTVSPropertyOp7
 70
     1
102
RTVSPropertyOp8
 70
     1
102
RTVSPropertyOp9
 70
     1
102
RTVSPropertyOp10
 70
     1
102
RTVSPropertyOp11
 70
     1
102
RTVSPropertyOp12
 70
     1
102
RTVSPropertyOp13
 70
     1
102
RTVSPropertyOp14
 70
     1
102
RTVSPropertyOp15
 70
     1
102
RTVSPropertyOp16
 70
     1
102
RTVSPropertyOp17
 70
     1
102
RTVSPropertyOp18
 70
     1
102
RTVSPropertyOp19
 70
     1
102
RTVSPropertyOp20
 70
     1
102
RTVSPropertyOp21
 70
     1
102
RTVSPropertyOp22
 70
     1
102
RTVSPropertyOp23
 70
     1
102
RTVSPropertyOp24
 70
     1
102
RTVSPropertyOp25
 70
     1
102
RTVSPropertyOp26
 70
     1
102
RTVSPropertyOp27
 70
     1
102
RTVSPropertyOp28
 70
     1
102
RTVSPropertyOp29
 70
     1
102
RTVSPropertyOp30
 70
     1
102
RTVSPropertyOp31
 70
     1
102
RTVSPropertyOp32
 70
     1
102
RTVSPropertyOp33
 70
     1
102
RTVSPropertyOp34
 70
     1
102
RTVSPropertyOp35
 70
     1
102
RTVSPropertyOp36
 70
     1
102
RTVSPropertyOp37
 70
     1
102
RTVSPropertyOp38
 70
     1
102
RTVSPropertyOp39
 70
     1
102
RTVSPropertyOp40
 70
     1
102
RTVSPropertyOp41
 70
     1
102
RTVSPropertyOp42
 70
     1
102
RTVSPropertyOp43
 70
     1
102
RTVSPropertyOp44
 70
     1
102
RTVSPropertyOp45
 70
     1
102
RTVSPropertyOp46
 70
     1
102
RTVSPropertyOp47
 70
     1
102
RTVSPropertyOp48
 70
     1
102
RTVSPropertyOp49
 70
     1
102
RTVSPropertyOp50
 70
     1
102
RTVSPropertyOp51
 70
     0
102
RTVSPropertyOp52
 70
     0
102
RTVSPropertyOp53
 70
     1
102
RTVSPropertyOp54
 70
     1
102
RTVSPropertyOp55
 70
     1
102
RTVSPropertyOp56
 70
     1
102
RTVSPropertyOp57
 70
     1
102
RTVSPost2010Prop28
280
     0
102
RTVSPost2010PropOp28
 70
     1
102
RTVSPost2010Prop29
280
     1
102
RTVSPost2010PropOp29
 70
     1
102
RTVSPost2010Prop30
280
     1
102
RTVSPost2010PropOp30
 70
     1
102
RTVSPost2010Prop31
280
     0
102
RTVSPost2010PropOp31
 70
     1
102
RTVSPost2010Prop32
280
     0
102
RTVSPost2010PropOp32
 70
     1
102
RTVSPost2010Prop33
280
     0
102
RTVSPost2010PropOp33
 70
     1
102
RTVSPost2010Prop34
280
     0
102
RTVSPost2010PropOp34
 70
     1
102
RTVSPost2010Prop35
280
     0
102
RTVSPost2010PropOp35
 70
     1
102
RTVSPost2010Prop36
280
     0
102
RTVSPost2010PropOp36
 70
     1
102
RTVSPost2010Prop37
 90
       50
102
RTVSPost2010PropOp37
 70
     1
102
RTVSPost2010Prop38
140
0.0
102
RTVSPost2010PropOp38
 70
     1
102
RTVSPost2010Prop39
140
1.0
102
RTVSPost2010PropOp39
 70
     1
102
RTVSPost2010Prop40
 90
        0
102
RTVSPost2010PropOp40
 70
     1
102
RTVSPost2010Prop41ColorIndex
 90
       18
102
RTVSPost2010Prop41ColorRGB
 90
        0
102
RTVSPost2010PropOp41
 70
     1
102
RTVSPost2010Prop42
 90
       50
102
RTVSPost2010PropOp42
 70
     1
102
RTVSPost2010Prop43
 90
        3
102
RTVSPost2010PropOp43
 70
     1
102
RTVSPost2010Prop44ColorIndex
 90
        5
102
RTVSPost2010Prop44ColorRGB
 90
      255
102
RTVSPost2010PropOp44
 70
     1
102
RTVSPost2010Prop45
280
     0
102
RTVSPost2010PropOp45
 70
     1
102
RTVSPost2010Prop46
 90
       50
102
RTVSPost2010PropOp46
 70
     1
102
RTVSPost2010Prop47
 90
       50
102
RTVSPost2010PropOp47
 70
     1
102
RTVSPost2010Prop48
 90
       50
102
RTVSPost2010PropOp48
 70
     1
102
RTVSPost2010Prop49
280
     0
102
RTVSPost2010PropOp49
 70
     1
102
RTVSPost2010Prop50
 90
       50
102
RTVSPost2010PropOp50
 70
     1
102
RTVSPost2010Prop51ColorIndex
 90
      256
102
RTVSPost2010Prop51ColorRGB
 90
-16777216
102
RTVSPost2010PropOp51
 70
     0
102
RTVSPost2010Prop52
140
1.0
102
RTVSPost2010PropOp52
 70
     0
102
RTVSPost2010Prop53
 90
        2
102
RTVSPost2010PropOp53
 70
     1
102
RTVSPost2010Prop54
  1
strokes_ogs.tif
102
RTVSPost2010PropOp54
 70
     1
102
RTVSPost2010Prop55
280
     0
102
RTVSPost2010PropOp55
 70
     1
102
RTVSPost2010Prop56
140
1.0
102
RTVSPost2010PropOp56
 70
     1
102
RTVSPost2010Prop57
140
1.0
102
RTVSPost2010PropOp57
 70
     1
  0
XRECORD
  5
33A
102
{ACAD_REACTORS
330
339
102
}
330
339
100
AcDbXrecord
280
     1
102
RTVSPropertyOp0
 70
     1
102
RTVSPropertyOp1
 70
     1
102
RTVSPropertyOp2
 70
     1
102
RTVSPropertyOp3
 70
     1
102
RTVSPropertyOp4
 70
     1
102
RTVSPropertyOp5
 70
     1
102
RTVSPropertyOp6
 70
     1
102
RTVSPropertyOp7
 70
     1
102
RTVSPropertyOp8
 70
     1
102
RTVSPropertyOp9
 70
     1
102
RTVSPropertyOp10
 70
     1
102
RTVSPropertyOp11
 70
     1
102
RTVSPropertyOp12
 70
     1
102
RTVSPropertyOp13
 70
     1
102
RTVSPropertyOp14
 70
     1
102
RTVSPropertyOp15
 70
     1
102
RTVSPropertyOp16
 70
     1
102
RTVSPropertyOp17
 70
     1
102
RTVSPropertyOp18
 70
     1
102
RTVSPropertyOp19
 70
     1
102
RTVSPropertyOp20
 70
     1
102
RTVSPropertyOp21
 70
     1
102
RTVSPropertyOp22
 70
     1
102
RTVSPropertyOp23
 70
     1
102
RTVSPropertyOp24
 70
     1
102
RTVSPropertyOp25
 70
     1
102
RTVSPropertyOp26
 70
     1
102
RTVSPropertyOp27
 70
     1
102
RTVSPropertyOp28
 70
     1
102
RTVSPropertyOp29
 70
     1
102
RTVSPropertyOp30
 70
     1
102
RTVSPropertyOp31
 70
     1
102
RTVSPropertyOp32
 70
     1
102
RTVSPropertyOp33
 70
     1
102
RTVSPropertyOp34
 70
     1
102
RTVSPropertyOp35
 70
     1
102
RTVSPropertyOp36
 70
     1
102
RTVSPropertyOp37
 70
     1
102
RTVSPropertyOp38
 70
     1
102
RTVSPropertyOp39
 70
     1
102
RTVSPropertyOp40
 70
     1
102
RTVSPropertyOp41
 70
     1
102
RTVSPropertyOp42
 70
     1
102
RTVSPropertyOp43
 70
     1
102
RTVSPropertyOp44
 70
     1
102
RTVSPropertyOp45
 70
     1
102
RTVSPropertyOp46
 70
     1
102
RTVSPropertyOp47
 70
     1
102
RTVSPropertyOp48
 70
     1
102
RTVSPropertyOp49
 70
     1
102
RTVSPropertyOp50
 70
     1
102
RTVSPropertyOp51
 70
     0
102
RTVSPropertyOp52
 70
     0
102
RTVSPropertyOp53
 70
     1
102
RTVSPropertyOp54
 70
     1
102
RTVSPropertyOp55
 70
     1
102
RTVSPropertyOp56
 70
     1
102
RTVSPropertyOp57
 70
     1
102
RTVSPost2010Prop28
280
     0
102
RTVSPost2010PropOp28
 70
     1
102
RTVSPost2010Prop29
280
     1
102
RTVSPost2010PropOp29
 70
     1
102
RTVSPost2010Prop30
280
     1
102
RTVSPost2010PropOp30
 70
     1
102
RTVSPost2010Prop31
280
     0
102
RTVSPost2010PropOp31
 70
     1
102
RTVSPost2010Prop32
280
     0
102
RTVSPost2010PropOp32
 70
     1
102
RTVSPost2010Prop33
280
     0
102
RTVSPost2010PropOp33
 70
     1
102
RTVSPost2010Prop34
280
     0
102
RTVSPost2010PropOp34
 70
     1
102
RTVSPost2010Prop35
280
     0
102
RTVSPost2010PropOp35
 70
     1
102
RTVSPost2010Prop36
280
     0
102
RTVSPost2010PropOp36
 70
     1
102
RTVSPost2010Prop37
 90
       50
102
RTVSPost2010PropOp37
 70
     1
102
RTVSPost2010Prop38
140
0.0
102
RTVSPost2010PropOp38
 70
     1
102
RTVSPost2010Prop39
140
1.0
102
RTVSPost2010PropOp39
 70
     1
102
RTVSPost2010Prop40
 90
        0
102
RTVSPost2010PropOp40
 70
     1
102
RTVSPost2010Prop41ColorIndex
 90
       18
102
RTVSPost2010Prop41ColorRGB
 90
        0
102
RTVSPost2010PropOp41
 70
     1
102
RTVSPost2010Prop42
 90
       50
102
RTVSPost2010PropOp42
 70
     1
102
RTVSPost2010Prop43
 90
        3
102
RTVSPost2010PropOp43
 70
     1
102
RTVSPost2010Prop44ColorIndex
 90
        5
102
RTVSPost2010Prop44ColorRGB
 90
      255
102
RTVSPost2010PropOp44
 70
     1
102
RTVSPost2010Prop45
280
     0
102
RTVSPost2010PropOp45
 70
     1
102
RTVSPost2010Prop46
 90
       50
102
RTVSPost2010PropOp46
 70
     1
102
RTVSPost2010Prop47
 90
       50
102
RTVSPost2010PropOp47
 70
     1
102
RTVSPost2010Prop48
 90
       50
102
RTVSPost2010PropOp48
 70
     1
102
RTVSPost2010Prop49
280
     0
102
RTVSPost2010PropOp49
 70
     1
102
RTVSPost2010Prop50
 90
       50
102
RTVSPost2010PropOp50
 70
     1
102
RTVSPost2010Prop51ColorIndex
 90
      256
102
RTVSPost2010Prop51ColorRGB
 90
-16777216
102
RTVSPost2010PropOp51
 70
     0
102
RTVSPost2010Prop52
140
1.0
102
RTVSPost2010PropOp52
 70
     0
102
RTVSPost2010Prop53
 90
        2
102
RTVSPost2010PropOp53
 70
     1
102
RTVSPost2010Prop54
  1
strokes_ogs.tif
102
RTVSPost2010PropOp54
 70
     1
102
RTVSPost2010Prop55
280
     0
102
RTVSPost2010PropOp55
 70
     1
102
RTVSPost2010Prop56
140
1.0
102
RTVSPost2010PropOp56
 70
     1
102
RTVSPost2010Prop57
140
1.0
102
RTVSPost2010PropOp57
 70
     1
  0
XRECORD
  5
33C
102
{ACAD_REACTORS
330
33B
102
}
330
33B
100
AcDbXrecord
280
     1
102
RTVSPropertyOp0
 70
     1
102
RTVSPropertyOp1
 70
     1
102
RTVSPropertyOp2
 70
     1
102
RTVSPropertyOp3
 70
     1
102
RTVSPropertyOp4
 70
     1
102
RTVSPropertyOp5
 70
     1
102
RTVSPropertyOp6
 70
     1
102
RTVSPropertyOp7
 70
     1
102
RTVSPropertyOp8
 70
     1
102
RTVSPropertyOp9
 70
     1
102
RTVSPropertyOp10
 70
     1
102
RTVSPropertyOp11
 70
     1
102
RTVSPropertyOp12
 70
     1
102
RTVSPropertyOp13
 70
     1
102
RTVSPropertyOp14
 70
     1
102
RTVSPropertyOp15
 70
     1
102
RTVSPropertyOp16
 70
     1
102
RTVSPropertyOp17
 70
     1
102
RTVSPropertyOp18
 70
     1
102
RTVSPropertyOp19
 70
     1
102
RTVSPropertyOp20
 70
     1
102
RTVSPropertyOp21
 70
     1
102
RTVSPropertyOp22
 70
     1
102
RTVSPropertyOp23
 70
     1
102
RTVSPropertyOp24
 70
     1
102
RTVSPropertyOp25
 70
     1
102
RTVSPropertyOp26
 70
     1
102
RTVSPropertyOp27
 70
     1
102
RTVSPropertyOp28
 70
     1
102
RTVSPropertyOp29
 70
     1
102
RTVSPropertyOp30
 70
     1
102
RTVSPropertyOp31
 70
     1
102
RTVSPropertyOp32
 70
     1
102
RTVSPropertyOp33
 70
     1
102
RTVSPropertyOp34
 70
     1
102
RTVSPropertyOp35
 70
     1
102
RTVSPropertyOp36
 70
     1
102
RTVSPropertyOp37
 70
     1
102
RTVSPropertyOp38
 70
     1
102
RTVSPropertyOp39
 70
     1
102
RTVSPropertyOp40
 70
     1
102
RTVSPropertyOp41
 70
     1
102
RTVSPropertyOp42
 70
     1
102
RTVSPropertyOp43
 70
     1
102
RTVSPropertyOp44
 70
     1
102
RTVSPropertyOp45
 70
     1
102
RTVSPropertyOp46
 70
     1
102
RTVSPropertyOp47
 70
     1
102
RTVSPropertyOp48
 70
     1
102
RTVSPropertyOp49
 70
     1
102
RTVSPropertyOp50
 70
     1
102
RTVSPropertyOp51
 70
     0
102
RTVSPropertyOp52
 70
     0
102
RTVSPropertyOp53
 70
     1
102
RTVSPropertyOp54
 70
     1
102
RTVSPropertyOp55
 70
     1
102
RTVSPropertyOp56
 70
     1
102
RTVSPropertyOp57
 70
     1
102
RTVSPost2010Prop28
280
     0
102
RTVSPost2010PropOp28
 70
     1
102
RTVSPost2010Prop29
280
     1
102
RTVSPost2010PropOp29
 70
     1
102
RTVSPost2010Prop30
280
     1
102
RTVSPost2010PropOp30
 70
     1
102
RTVSPost2010Prop31
280
     0
102
RTVSPost2010PropOp31
 70
     1
102
RTVSPost2010Prop32
280
     0
102
RTVSPost2010PropOp32
 70
     1
102
RTVSPost2010Prop33
280
     0
102
RTVSPost2010PropOp33
 70
     1
102
RTVSPost2010Prop34
280
     0
102
RTVSPost2010PropOp34
 70
     1
102
RTVSPost2010Prop35
280
     0
102
RTVSPost2010PropOp35
 70
     1
102
RTVSPost2010Prop36
280
     0
102
RTVSPost2010PropOp36
 70
     1
102
RTVSPost2010Prop37
 90
       50
102
RTVSPost2010PropOp37
 70
     1
102
RTVSPost2010Prop38
140
0.0
102
RTVSPost2010PropOp38
 70
     1
102
RTVSPost2010Prop39
140
1.0
102
RTVSPost2010PropOp39
 70
     1
102
RTVSPost2010Prop40
 90
        0
102
RTVSPost2010PropOp40
 70
     1
102
RTVSPost2010Prop41ColorIndex
 90
       18
102
RTVSPost2010Prop41ColorRGB
 90
        0
102
RTVSPost2010PropOp41
 70
     1
102
RTVSPost2010Prop42
 90
       50
102
RTVSPost2010PropOp42
 70
     1
102
RTVSPost2010Prop43
 90
        3
102
RTVSPost2010PropOp43
 70
     1
102
RTVSPost2010Prop44ColorIndex
 90
        5
102
RTVSPost2010Prop44ColorRGB
 90
      255
102
RTVSPost2010PropOp44
 70
     1
102
RTVSPost2010Prop45
280
     0
102
RTVSPost2010PropOp45
 70
     1
102
RTVSPost2010Prop46
 90
       50
102
RTVSPost2010PropOp46
 70
     1
102
RTVSPost2010Prop47
 90
       50
102
RTVSPost2010PropOp47
 70
     1
102
RTVSPost2010Prop48
 90
       50
102
RTVSPost2010PropOp48
 70
     1
102
RTVSPost2010Prop49
280
     0
102
RTVSPost2010PropOp49
 70
     1
102
RTVSPost2010Prop50
 90
       50
102
RTVSPost2010PropOp50
 70
     1
102
RTVSPost2010Prop51ColorIndex
 90
      256
102
RTVSPost2010Prop51ColorRGB
 90
-16777216
102
RTVSPost2010PropOp51
 70
     0
102
RTVSPost2010Prop52
140
1.0
102
RTVSPost2010PropOp52
 70
     0
102
RTVSPost2010Prop53
 90
        2
102
RTVSPost2010PropOp53
 70
     1
102
RTVSPost2010Prop54
  1
strokes_ogs.tif
102
RTVSPost2010PropOp54
 70
     1
102
RTVSPost2010Prop55
280
     0
102
RTVSPost2010PropOp55
 70
     1
102
RTVSPost2010Prop56
140
1.0
102
RTVSPost2010PropOp56
 70
     1
102
RTVSPost2010Prop57
140
1.0
102
RTVSPost2010PropOp57
 70
     1
  0
XRECORD
  5
34C
102
{ACAD_REACTORS
330
34B
102
}
330
34B
100
AcDbXrecord
280
     1
102
RTVSPropertyOp0
 70
     0
102
RTVSPropertyOp1
 70
     0
102
RTVSPropertyOp2
 70
     0
102
RTVSPropertyOp3
 70
     0
102
RTVSPropertyOp4
 70
     0
102
RTVSPropertyOp5
 70
     0
102
RTVSPropertyOp6
 70
     0
102
RTVSPropertyOp7
 70
     0
102
RTVSPropertyOp8
 70
     0
102
RTVSPropertyOp9
 70
     0
102
RTVSPropertyOp10
 70
     0
102
RTVSPropertyOp11
 70
     0
102
RTVSPropertyOp12
 70
     0
102
RTVSPropertyOp13
 70
     0
102
RTVSPropertyOp14
 70
     2
102
RTVSPropertyOp15
 70
     0
102
RTVSPropertyOp16
 70
     0
102
RTVSPropertyOp17
 70
     0
102
RTVSPropertyOp18
 70
     0
102
RTVSPropertyOp19
 70
     0
102
RTVSPropertyOp20
 70
     0
102
RTVSPropertyOp21
 70
     0
102
RTVSPropertyOp22
 70
     0
102
RTVSPropertyOp23
 70
     0
102
RTVSPropertyOp24
 70
     0
102
RTVSPropertyOp25
 70
     0
102
RTVSPropertyOp26
 70
     0
102
RTVSPropertyOp27
 70
     0
102
RTVSPropertyOp28
 70
     0
102
RTVSPropertyOp29
 70
     0
102
RTVSPropertyOp30
 70
     0
102
RTVSPropertyOp31
 70
     0
102
RTVSPropertyOp32
 70
     0
102
RTVSPropertyOp33
 70
     0
102
RTVSPropertyOp34
 70
     0
102
RTVSPropertyOp35
 70
     0
102
RTVSPropertyOp36
 70
     0
102
RTVSPropertyOp37
 70
     0
102
RTVSPropertyOp38
 70
     0
102
RTVSPropertyOp39
 70
     0
102
RTVSPropertyOp40
 70
     0
102
RTVSPropertyOp41
 70
     0
102
RTVSPropertyOp42
 70
     0
102
RTVSPropertyOp43
 70
     0
102
RTVSPropertyOp44
 70
     0
102
RTVSPropertyOp45
 70
     0
102
RTVSPropertyOp46
 70
     0
102
RTVSPropertyOp47
 70
     0
102
RTVSPropertyOp48
 70
     0
102
RTVSPropertyOp49
 70
     0
102
RTVSPropertyOp50
 70
     0
102
RTVSPropertyOp51
 70
     0
102
RTVSPropertyOp52
 70
     0
102
RTVSPropertyOp53
 70
     0
102
RTVSPropertyOp54
 70
     0
102
RTVSPropertyOp55
 70
     0
102
RTVSPropertyOp56
 70
     0
102
RTVSPropertyOp57
 70
     0
102
RTVSPost2010Prop28
280
     0
102
RTVSPost2010PropOp28
 70
     0
102
RTVSPost2010Prop29
280
     1
102
RTVSPost2010PropOp29
 70
     0
102
RTVSPost2010Prop30
280
     1
102
RTVSPost2010PropOp30
 70
     0
102
RTVSPost2010Prop31
280
     0
102
RTVSPost2010PropOp31
 70
     0
102
RTVSPost2010Prop32
280
     0
102
RTVSPost2010PropOp32
 70
     0
102
RTVSPost2010Prop33
280
     0
102
RTVSPost2010PropOp33
 70
     0
102
RTVSPost2010Prop34
280
     0
102
RTVSPost2010PropOp34
 70
     0
102
RTVSPost2010Prop35
280
     0
102
RTVSPost2010PropOp35
 70
     0
102
RTVSPost2010Prop36
280
     0
102
RTVSPost2010PropOp36
 70
     0
102
RTVSPost2010Prop37
 90
       50
102
RTVSPost2010PropOp37
 70
     0
102
RTVSPost2010Prop38
140
0.0
102
RTVSPost2010PropOp38
 70
     0
102
RTVSPost2010Prop39
140
1.0
102
RTVSPost2010PropOp39
 70
     0
102
RTVSPost2010Prop40
 90
        0
102
RTVSPost2010PropOp40
 70
     0
102
RTVSPost2010Prop41ColorIndex
 90
       18
102
RTVSPost2010Prop41ColorRGB
 90
        0
102
RTVSPost2010PropOp41
 70
     0
102
RTVSPost2010Prop42
 90
       50
102
RTVSPost2010PropOp42
 70
     0
102
RTVSPost2010Prop43
 90
        3
102
RTVSPost2010PropOp43
 70
     0
102
RTVSPost2010Prop44ColorIndex
 90
        5
102
RTVSPost2010Prop44ColorRGB
 90
      255
102
RTVSPost2010PropOp44
 70
     0
102
RTVSPost2010Prop45
280
     0
102
RTVSPost2010PropOp45
 70
     0
102
RTVSPost2010Prop46
 90
       50
102
RTVSPost2010PropOp46
 70
     0
102
RTVSPost2010Prop47
 90
       50
102
RTVSPost2010PropOp47
 70
     0
102
RTVSPost2010Prop48
 90
       50
102
RTVSPost2010PropOp48
 70
     0
102
RTVSPost2010Prop49
280
     0
102
RTVSPost2010PropOp49
 70
     0
102
RTVSPost2010Prop50
 90
       50
102
RTVSPost2010PropOp50
 70
     0
102
RTVSPost2010Prop51ColorIndex
 90
      256
102
RTVSPost2010Prop51ColorRGB
 90
-16777216
102
RTVSPost2010PropOp51
 70
     0
102
RTVSPost2010Prop52
140
1.0
102
RTVSPost2010PropOp52
 70
     0
102
RTVSPost2010Prop53
 90
        2
102
RTVSPost2010PropOp53
 70
     0
102
RTVSPost2010Prop54
  1
strokes_ogs.tif
102
RTVSPost2010PropOp54
 70
     0
102
RTVSPost2010Prop55
280
     0
102
RTVSPost2010PropOp55
 70
     0
102
RTVSPost2010Prop56
140
1.0
102
RTVSPost2010PropOp56
 70
     0
102
RTVSPost2010Prop57
140
1.0
102
RTVSPost2010PropOp57
 70
     0
  0
XRECORD
  5
344
102
{ACAD_REACTORS
330
343
102
}
330
343
100
AcDbXrecord
280
     1
102
RTVSPropertyOp0
 70
     1
102
RTVSPropertyOp1
 70
     1
102
RTVSPropertyOp2
 70
     1
102
RTVSPropertyOp3
 70
     1
102
RTVSPropertyOp4
 70
     1
102
RTVSPropertyOp5
 70
     1
102
RTVSPropertyOp6
 70
     1
102
RTVSPropertyOp7
 70
     1
102
RTVSPropertyOp8
 70
     1
102
RTVSPropertyOp9
 70
     1
102
RTVSPropertyOp10
 70
     1
102
RTVSPropertyOp11
 70
     1
102
RTVSPropertyOp12
 70
     1
102
RTVSPropertyOp13
 70
     1
102
RTVSPropertyOp14
 70
     1
102
RTVSPropertyOp15
 70
     1
102
RTVSPropertyOp16
 70
     1
102
RTVSPropertyOp17
 70
     1
102
RTVSPropertyOp18
 70
     1
102
RTVSPropertyOp19
 70
     1
102
RTVSPropertyOp20
 70
     1
102
RTVSPropertyOp21
 70
     1
102
RTVSPropertyOp22
 70
     1
102
RTVSPropertyOp23
 70
     1
102
RTVSPropertyOp24
 70
     1
102
RTVSPropertyOp25
 70
     1
102
RTVSPropertyOp26
 70
     1
102
RTVSPropertyOp27
 70
     1
102
RTVSPropertyOp28
 70
     1
102
RTVSPropertyOp29
 70
     1
102
RTVSPropertyOp30
 70
     1
102
RTVSPropertyOp31
 70
     1
102
RTVSPropertyOp32
 70
     1
102
RTVSPropertyOp33
 70
     1
102
RTVSPropertyOp34
 70
     1
102
RTVSPropertyOp35
 70
     1
102
RTVSPropertyOp36
 70
     1
102
RTVSPropertyOp37
 70
     1
102
RTVSPropertyOp38
 70
     1
102
RTVSPropertyOp39
 70
     1
102
RTVSPropertyOp40
 70
     1
102
RTVSPropertyOp41
 70
     1
102
RTVSPropertyOp42
 70
     1
102
RTVSPropertyOp43
 70
     1
102
RTVSPropertyOp44
 70
     1
102
RTVSPropertyOp45
 70
     1
102
RTVSPropertyOp46
 70
     1
102
RTVSPropertyOp47
 70
     1
102
RTVSPropertyOp48
 70
     1
102
RTVSPropertyOp49
 70
     1
102
RTVSPropertyOp50
 70
     1
102
RTVSPropertyOp51
 70
     0
102
RTVSPropertyOp52
 70
     0
102
RTVSPropertyOp53
 70
     1
102
RTVSPropertyOp54
 70
     1
102
RTVSPropertyOp55
 70
     1
102
RTVSPropertyOp56
 70
     1
102
RTVSPropertyOp57
 70
     1
102
RTVSPost2010Prop28
280
     0
102
RTVSPost2010PropOp28
 70
     1
102
RTVSPost2010Prop29
280
     1
102
RTVSPost2010PropOp29
 70
     1
102
RTVSPost2010Prop30
280
     1
102
RTVSPost2010PropOp30
 70
     1
102
RTVSPost2010Prop31
280
     0
102
RTVSPost2010PropOp31
 70
     1
102
RTVSPost2010Prop32
280
     0
102
RTVSPost2010PropOp32
 70
     1
102
RTVSPost2010Prop33
280
     0
102
RTVSPost2010PropOp33
 70
     1
102
RTVSPost2010Prop34
280
     0
102
RTVSPost2010PropOp34
 70
     1
102
RTVSPost2010Prop35
280
     0
102
RTVSPost2010PropOp35
 70
     1
102
RTVSPost2010Prop36
280
     0
102
RTVSPost2010PropOp36
 70
     1
102
RTVSPost2010Prop37
 90
       50
102
RTVSPost2010PropOp37
 70
     1
102
RTVSPost2010Prop38
140
0.0
102
RTVSPost2010PropOp38
 70
     1
102
RTVSPost2010Prop39
140
1.0
102
RTVSPost2010PropOp39
 70
     1
102
RTVSPost2010Prop40
 90
        0
102
RTVSPost2010PropOp40
 70
     1
102
RTVSPost2010Prop41ColorIndex
 90
       18
102
RTVSPost2010Prop41ColorRGB
 90
        0
102
RTVSPost2010PropOp41
 70
     1
102
RTVSPost2010Prop42
 90
       50
102
RTVSPost2010PropOp42
 70
     1
102
RTVSPost2010Prop43
 90
        3
102
RTVSPost2010PropOp43
 70
     1
102
RTVSPost2010Prop44ColorIndex
 90
        5
102
RTVSPost2010Prop44ColorRGB
 90
      255
102
RTVSPost2010PropOp44
 70
     1
102
RTVSPost2010Prop45
280
     0
102
RTVSPost2010PropOp45
 70
     1
102
RTVSPost2010Prop46
 90
       50
102
RTVSPost2010PropOp46
 70
     1
102
RTVSPost2010Prop47
 90
       50
102
RTVSPost2010PropOp47
 70
     1
102
RTVSPost2010Prop48
 90
       50
102
RTVSPost2010PropOp48
 70
     1
102
RTVSPost2010Prop49
280
     0
102
RTVSPost2010PropOp49
 70
     1
102
RTVSPost2010Prop50
 90
       50
102
RTVSPost2010PropOp50
 70
     1
102
RTVSPost2010Prop51ColorIndex
 90
      256
102
RTVSPost2010Prop51ColorRGB
 90
-16777216
102
RTVSPost2010PropOp51
 70
     0
102
RTVSPost2010Prop52
140
1.0
102
RTVSPost2010PropOp52
 70
     0
102
RTVSPost2010Prop53
 90
        2
102
RTVSPost2010PropOp53
 70
     1
102
RTVSPost2010Prop54
  1
strokes_ogs.tif
102
RTVSPost2010PropOp54
 70
     1
102
RTVSPost2010Prop55
280
     0
102
RTVSPost2010PropOp55
 70
     1
102
RTVSPost2010Prop56
140
1.0
102
RTVSPost2010PropOp56
 70
     1
102
RTVSPost2010Prop57
140
1.0
102
RTVSPost2010PropOp57
 70
     1
  0
XRECORD
  5
328
102
{ACAD_REACTORS
330
327
102
}
330
327
100
AcDbXrecord
280
     1
102
RTVSPropertyOp0
 70
     1
102
RTVSPropertyOp1
 70
     1
102
RTVSPropertyOp2
 70
     1
102
RTVSPropertyOp3
 70
     1
102
RTVSPropertyOp4
 70
     1
102
RTVSPropertyOp5
 70
     1
102
RTVSPropertyOp6
 70
     1
102
RTVSPropertyOp7
 70
     1
102
RTVSPropertyOp8
 70
     1
102
RTVSPropertyOp9
 70
     1
102
RTVSPropertyOp10
 70
     1
102
RTVSPropertyOp11
 70
     1
102
RTVSPropertyOp12
 70
     1
102
RTVSPropertyOp13
 70
     1
102
RTVSPropertyOp14
 70
     1
102
RTVSPropertyOp15
 70
     1
102
RTVSPropertyOp16
 70
     1
102
RTVSPropertyOp17
 70
     1
102
RTVSPropertyOp18
 70
     1
102
RTVSPropertyOp19
 70
     1
102
RTVSPropertyOp20
 70
     1
102
RTVSPropertyOp21
 70
     1
102
RTVSPropertyOp22
 70
     1
102
RTVSPropertyOp23
 70
     1
102
RTVSPropertyOp24
 70
     1
102
RTVSPropertyOp25
 70
     1
102
RTVSPropertyOp26
 70
     1
102
RTVSPropertyOp27
 70
     1
102
RTVSPropertyOp28
 70
     1
102
RTVSPropertyOp29
 70
     1
102
RTVSPropertyOp30
 70
     1
102
RTVSPropertyOp31
 70
     1
102
RTVSPropertyOp32
 70
     1
102
RTVSPropertyOp33
 70
     1
102
RTVSPropertyOp34
 70
     1
102
RTVSPropertyOp35
 70
     1
102
RTVSPropertyOp36
 70
     1
102
RTVSPropertyOp37
 70
     1
102
RTVSPropertyOp38
 70
     1
102
RTVSPropertyOp39
 70
     1
102
RTVSPropertyOp40
 70
     1
102
RTVSPropertyOp41
 70
     1
102
RTVSPropertyOp42
 70
     1
102
RTVSPropertyOp43
 70
     1
102
RTVSPropertyOp44
 70
     1
102
RTVSPropertyOp45
 70
     1
102
RTVSPropertyOp46
 70
     1
102
RTVSPropertyOp47
 70
     1
102
RTVSPropertyOp48
 70
     1
102
RTVSPropertyOp49
 70
     1
102
RTVSPropertyOp50
 70
     1
102
RTVSPropertyOp51
 70
     0
102
RTVSPropertyOp52
 70
     0
102
RTVSPropertyOp53
 70
     1
102
RTVSPropertyOp54
 70
     1
102
RTVSPropertyOp55
 70
     1
102
RTVSPropertyOp56
 70
     1
102
RTVSPropertyOp57
 70
     1
102
RTVSPost2010Prop28
280
     0
102
RTVSPost2010PropOp28
 70
     1
102
RTVSPost2010Prop29
280
     1
102
RTVSPost2010PropOp29
 70
     1
102
RTVSPost2010Prop30
280
     1
102
RTVSPost2010PropOp30
 70
     1
102
RTVSPost2010Prop31
280
     0
102
RTVSPost2010PropOp31
 70
     1
102
RTVSPost2010Prop32
280
     0
102
RTVSPost2010PropOp32
 70
     1
102
RTVSPost2010Prop33
280
     0
102
RTVSPost2010PropOp33
 70
     1
102
RTVSPost2010Prop34
280
     0
102
RTVSPost2010PropOp34
 70
     1
102
RTVSPost2010Prop35
280
     0
102
RTVSPost2010PropOp35
 70
     1
102
RTVSPost2010Prop36
280
     0
102
RTVSPost2010PropOp36
 70
     1
102
RTVSPost2010Prop37
 90
       50
102
RTVSPost2010PropOp37
 70
     1
102
RTVSPost2010Prop38
140
0.0
102
RTVSPost2010PropOp38
 70
     1
102
RTVSPost2010Prop39
140
1.0
102
RTVSPost2010PropOp39
 70
     1
102
RTVSPost2010Prop40
 90
        0
102
RTVSPost2010PropOp40
 70
     1
102
RTVSPost2010Prop41ColorIndex
 90
       18
102
RTVSPost2010Prop41ColorRGB
 90
        0
102
RTVSPost2010PropOp41
 70
     1
102
RTVSPost2010Prop42
 90
       50
102
RTVSPost2010PropOp42
 70
     1
102
RTVSPost2010Prop43
 90
        3
102
RTVSPost2010PropOp43
 70
     1
102
RTVSPost2010Prop44ColorIndex
 90
        5
102
RTVSPost2010Prop44ColorRGB
 90
      255
102
RTVSPost2010PropOp44
 70
     1
102
RTVSPost2010Prop45
280
     0
102
RTVSPost2010PropOp45
 70
     1
102
RTVSPost2010Prop46
 90
       50
102
RTVSPost2010PropOp46
 70
     1
102
RTVSPost2010Prop47
 90
       50
102
RTVSPost2010PropOp47
 70
     1
102
RTVSPost2010Prop48
 90
       50
102
RTVSPost2010PropOp48
 70
     1
102
RTVSPost2010Prop49
280
     0
102
RTVSPost2010PropOp49
 70
     1
102
RTVSPost2010Prop50
 90
       50
102
RTVSPost2010PropOp50
 70
     1
102
RTVSPost2010Prop51ColorIndex
 90
      256
102
RTVSPost2010Prop51ColorRGB
 90
-16777216
102
RTVSPost2010PropOp51
 70
     0
102
RTVSPost2010Prop52
140
1.0
102
RTVSPost2010PropOp52
 70
     0
102
RTVSPost2010Prop53
 90
        2
102
RTVSPost2010PropOp53
 70
     1
102
RTVSPost2010Prop54
  1
strokes_ogs.tif
102
RTVSPost2010PropOp54
 70
     1
102
RTVSPost2010Prop55
280
     0
102
RTVSPost2010PropOp55
 70
     1
102
RTVSPost2010Prop56
140
1.0
102
RTVSPost2010PropOp56
 70
     1
102
RTVSPost2010Prop57
140
1.0
102
RTVSPost2010PropOp57
 70
     1
  0
XRECORD
  5
32A
102
{ACAD_REACTORS
330
329
102
}
330
329
100
AcDbXrecord
280
     1
102
RTVSPropertyOp0
 70
     1
102
RTVSPropertyOp1
 70
     1
102
RTVSPropertyOp2
 70
     1
102
RTVSPropertyOp3
 70
     1
102
RTVSPropertyOp4
 70
     1
102
RTVSPropertyOp5
 70
     1
102
RTVSPropertyOp6
 70
     1
102
RTVSPropertyOp7
 70
     1
102
RTVSPropertyOp8
 70
     1
102
RTVSPropertyOp9
 70
     1
102
RTVSPropertyOp10
 70
     1
102
RTVSPropertyOp11
 70
     1
102
RTVSPropertyOp12
 70
     1
102
RTVSPropertyOp13
 70
     1
102
RTVSPropertyOp14
 70
     1
102
RTVSPropertyOp15
 70
     1
102
RTVSPropertyOp16
 70
     1
102
RTVSPropertyOp17
 70
     1
102
RTVSPropertyOp18
 70
     1
102
RTVSPropertyOp19
 70
     1
102
RTVSPropertyOp20
 70
     1
102
RTVSPropertyOp21
 70
     1
102
RTVSPropertyOp22
 70
     1
102
RTVSPropertyOp23
 70
     1
102
RTVSPropertyOp24
 70
     1
102
RTVSPropertyOp25
 70
     1
102
RTVSPropertyOp26
 70
     1
102
RTVSPropertyOp27
 70
     1
102
RTVSPropertyOp28
 70
     1
102
RTVSPropertyOp29
 70
     1
102
RTVSPropertyOp30
 70
     1
102
RTVSPropertyOp31
 70
     1
102
RTVSPropertyOp32
 70
     1
102
RTVSPropertyOp33
 70
     1
102
RTVSPropertyOp34
 70
     1
102
RTVSPropertyOp35
 70
     1
102
RTVSPropertyOp36
 70
     1
102
RTVSPropertyOp37
 70
     1
102
RTVSPropertyOp38
 70
     1
102
RTVSPropertyOp39
 70
     1
102
RTVSPropertyOp40
 70
     1
102
RTVSPropertyOp41
 70
     1
102
RTVSPropertyOp42
 70
     1
102
RTVSPropertyOp43
 70
     1
102
RTVSPropertyOp44
 70
     1
102
RTVSPropertyOp45
 70
     1
102
RTVSPropertyOp46
 70
     1
102
RTVSPropertyOp47
 70
     1
102
RTVSPropertyOp48
 70
     1
102
RTVSPropertyOp49
 70
     1
102
RTVSPropertyOp50
 70
     1
102
RTVSPropertyOp51
 70
     0
102
RTVSPropertyOp52
 70
     0
102
RTVSPropertyOp53
 70
     1
102
RTVSPropertyOp54
 70
     1
102
RTVSPropertyOp55
 70
     1
102
RTVSPropertyOp56
 70
     1
102
RTVSPropertyOp57
 70
     1
102
RTVSPost2010Prop28
280
     0
102
RTVSPost2010PropOp28
 70
     1
102
RTVSPost2010Prop29
280
     1
102
RTVSPost2010PropOp29
 70
     1
102
RTVSPost2010Prop30
280
     1
102
RTVSPost2010PropOp30
 70
     1
102
RTVSPost2010Prop31
280
     0
102
RTVSPost2010PropOp31
 70
     1
102
RTVSPost2010Prop32
280
     0
102
RTVSPost2010PropOp32
 70
     1
102
RTVSPost2010Prop33
280
     0
102
RTVSPost2010PropOp33
 70
     1
102
RTVSPost2010Prop34
280
     0
102
RTVSPost2010PropOp34
 70
     1
102
RTVSPost2010Prop35
280
     0
102
RTVSPost2010PropOp35
 70
     1
102
RTVSPost2010Prop36
280
     0
102
RTVSPost2010PropOp36
 70
     1
102
RTVSPost2010Prop37
 90
       50
102
RTVSPost2010PropOp37
 70
     1
102
RTVSPost2010Prop38
140
0.0
102
RTVSPost2010PropOp38
 70
     1
102
RTVSPost2010Prop39
140
1.0
102
RTVSPost2010PropOp39
 70
     1
102
RTVSPost2010Prop40
 90
        0
102
RTVSPost2010PropOp40
 70
     1
102
RTVSPost2010Prop41ColorIndex
 90
       18
102
RTVSPost2010Prop41ColorRGB
 90
        0
102
RTVSPost2010PropOp41
 70
     1
102
RTVSPost2010Prop42
 90
       50
102
RTVSPost2010PropOp42
 70
     1
102
RTVSPost2010Prop43
 90
        3
102
RTVSPost2010PropOp43
 70
     1
102
RTVSPost2010Prop44ColorIndex
 90
        5
102
RTVSPost2010Prop44ColorRGB
 90
      255
102
RTVSPost2010PropOp44
 70
     1
102
RTVSPost2010Prop45
280
     0
102
RTVSPost2010PropOp45
 70
     1
102
RTVSPost2010Prop46
 90
       50
102
RTVSPost2010PropOp46
 70
     1
102
RTVSPost2010Prop47
 90
       50
102
RTVSPost2010PropOp47
 70
     1
102
RTVSPost2010Prop48
 90
       50
102
RTVSPost2010PropOp48
 70
     1
102
RTVSPost2010Prop49
280
     0
102
RTVSPost2010PropOp49
 70
     1
102
RTVSPost2010Prop50
 90
       50
102
RTVSPost2010PropOp50
 70
     1
102
RTVSPost2010Prop51ColorIndex
 90
      256
102
RTVSPost2010Prop51ColorRGB
 90
-16777216
102
RTVSPost2010PropOp51
 70
     0
102
RTVSPost2010Prop52
140
1.0
102
RTVSPost2010PropOp52
 70
     0
102
RTVSPost2010Prop53
 90
        2
102
RTVSPost2010PropOp53
 70
     1
102
RTVSPost2010Prop54
  1
strokes_ogs.tif
102
RTVSPost2010PropOp54
 70
     1
102
RTVSPost2010Prop55
280
     0
102
RTVSPost2010PropOp55
 70
     1
102
RTVSPost2010Prop56
140
1.0
102
RTVSPost2010PropOp56
 70
     1
102
RTVSPost2010Prop57
140
1.0
102
RTVSPost2010PropOp57
 70
     1
  0
XRECORD
  5
32C
102
{ACAD_REACTORS
330
32B
102
}
330
32B
100
AcDbXrecord
280
     1
102
RTVSPropertyOp0
 70
     1
102
RTVSPropertyOp1
 70
     1
102
RTVSPropertyOp2
 70
     1
102
RTVSPropertyOp3
 70
     1
102
RTVSPropertyOp4
 70
     1
102
RTVSPropertyOp5
 70
     1
102
RTVSPropertyOp6
 70
     1
102
RTVSPropertyOp7
 70
     1
102
RTVSPropertyOp8
 70
     1
102
RTVSPropertyOp9
 70
     1
102
RTVSPropertyOp10
 70
     1
102
RTVSPropertyOp11
 70
     1
102
RTVSPropertyOp12
 70
     1
102
RTVSPropertyOp13
 70
     1
102
RTVSPropertyOp14
 70
     1
102
RTVSPropertyOp15
 70
     1
102
RTVSPropertyOp16
 70
     1
102
RTVSPropertyOp17
 70
     1
102
RTVSPropertyOp18
 70
     1
102
RTVSPropertyOp19
 70
     1
102
RTVSPropertyOp20
 70
     1
102
RTVSPropertyOp21
 70
     1
102
RTVSPropertyOp22
 70
     1
102
RTVSPropertyOp23
 70
     1
102
RTVSPropertyOp24
 70
     1
102
RTVSPropertyOp25
 70
     1
102
RTVSPropertyOp26
 70
     1
102
RTVSPropertyOp27
 70
     1
102
RTVSPropertyOp28
 70
     1
102
RTVSPropertyOp29
 70
     1
102
RTVSPropertyOp30
 70
     1
102
RTVSPropertyOp31
 70
     1
102
RTVSPropertyOp32
 70
     1
102
RTVSPropertyOp33
 70
     1
102
RTVSPropertyOp34
 70
     1
102
RTVSPropertyOp35
 70
     1
102
RTVSPropertyOp36
 70
     1
102
RTVSPropertyOp37
 70
     1
102
RTVSPropertyOp38
 70
     1
102
RTVSPropertyOp39
 70
     1
102
RTVSPropertyOp40
 70
     1
102
RTVSPropertyOp41
 70
     1
102
RTVSPropertyOp42
 70
     1
102
RTVSPropertyOp43
 70
     1
102
RTVSPropertyOp44
 70
     1
102
RTVSPropertyOp45
 70
     1
102
RTVSPropertyOp46
 70
     1
102
RTVSPropertyOp47
 70
     1
102
RTVSPropertyOp48
 70
     1
102
RTVSPropertyOp49
 70
     1
102
RTVSPropertyOp50
 70
     1
102
RTVSPropertyOp51
 70
     0
102
RTVSPropertyOp52
 70
     0
102
RTVSPropertyOp53
 70
     1
102
RTVSPropertyOp54
 70
     1
102
RTVSPropertyOp55
 70
     1
102
RTVSPropertyOp56
 70
     1
102
RTVSPropertyOp57
 70
     1
102
RTVSPost2010Prop28
280
     0
102
RTVSPost2010PropOp28
 70
     1
102
RTVSPost2010Prop29
280
     1
102
RTVSPost2010PropOp29
 70
     1
102
RTVSPost2010Prop30
280
     1
102
RTVSPost2010PropOp30
 70
     1
102
RTVSPost2010Prop31
280
     0
102
RTVSPost2010PropOp31
 70
     1
102
RTVSPost2010Prop32
280
     0
102
RTVSPost2010PropOp32
 70
     1
102
RTVSPost2010Prop33
280
     0
102
RTVSPost2010PropOp33
 70
     1
102
RTVSPost2010Prop34
280
     0
102
RTVSPost2010PropOp34
 70
     1
102
RTVSPost2010Prop35
280
     0
102
RTVSPost2010PropOp35
 70
     1
102
RTVSPost2010Prop36
280
     0
102
RTVSPost2010PropOp36
 70
     1
102
RTVSPost2010Prop37
 90
       50
102
RTVSPost2010PropOp37
 70
     1
102
RTVSPost2010Prop38
140
0.0
102
RTVSPost2010PropOp38
 70
     1
102
RTVSPost2010Prop39
140
1.0
102
RTVSPost2010PropOp39
 70
     1
102
RTVSPost2010Prop40
 90
        0
102
RTVSPost2010PropOp40
 70
     1
102
RTVSPost2010Prop41ColorIndex
 90
       18
102
RTVSPost2010Prop41ColorRGB
 90
        0
102
RTVSPost2010PropOp41
 70
     1
102
RTVSPost2010Prop42
 90
       50
102
RTVSPost2010PropOp42
 70
     1
102
RTVSPost2010Prop43
 90
        3
102
RTVSPost2010PropOp43
 70
     1
102
RTVSPost2010Prop44ColorIndex
 90
        5
102
RTVSPost2010Prop44ColorRGB
 90
      255
102
RTVSPost2010PropOp44
 70
     1
102
RTVSPost2010Prop45
280
     0
102
RTVSPost2010PropOp45
 70
     1
102
RTVSPost2010Prop46
 90
       50
102
RTVSPost2010PropOp46
 70
     1
102
RTVSPost2010Prop47
 90
       50
102
RTVSPost2010PropOp47
 70
     1
102
RTVSPost2010Prop48
 90
       50
102
RTVSPost2010PropOp48
 70
     1
102
RTVSPost2010Prop49
280
     0
102
RTVSPost2010PropOp49
 70
     1
102
RTVSPost2010Prop50
 90
       50
102
RTVSPost2010PropOp50
 70
     1
102
RTVSPost2010Prop51ColorIndex
 90
      256
102
RTVSPost2010Prop51ColorRGB
 90
-16777216
102
RTVSPost2010PropOp51
 70
     0
102
RTVSPost2010Prop52
140
1.0
102
RTVSPost2010PropOp52
 70
     0
102
RTVSPost2010Prop53
 90
        2
102
RTVSPost2010PropOp53
 70
     1
102
RTVSPost2010Prop54
  1
strokes_ogs.tif
102
RTVSPost2010PropOp54
 70
     1
102
RTVSPost2010Prop55
280
     0
102
RTVSPost2010PropOp55
 70
     1
102
RTVSPost2010Prop56
140
1.0
102
RTVSPost2010PropOp56
 70
     1
102
RTVSPost2010Prop57
140
1.0
102
RTVSPost2010PropOp57
 70
     1
  0
XRECORD
  5
32E
102
{ACAD_REACTORS
330
32D
102
}
330
32D
100
AcDbXrecord
280
     1
102
RTVSPropertyOp0
 70
     1
102
RTVSPropertyOp1
 70
     1
102
RTVSPropertyOp2
 70
     1
102
RTVSPropertyOp3
 70
     1
102
RTVSPropertyOp4
 70
     1
102
RTVSPropertyOp5
 70
     1
102
RTVSPropertyOp6
 70
     1
102
RTVSPropertyOp7
 70
     1
102
RTVSPropertyOp8
 70
     1
102
RTVSPropertyOp9
 70
     1
102
RTVSPropertyOp10
 70
     1
102
RTVSPropertyOp11
 70
     1
102
RTVSPropertyOp12
 70
     1
102
RTVSPropertyOp13
 70
     1
102
RTVSPropertyOp14
 70
     1
102
RTVSPropertyOp15
 70
     1
102
RTVSPropertyOp16
 70
     1
102
RTVSPropertyOp17
 70
     1
102
RTVSPropertyOp18
 70
     1
102
RTVSPropertyOp19
 70
     1
102
RTVSPropertyOp20
 70
     1
102
RTVSPropertyOp21
 70
     1
102
RTVSPropertyOp22
 70
     1
102
RTVSPropertyOp23
 70
     1
102
RTVSPropertyOp24
 70
     1
102
RTVSPropertyOp25
 70
     1
102
RTVSPropertyOp26
 70
     1
102
RTVSPropertyOp27
 70
     1
102
RTVSPropertyOp28
 70
     1
102
RTVSPropertyOp29
 70
     1
102
RTVSPropertyOp30
 70
     1
102
RTVSPropertyOp31
 70
     1
102
RTVSPropertyOp32
 70
     1
102
RTVSPropertyOp33
 70
     1
102
RTVSPropertyOp34
 70
     1
102
RTVSPropertyOp35
 70
     1
102
RTVSPropertyOp36
 70
     1
102
RTVSPropertyOp37
 70
     1
102
RTVSPropertyOp38
 70
     1
102
RTVSPropertyOp39
 70
     1
102
RTVSPropertyOp40
 70
     1
102
RTVSPropertyOp41
 70
     1
102
RTVSPropertyOp42
 70
     1
102
RTVSPropertyOp43
 70
     1
102
RTVSPropertyOp44
 70
     1
102
RTVSPropertyOp45
 70
     1
102
RTVSPropertyOp46
 70
     1
102
RTVSPropertyOp47
 70
     1
102
RTVSPropertyOp48
 70
     1
102
RTVSPropertyOp49
 70
     1
102
RTVSPropertyOp50
 70
     1
102
RTVSPropertyOp51
 70
     0
102
RTVSPropertyOp52
 70
     0
102
RTVSPropertyOp53
 70
     1
102
RTVSPropertyOp54
 70
     1
102
RTVSPropertyOp55
 70
     1
102
RTVSPropertyOp56
 70
     1
102
RTVSPropertyOp57
 70
     1
102
RTVSPost2010Prop28
280
     0
102
RTVSPost2010PropOp28
 70
     1
102
RTVSPost2010Prop29
280
     1
102
RTVSPost2010PropOp29
 70
     1
102
RTVSPost2010Prop30
280
     1
102
RTVSPost2010PropOp30
 70
     1
102
RTVSPost2010Prop31
280
     0
102
RTVSPost2010PropOp31
 70
     1
102
RTVSPost2010Prop32
280
     0
102
RTVSPost2010PropOp32
 70
     1
102
RTVSPost2010Prop33
280
     0
102
RTVSPost2010PropOp33
 70
     1
102
RTVSPost2010Prop34
280
     0
102
RTVSPost2010PropOp34
 70
     1
102
RTVSPost2010Prop35
280
     0
102
RTVSPost2010PropOp35
 70
     1
102
RTVSPost2010Prop36
280
     0
102
RTVSPost2010PropOp36
 70
     1
102
RTVSPost2010Prop37
 90
       50
102
RTVSPost2010PropOp37
 70
     1
102
RTVSPost2010Prop38
140
0.0
102
RTVSPost2010PropOp38
 70
     1
102
RTVSPost2010Prop39
140
1.0
102
RTVSPost2010PropOp39
 70
     1
102
RTVSPost2010Prop40
 90
        0
102
RTVSPost2010PropOp40
 70
     1
102
RTVSPost2010Prop41ColorIndex
 90
       18
102
RTVSPost2010Prop41ColorRGB
 90
        0
102
RTVSPost2010PropOp41
 70
     1
102
RTVSPost2010Prop42
 90
       50
102
RTVSPost2010PropOp42
 70
     1
102
RTVSPost2010Prop43
 90
        3
102
RTVSPost2010PropOp43
 70
     1
102
RTVSPost2010Prop44ColorIndex
 90
        5
102
RTVSPost2010Prop44ColorRGB
 90
      255
102
RTVSPost2010PropOp44
 70
     1
102
RTVSPost2010Prop45
280
     0
102
RTVSPost2010PropOp45
 70
     1
102
RTVSPost2010Prop46
 90
       50
102
RTVSPost2010PropOp46
 70
     1
102
RTVSPost2010Prop47
 90
       50
102
RTVSPost2010PropOp47
 70
     1
102
RTVSPost2010Prop48
 90
       50
102
RTVSPost2010PropOp48
 70
     1
102
RTVSPost2010Prop49
280
     0
102
RTVSPost2010PropOp49
 70
     1
102
RTVSPost2010Prop50
 90
       50
102
RTVSPost2010PropOp50
 70
     1
102
RTVSPost2010Prop51ColorIndex
 90
      256
102
RTVSPost2010Prop51ColorRGB
 90
-16777216
102
RTVSPost2010PropOp51
 70
     0
102
RTVSPost2010Prop52
140
1.0
102
RTVSPost2010PropOp52
 70
     0
102
RTVSPost2010Prop53
 90
        2
102
RTVSPost2010PropOp53
 70
     1
102
RTVSPost2010Prop54
  1
strokes_ogs.tif
102
RTVSPost2010PropOp54
 70
     1
102
RTVSPost2010Prop55
280
     0
102
RTVSPost2010PropOp55
 70
     1
102
RTVSPost2010Prop56
140
1.0
102
RTVSPost2010PropOp56
 70
     1
102
RTVSPost2010Prop57
140
1.0
102
RTVSPost2010PropOp57
 70
     1
  0
XRECORD
  5
334
102
{ACAD_REACTORS
330
333
102
}
330
333
100
AcDbXrecord
280
     1
102
RTVSPropertyOp0
 70
     1
102
RTVSPropertyOp1
 70
     1
102
RTVSPropertyOp2
 70
     1
102
RTVSPropertyOp3
 70
     1
102
RTVSPropertyOp4
 70
     1
102
RTVSPropertyOp5
 70
     1
102
RTVSPropertyOp6
 70
     1
102
RTVSPropertyOp7
 70
     1
102
RTVSPropertyOp8
 70
     1
102
RTVSPropertyOp9
 70
     1
102
RTVSPropertyOp10
 70
     1
102
RTVSPropertyOp11
 70
     1
102
RTVSPropertyOp12
 70
     1
102
RTVSPropertyOp13
 70
     1
102
RTVSPropertyOp14
 70
     1
102
RTVSPropertyOp15
 70
     1
102
RTVSPropertyOp16
 70
     1
102
RTVSPropertyOp17
 70
     1
102
RTVSPropertyOp18
 70
     1
102
RTVSPropertyOp19
 70
     1
102
RTVSPropertyOp20
 70
     1
102
RTVSPropertyOp21
 70
     1
102
RTVSPropertyOp22
 70
     1
102
RTVSPropertyOp23
 70
     1
102
RTVSPropertyOp24
 70
     1
102
RTVSPropertyOp25
 70
     1
102
RTVSPropertyOp26
 70
     1
102
RTVSPropertyOp27
 70
     1
102
RTVSPropertyOp28
 70
     1
102
RTVSPropertyOp29
 70
     1
102
RTVSPropertyOp30
 70
     1
102
RTVSPropertyOp31
 70
     1
102
RTVSPropertyOp32
 70
     1
102
RTVSPropertyOp33
 70
     1
102
RTVSPropertyOp34
 70
     1
102
RTVSPropertyOp35
 70
     1
102
RTVSPropertyOp36
 70
     1
102
RTVSPropertyOp37
 70
     1
102
RTVSPropertyOp38
 70
     1
102
RTVSPropertyOp39
 70
     1
102
RTVSPropertyOp40
 70
     1
102
RTVSPropertyOp41
 70
     1
102
RTVSPropertyOp42
 70
     1
102
RTVSPropertyOp43
 70
     1
102
RTVSPropertyOp44
 70
     1
102
RTVSPropertyOp45
 70
     1
102
RTVSPropertyOp46
 70
     1
102
RTVSPropertyOp47
 70
     1
102
RTVSPropertyOp48
 70
     1
102
RTVSPropertyOp49
 70
     1
102
RTVSPropertyOp50
 70
     1
102
RTVSPropertyOp51
 70
     0
102
RTVSPropertyOp52
 70
     0
102
RTVSPropertyOp53
 70
     1
102
RTVSPropertyOp54
 70
     1
102
RTVSPropertyOp55
 70
     1
102
RTVSPropertyOp56
 70
     1
102
RTVSPropertyOp57
 70
     1
102
RTVSPost2010Prop28
280
     0
102
RTVSPost2010PropOp28
 70
     1
102
RTVSPost2010Prop29
280
     1
102
RTVSPost2010PropOp29
 70
     1
102
RTVSPost2010Prop30
280
     1
102
RTVSPost2010PropOp30
 70
     1
102
RTVSPost2010Prop31
280
     0
102
RTVSPost2010PropOp31
 70
     1
102
RTVSPost2010Prop32
280
     0
102
RTVSPost2010PropOp32
 70
     1
102
RTVSPost2010Prop33
280
     0
102
RTVSPost2010PropOp33
 70
     1
102
RTVSPost2010Prop34
280
     0
102
RTVSPost2010PropOp34
 70
     1
102
RTVSPost2010Prop35
280
     0
102
RTVSPost2010PropOp35
 70
     1
102
RTVSPost2010Prop36
280
     0
102
RTVSPost2010PropOp36
 70
     1
102
RTVSPost2010Prop37
 90
       50
102
RTVSPost2010PropOp37
 70
     1
102
RTVSPost2010Prop38
140
0.0
102
RTVSPost2010PropOp38
 70
     1
102
RTVSPost2010Prop39
140
1.0
102
RTVSPost2010PropOp39
 70
     1
102
RTVSPost2010Prop40
 90
        0
102
RTVSPost2010PropOp40
 70
     1
102
RTVSPost2010Prop41ColorIndex
 90
       18
102
RTVSPost2010Prop41ColorRGB
 90
        0
102
RTVSPost2010PropOp41
 70
     1
102
RTVSPost2010Prop42
 90
       50
102
RTVSPost2010PropOp42
 70
     1
102
RTVSPost2010Prop43
 90
        3
102
RTVSPost2010PropOp43
 70
     1
102
RTVSPost2010Prop44ColorIndex
 90
        5
102
RTVSPost2010Prop44ColorRGB
 90
      255
102
RTVSPost2010PropOp44
 70
     1
102
RTVSPost2010Prop45
280
     0
102
RTVSPost2010PropOp45
 70
     1
102
RTVSPost2010Prop46
 90
       50
102
RTVSPost2010PropOp46
 70
     1
102
RTVSPost2010Prop47
 90
       50
102
RTVSPost2010PropOp47
 70
     1
102
RTVSPost2010Prop48
 90
       50
102
RTVSPost2010PropOp48
 70
     1
102
RTVSPost2010Prop49
280
     0
102
RTVSPost2010PropOp49
 70
     1
102
RTVSPost2010Prop50
 90
       50
102
RTVSPost2010PropOp50
 70
     1
102
RTVSPost2010Prop51ColorIndex
 90
      256
102
RTVSPost2010Prop51ColorRGB
 90
-16777216
102
RTVSPost2010PropOp51
 70
     0
102
RTVSPost2010Prop52
140
1.0
102
RTVSPost2010PropOp52
 70
     0
102
RTVSPost2010Prop53
 90
        2
102
RTVSPost2010PropOp53
 70
     1
102
RTVSPost2010Prop54
  1
strokes_ogs.tif
102
RTVSPost2010PropOp54
 70
     1
102
RTVSPost2010Prop55
280
     0
102
RTVSPost2010PropOp55
 70
     1
102
RTVSPost2010Prop56
140
1.0
102
RTVSPost2010PropOp56
 70
     1
102
RTVSPost2010Prop57
140
1.0
102
RTVSPost2010PropOp57
 70
     1
  0
XRECORD
  5
348
102
{ACAD_REACTORS
330
347
102
}
330
347
100
AcDbXrecord
280
     1
102
RTVSPropertyOp0
 70
     0
102
RTVSPropertyOp1
 70
     0
102
RTVSPropertyOp2
 70
     0
102
RTVSPropertyOp3
 70
     0
102
RTVSPropertyOp4
 70
     0
102
RTVSPropertyOp5
 70
     0
102
RTVSPropertyOp6
 70
     0
102
RTVSPropertyOp7
 70
     0
102
RTVSPropertyOp8
 70
     0
102
RTVSPropertyOp9
 70
     0
102
RTVSPropertyOp10
 70
     0
102
RTVSPropertyOp11
 70
     0
102
RTVSPropertyOp12
 70
     0
102
RTVSPropertyOp13
 70
     0
102
RTVSPropertyOp14
 70
     2
102
RTVSPropertyOp15
 70
     0
102
RTVSPropertyOp16
 70
     0
102
RTVSPropertyOp17
 70
     0
102
RTVSPropertyOp18
 70
     0
102
RTVSPropertyOp19
 70
     0
102
RTVSPropertyOp20
 70
     0
102
RTVSPropertyOp21
 70
     0
102
RTVSPropertyOp22
 70
     0
102
RTVSPropertyOp23
 70
     0
102
RTVSPropertyOp24
 70
     0
102
RTVSPropertyOp25
 70
     0
102
RTVSPropertyOp26
 70
     0
102
RTVSPropertyOp27
 70
     0
102
RTVSPropertyOp28
 70
     0
102
RTVSPropertyOp29
 70
     0
102
RTVSPropertyOp30
 70
     0
102
RTVSPropertyOp31
 70
     0
102
RTVSPropertyOp32
 70
     0
102
RTVSPropertyOp33
 70
     0
102
RTVSPropertyOp34
 70
     0
102
RTVSPropertyOp35
 70
     0
102
RTVSPropertyOp36
 70
     0
102
RTVSPropertyOp37
 70
     0
102
RTVSPropertyOp38
 70
     0
102
RTVSPropertyOp39
 70
     0
102
RTVSPropertyOp40
 70
     0
102
RTVSPropertyOp41
 70
     0
102
RTVSPropertyOp42
 70
     0
102
RTVSPropertyOp43
 70
     0
102
RTVSPropertyOp44
 70
     0
102
RTVSPropertyOp45
 70
     0
102
RTVSPropertyOp46
 70
     0
102
RTVSPropertyOp47
 70
     0
102
RTVSPropertyOp48
 70
     0
102
RTVSPropertyOp49
 70
     0
102
RTVSPropertyOp50
 70
     0
102
RTVSPropertyOp51
 70
     0
102
RTVSPropertyOp52
 70
     0
102
RTVSPropertyOp53
 70
     0
102
RTVSPropertyOp54
 70
     0
102
RTVSPropertyOp55
 70
     0
102
RTVSPropertyOp56
 70
     0
102
RTVSPropertyOp57
 70
     0
102
RTVSPost2010Prop28
280
     0
102
RTVSPost2010PropOp28
 70
     0
102
RTVSPost2010Prop29
280
     1
102
RTVSPost2010PropOp29
 70
     0
102
RTVSPost2010Prop30
280
     1
102
RTVSPost2010PropOp30
 70
     0
102
RTVSPost2010Prop31
280
     0
102
RTVSPost2010PropOp31
 70
     0
102
RTVSPost2010Prop32
280
     0
102
RTVSPost2010PropOp32
 70
     0
102
RTVSPost2010Prop33
280
     0
102
RTVSPost2010PropOp33
 70
     0
102
RTVSPost2010Prop34
280
     0
102
RTVSPost2010PropOp34
 70
     0
102
RTVSPost2010Prop35
280
     0
102
RTVSPost2010PropOp35
 70
     0
102
RTVSPost2010Prop36
280
     0
102
RTVSPost2010PropOp36
 70
     0
102
RTVSPost2010Prop37
 90
       50
102
RTVSPost2010PropOp37
 70
     0
102
RTVSPost2010Prop38
140
0.0
102
RTVSPost2010PropOp38
 70
     0
102
RTVSPost2010Prop39
140
1.0
102
RTVSPost2010PropOp39
 70
     0
102
RTVSPost2010Prop40
 90
        0
102
RTVSPost2010PropOp40
 70
     0
102
RTVSPost2010Prop41ColorIndex
 90
       18
102
RTVSPost2010Prop41ColorRGB
 90
        0
102
RTVSPost2010PropOp41
 70
     0
102
RTVSPost2010Prop42
 90
       50
102
RTVSPost2010PropOp42
 70
     0
102
RTVSPost2010Prop43
 90
        3
102
RTVSPost2010PropOp43
 70
     0
102
RTVSPost2010Prop44ColorIndex
 90
        5
102
RTVSPost2010Prop44ColorRGB
 90
      255
102
RTVSPost2010PropOp44
 70
     0
102
RTVSPost2010Prop45
280
     0
102
RTVSPost2010PropOp45
 70
     0
102
RTVSPost2010Prop46
 90
       50
102
RTVSPost2010PropOp46
 70
     0
102
RTVSPost2010Prop47
 90
       50
102
RTVSPost2010PropOp47
 70
     0
102
RTVSPost2010Prop48
 90
       50
102
RTVSPost2010PropOp48
 70
     0
102
RTVSPost2010Prop49
280
     0
102
RTVSPost2010PropOp49
 70
     0
102
RTVSPost2010Prop50
 90
       50
102
RTVSPost2010PropOp50
 70
     0
102
RTVSPost2010Prop51ColorIndex
 90
      256
102
RTVSPost2010Prop51ColorRGB
 90
-16777216
102
RTVSPost2010PropOp51
 70
     0
102
RTVSPost2010Prop52
140
1.0
102
RTVSPost2010PropOp52
 70
     0
102
RTVSPost2010Prop53
 90
        2
102
RTVSPost2010PropOp53
 70
     0
102
RTVSPost2010Prop54
  1
strokes_ogs.tif
102
RTVSPost2010PropOp54
 70
     0
102
RTVSPost2010Prop55
280
     0
102
RTVSPost2010PropOp55
 70
     0
102
RTVSPost2010Prop56
140
1.0
102
RTVSPost2010PropOp56
 70
     0
102
RTVSPost2010Prop57
140
1.0
102
RTVSPost2010PropOp57
 70
     0
  0
XRECORD
  5
342
102
{ACAD_REACTORS
330
341
102
}
330
341
100
AcDbXrecord
280
     1
102
RTVSPropertyOp0
 70
     1
102
RTVSPropertyOp1
 70
     1
102
RTVSPropertyOp2
 70
     1
102
RTVSPropertyOp3
 70
     1
102
RTVSPropertyOp4
 70
     1
102
RTVSPropertyOp5
 70
     1
102
RTVSPropertyOp6
 70
     1
102
RTVSPropertyOp7
 70
     1
102
RTVSPropertyOp8
 70
     1
102
RTVSPropertyOp9
 70
     1
102
RTVSPropertyOp10
 70
     1
102
RTVSPropertyOp11
 70
     1
102
RTVSPropertyOp12
 70
     1
102
RTVSPropertyOp13
 70
     1
102
RTVSPropertyOp14
 70
     1
102
RTVSPropertyOp15
 70
     1
102
RTVSPropertyOp16
 70
     1
102
RTVSPropertyOp17
 70
     1
102
RTVSPropertyOp18
 70
     1
102
RTVSPropertyOp19
 70
     1
102
RTVSPropertyOp20
 70
     1
102
RTVSPropertyOp21
 70
     1
102
RTVSPropertyOp22
 70
     1
102
RTVSPropertyOp23
 70
     1
102
RTVSPropertyOp24
 70
     1
102
RTVSPropertyOp25
 70
     1
102
RTVSPropertyOp26
 70
     1
102
RTVSPropertyOp27
 70
     1
102
RTVSPropertyOp28
 70
     1
102
RTVSPropertyOp29
 70
     1
102
RTVSPropertyOp30
 70
     1
102
RTVSPropertyOp31
 70
     1
102
RTVSPropertyOp32
 70
     1
102
RTVSPropertyOp33
 70
     1
102
RTVSPropertyOp34
 70
     1
102
RTVSPropertyOp35
 70
     1
102
RTVSPropertyOp36
 70
     1
102
RTVSPropertyOp37
 70
     1
102
RTVSPropertyOp38
 70
     1
102
RTVSPropertyOp39
 70
     1
102
RTVSPropertyOp40
 70
     1
102
RTVSPropertyOp41
 70
     1
102
RTVSPropertyOp42
 70
     1
102
RTVSPropertyOp43
 70
     1
102
RTVSPropertyOp44
 70
     1
102
RTVSPropertyOp45
 70
     1
102
RTVSPropertyOp46
 70
     1
102
RTVSPropertyOp47
 70
     1
102
RTVSPropertyOp48
 70
     1
102
RTVSPropertyOp49
 70
     1
102
RTVSPropertyOp50
 70
     1
102
RTVSPropertyOp51
 70
     0
102
RTVSPropertyOp52
 70
     0
102
RTVSPropertyOp53
 70
     1
102
RTVSPropertyOp54
 70
     1
102
RTVSPropertyOp55
 70
     1
102
RTVSPropertyOp56
 70
     1
102
RTVSPropertyOp57
 70
     1
102
RTVSPost2010Prop28
280
     0
102
RTVSPost2010PropOp28
 70
     1
102
RTVSPost2010Prop29
280
     1
102
RTVSPost2010PropOp29
 70
     1
102
RTVSPost2010Prop30
280
     1
102
RTVSPost2010PropOp30
 70
     1
102
RTVSPost2010Prop31
280
     0
102
RTVSPost2010PropOp31
 70
     1
102
RTVSPost2010Prop32
280
     0
102
RTVSPost2010PropOp32
 70
     1
102
RTVSPost2010Prop33
280
     0
102
RTVSPost2010PropOp33
 70
     1
102
RTVSPost2010Prop34
280
     0
102
RTVSPost2010PropOp34
 70
     1
102
RTVSPost2010Prop35
280
     0
102
RTVSPost2010PropOp35
 70
     1
102
RTVSPost2010Prop36
280
     0
102
RTVSPost2010PropOp36
 70
     1
102
RTVSPost2010Prop37
 90
       50
102
RTVSPost2010PropOp37
 70
     1
102
RTVSPost2010Prop38
140
0.0
102
RTVSPost2010PropOp38
 70
     1
102
RTVSPost2010Prop39
140
1.0
102
RTVSPost2010PropOp39
 70
     1
102
RTVSPost2010Prop40
 90
        0
102
RTVSPost2010PropOp40
 70
     1
102
RTVSPost2010Prop41ColorIndex
 90
       18
102
RTVSPost2010Prop41ColorRGB
 90
        0
102
RTVSPost2010PropOp41
 70
     1
102
RTVSPost2010Prop42
 90
       50
102
RTVSPost2010PropOp42
 70
     1
102
RTVSPost2010Prop43
 90
        3
102
RTVSPost2010PropOp43
 70
     1
102
RTVSPost2010Prop44ColorIndex
 90
        5
102
RTVSPost2010Prop44ColorRGB
 90
      255
102
RTVSPost2010PropOp44
 70
     1
102
RTVSPost2010Prop45
280
     0
102
RTVSPost2010PropOp45
 70
     1
102
RTVSPost2010Prop46
 90
       50
102
RTVSPost2010PropOp46
 70
     1
102
RTVSPost2010Prop47
 90
       50
102
RTVSPost2010PropOp47
 70
     1
102
RTVSPost2010Prop48
 90
       50
102
RTVSPost2010PropOp48
 70
     1
102
RTVSPost2010Prop49
280
     0
102
RTVSPost2010PropOp49
 70
     1
102
RTVSPost2010Prop50
 90
       50
102
RTVSPost2010PropOp50
 70
     1
102
RTVSPost2010Prop51ColorIndex
 90
      256
102
RTVSPost2010Prop51ColorRGB
 90
-16777216
102
RTVSPost2010PropOp51
 70
     0
102
RTVSPost2010Prop52
140
1.0
102
RTVSPost2010PropOp52
 70
     0
102
RTVSPost2010Prop53
 90
        2
102
RTVSPost2010PropOp53
 70
     1
102
RTVSPost2010Prop54
  1
strokes_ogs.tif
102
RTVSPost2010PropOp54
 70
     1
102
RTVSPost2010Prop55
280
     0
102
RTVSPost2010PropOp55
 70
     1
102
RTVSPost2010Prop56
140
1.0
102
RTVSPost2010PropOp56
 70
     1
102
RTVSPost2010Prop57
140
1.0
102
RTVSPost2010PropOp57
 70
     1
  0
XRECORD
  5
34A
102
{ACAD_REACTORS
330
349
102
}
330
349
100
AcDbXrecord
280
     1
102
RTVSPropertyOp0
 70
     0
102
RTVSPropertyOp1
 70
     0
102
RTVSPropertyOp2
 70
     0
102
RTVSPropertyOp3
 70
     0
102
RTVSPropertyOp4
 70
     0
102
RTVSPropertyOp5
 70
     0
102
RTVSPropertyOp6
 70
     0
102
RTVSPropertyOp7
 70
     0
102
RTVSPropertyOp8
 70
     0
102
RTVSPropertyOp9
 70
     0
102
RTVSPropertyOp10
 70
     0
102
RTVSPropertyOp11
 70
     0
102
RTVSPropertyOp12
 70
     0
102
RTVSPropertyOp13
 70
     0
102
RTVSPropertyOp14
 70
     2
102
RTVSPropertyOp15
 70
     0
102
RTVSPropertyOp16
 70
     0
102
RTVSPropertyOp17
 70
     0
102
RTVSPropertyOp18
 70
     0
102
RTVSPropertyOp19
 70
     0
102
RTVSPropertyOp20
 70
     0
102
RTVSPropertyOp21
 70
     0
102
RTVSPropertyOp22
 70
     0
102
RTVSPropertyOp23
 70
     0
102
RTVSPropertyOp24
 70
     0
102
RTVSPropertyOp25
 70
     0
102
RTVSPropertyOp26
 70
     0
102
RTVSPropertyOp27
 70
     0
102
RTVSPropertyOp28
 70
     0
102
RTVSPropertyOp29
 70
     0
102
RTVSPropertyOp30
 70
     0
102
RTVSPropertyOp31
 70
     0
102
RTVSPropertyOp32
 70
     0
102
RTVSPropertyOp33
 70
     0
102
RTVSPropertyOp34
 70
     0
102
RTVSPropertyOp35
 70
     0
102
RTVSPropertyOp36
 70
     0
102
RTVSPropertyOp37
 70
     0
102
RTVSPropertyOp38
 70
     0
102
RTVSPropertyOp39
 70
     0
102
RTVSPropertyOp40
 70
     0
102
RTVSPropertyOp41
 70
     0
102
RTVSPropertyOp42
 70
     0
102
RTVSPropertyOp43
 70
     0
102
RTVSPropertyOp44
 70
     0
102
RTVSPropertyOp45
 70
     0
102
RTVSPropertyOp46
 70
     0
102
RTVSPropertyOp47
 70
     0
102
RTVSPropertyOp48
 70
     0
102
RTVSPropertyOp49
 70
     0
102
RTVSPropertyOp50
 70
     0
102
RTVSPropertyOp51
 70
     0
102
RTVSPropertyOp52
 70
     0
102
RTVSPropertyOp53
 70
     0
102
RTVSPropertyOp54
 70
     0
102
RTVSPropertyOp55
 70
     0
102
RTVSPropertyOp56
 70
     0
102
RTVSPropertyOp57
 70
     0
102
RTVSPost2010Prop28
280
     0
102
RTVSPost2010PropOp28
 70
     0
102
RTVSPost2010Prop29
280
     1
102
RTVSPost2010PropOp29
 70
     0
102
RTVSPost2010Prop30
280
     1
102
RTVSPost2010PropOp30
 70
     0
102
RTVSPost2010Prop31
280
     0
102
RTVSPost2010PropOp31
 70
     0
102
RTVSPost2010Prop32
280
     0
102
RTVSPost2010PropOp32
 70
     0
102
RTVSPost2010Prop33
280
     0
102
RTVSPost2010PropOp33
 70
     0
102
RTVSPost2010Prop34
280
     0
102
RTVSPost2010PropOp34
 70
     0
102
RTVSPost2010Prop35
280
     0
102
RTVSPost2010PropOp35
 70
     0
102
RTVSPost2010Prop36
280
     0
102
RTVSPost2010PropOp36
 70
     0
102
RTVSPost2010Prop37
 90
       50
102
RTVSPost2010PropOp37
 70
     0
102
RTVSPost2010Prop38
140
0.0
102
RTVSPost2010PropOp38
 70
     0
102
RTVSPost2010Prop39
140
1.0
102
RTVSPost2010PropOp39
 70
     0
102
RTVSPost2010Prop40
 90
        0
102
RTVSPost2010PropOp40
 70
     0
102
RTVSPost2010Prop41ColorIndex
 90
       18
102
RTVSPost2010Prop41ColorRGB
 90
        0
102
RTVSPost2010PropOp41
 70
     0
102
RTVSPost2010Prop42
 90
       50
102
RTVSPost2010PropOp42
 70
     0
102
RTVSPost2010Prop43
 90
        3
102
RTVSPost2010PropOp43
 70
     0
102
RTVSPost2010Prop44ColorIndex
 90
        5
102
RTVSPost2010Prop44ColorRGB
 90
      255
102
RTVSPost2010PropOp44
 70
     0
102
RTVSPost2010Prop45
280
     0
102
RTVSPost2010PropOp45
 70
     0
102
RTVSPost2010Prop46
 90
       50
102
RTVSPost2010PropOp46
 70
     0
102
RTVSPost2010Prop47
 90
       50
102
RTVSPost2010PropOp47
 70
     0
102
RTVSPost2010Prop48
 90
       50
102
RTVSPost2010PropOp48
 70
     0
102
RTVSPost2010Prop49
280
     0
102
RTVSPost2010PropOp49
 70
     0
102
RTVSPost2010Prop50
 90
       50
102
RTVSPost2010PropOp50
 70
     0
102
RTVSPost2010Prop51ColorIndex
 90
      256
102
RTVSPost2010Prop51ColorRGB
 90
-16777216
102
RTVSPost2010PropOp51
 70
     0
102
RTVSPost2010Prop52
140
1.0
102
RTVSPost2010PropOp52
 70
     0
102
RTVSPost2010Prop53
 90
        2
102
RTVSPost2010PropOp53
 70
     0
102
RTVSPost2010Prop54
  1
strokes_ogs.tif
102
RTVSPost2010PropOp54
 70
     0
102
RTVSPost2010Prop55
280
     0
102
RTVSPost2010PropOp55
 70
     0
102
RTVSPost2010Prop56
140
1.0
102
RTVSPost2010PropOp56
 70
     0
102
RTVSPost2010Prop57
140
1.0
102
RTVSPost2010PropOp57
 70
     0
  0
XRECORD
  5
338
102
{ACAD_REACTORS
330
337
102
}
330
337
100
AcDbXrecord
280
     1
102
RTVSPropertyOp0
 70
     1
102
RTVSPropertyOp1
 70
     1
102
RTVSPropertyOp2
 70
     1
102
RTVSPropertyOp3
 70
     1
102
RTVSPropertyOp4
 70
     1
102
RTVSPropertyOp5
 70
     1
102
RTVSPropertyOp6
 70
     1
102
RTVSPropertyOp7
 70
     1
102
RTVSPropertyOp8
 70
     1
102
RTVSPropertyOp9
 70
     1
102
RTVSPropertyOp10
 70
     1
102
RTVSPropertyOp11
 70
     1
102
RTVSPropertyOp12
 70
     1
102
RTVSPropertyOp13
 70
     1
102
RTVSPropertyOp14
 70
     1
102
RTVSPropertyOp15
 70
     1
102
RTVSPropertyOp16
 70
     1
102
RTVSPropertyOp17
 70
     1
102
RTVSPropertyOp18
 70
     1
102
RTVSPropertyOp19
 70
     1
102
RTVSPropertyOp20
 70
     1
102
RTVSPropertyOp21
 70
     1
102
RTVSPropertyOp22
 70
     1
102
RTVSPropertyOp23
 70
     1
102
RTVSPropertyOp24
 70
     1
102
RTVSPropertyOp25
 70
     1
102
RTVSPropertyOp26
 70
     1
102
RTVSPropertyOp27
 70
     1
102
RTVSPropertyOp28
 70
     1
102
RTVSPropertyOp29
 70
     1
102
RTVSPropertyOp30
 70
     1
102
RTVSPropertyOp31
 70
     1
102
RTVSPropertyOp32
 70
     1
102
RTVSPropertyOp33
 70
     1
102
RTVSPropertyOp34
 70
     1
102
RTVSPropertyOp35
 70
     1
102
RTVSPropertyOp36
 70
     1
102
RTVSPropertyOp37
 70
     1
102
RTVSPropertyOp38
 70
     1
102
RTVSPropertyOp39
 70
     1
102
RTVSPropertyOp40
 70
     1
102
RTVSPropertyOp41
 70
     1
102
RTVSPropertyOp42
 70
     1
102
RTVSPropertyOp43
 70
     1
102
RTVSPropertyOp44
 70
     1
102
RTVSPropertyOp45
 70
     1
102
RTVSPropertyOp46
 70
     1
102
RTVSPropertyOp47
 70
     1
102
RTVSPropertyOp48
 70
     1
102
RTVSPropertyOp49
 70
     1
102
RTVSPropertyOp50
 70
     1
102
RTVSPropertyOp51
 70
     0
102
RTVSPropertyOp52
 70
     0
102
RTVSPropertyOp53
 70
     1
102
RTVSPropertyOp54
 70
     1
102
RTVSPropertyOp55
 70
     1
102
RTVSPropertyOp56
 70
     1
102
RTVSPropertyOp57
 70
     1
102
RTVSPost2010Prop28
280
     0
102
RTVSPost2010PropOp28
 70
     1
102
RTVSPost2010Prop29
280
     1
102
RTVSPost2010PropOp29
 70
     1
102
RTVSPost2010Prop30
280
     1
102
RTVSPost2010PropOp30
 70
     1
102
RTVSPost2010Prop31
280
     0
102
RTVSPost2010PropOp31
 70
     1
102
RTVSPost2010Prop32
280
     0
102
RTVSPost2010PropOp32
 70
     1
102
RTVSPost2010Prop33
280
     0
102
RTVSPost2010PropOp33
 70
     1
102
RTVSPost2010Prop34
280
     0
102
RTVSPost2010PropOp34
 70
     1
102
RTVSPost2010Prop35
280
     0
102
RTVSPost2010PropOp35
 70
     1
102
RTVSPost2010Prop36
280
     0
102
RTVSPost2010PropOp36
 70
     1
102
RTVSPost2010Prop37
 90
       50
102
RTVSPost2010PropOp37
 70
     1
102
RTVSPost2010Prop38
140
0.0
102
RTVSPost2010PropOp38
 70
     1
102
RTVSPost2010Prop39
140
1.0
102
RTVSPost2010PropOp39
 70
     1
102
RTVSPost2010Prop40
 90
        0
102
RTVSPost2010PropOp40
 70
     1
102
RTVSPost2010Prop41ColorIndex
 90
       18
102
RTVSPost2010Prop41ColorRGB
 90
        0
102
RTVSPost2010PropOp41
 70
     1
102
RTVSPost2010Prop42
 90
       50
102
RTVSPost2010PropOp42
 70
     1
102
RTVSPost2010Prop43
 90
        3
102
RTVSPost2010PropOp43
 70
     1
102
RTVSPost2010Prop44ColorIndex
 90
        5
102
RTVSPost2010Prop44ColorRGB
 90
      255
102
RTVSPost2010PropOp44
 70
     1
102
RTVSPost2010Prop45
280
     0
102
RTVSPost2010PropOp45
 70
     1
102
RTVSPost2010Prop46
 90
       50
102
RTVSPost2010PropOp46
 70
     1
102
RTVSPost2010Prop47
 90
       50
102
RTVSPost2010PropOp47
 70
     1
102
RTVSPost2010Prop48
 90
       50
102
RTVSPost2010PropOp48
 70
     1
102
RTVSPost2010Prop49
280
     0
102
RTVSPost2010PropOp49
 70
     1
102
RTVSPost2010Prop50
 90
       50
102
RTVSPost2010PropOp50
 70
     1
102
RTVSPost2010Prop51ColorIndex
 90
      256
102
RTVSPost2010Prop51ColorRGB
 90
-16777216
102
RTVSPost2010PropOp51
 70
     0
102
RTVSPost2010Prop52
140
1.0
102
RTVSPost2010PropOp52
 70
     0
102
RTVSPost2010Prop53
 90
        2
102
RTVSPost2010PropOp53
 70
     1
102
RTVSPost2010Prop54
  1
strokes_ogs.tif
102
RTVSPost2010PropOp54
 70
     1
102
RTVSPost2010Prop55
280
     0
102
RTVSPost2010PropOp55
 70
     1
102
RTVSPost2010Prop56
140
1.0
102
RTVSPost2010PropOp56
 70
     1
102
RTVSPost2010Prop57
140
1.0
102
RTVSPost2010PropOp57
 70
     1
  0
XRECORD
  5
356
102
{ACAD_REACTORS
330
355
102
}
330
355
100
AcDbXrecord
280
     1
102
RTVSPropertyOp0
 70
     1
102
RTVSPropertyOp1
 70
     1
102
RTVSPropertyOp2
 70
     1
102
RTVSPropertyOp3
 70
     1
102
RTVSPropertyOp4
 70
     1
102
RTVSPropertyOp5
 70
     1
102
RTVSPropertyOp6
 70
     1
102
RTVSPropertyOp7
 70
     1
102
RTVSPropertyOp8
 70
     1
102
RTVSPropertyOp9
 70
     1
102
RTVSPropertyOp10
 70
     1
102
RTVSPropertyOp11
 70
     1
102
RTVSPropertyOp12
 70
     1
102
RTVSPropertyOp13
 70
     1
102
RTVSPropertyOp14
 70
     1
102
RTVSPropertyOp15
 70
     1
102
RTVSPropertyOp16
 70
     1
102
RTVSPropertyOp17
 70
     1
102
RTVSPropertyOp18
 70
     1
102
RTVSPropertyOp19
 70
     1
102
RTVSPropertyOp20
 70
     1
102
RTVSPropertyOp21
 70
     1
102
RTVSPropertyOp22
 70
     1
102
RTVSPropertyOp23
 70
     1
102
RTVSPropertyOp24
 70
     1
102
RTVSPropertyOp25
 70
     1
102
RTVSPropertyOp26
 70
     1
102
RTVSPropertyOp27
 70
     1
102
RTVSPropertyOp28
 70
     1
102
RTVSPropertyOp29
 70
     1
102
RTVSPropertyOp30
 70
     1
102
RTVSPropertyOp31
 70
     1
102
RTVSPropertyOp32
 70
     1
102
RTVSPropertyOp33
 70
     1
102
RTVSPropertyOp34
 70
     1
102
RTVSPropertyOp35
 70
     1
102
RTVSPropertyOp36
 70
     1
102
RTVSPropertyOp37
 70
     1
102
RTVSPropertyOp38
 70
     1
102
RTVSPropertyOp39
 70
     1
102
RTVSPropertyOp40
 70
     1
102
RTVSPropertyOp41
 70
     1
102
RTVSPropertyOp42
 70
     1
102
RTVSPropertyOp43
 70
     1
102
RTVSPropertyOp44
 70
     1
102
RTVSPropertyOp45
 70
     1
102
RTVSPropertyOp46
 70
     1
102
RTVSPropertyOp47
 70
     1
102
RTVSPropertyOp48
 70
     1
102
RTVSPropertyOp49
 70
     1
102
RTVSPropertyOp50
 70
     1
102
RTVSPropertyOp51
 70
     0
102
RTVSPropertyOp52
 70
     0
102
RTVSPropertyOp53
 70
     1
102
RTVSPropertyOp54
 70
     1
102
RTVSPropertyOp55
 70
     1
102
RTVSPropertyOp56
 70
     1
102
RTVSPropertyOp57
 70
     1
102
RTVSPost2010Prop28
280
     0
102
RTVSPost2010PropOp28
 70
     1
102
RTVSPost2010Prop29
280
     1
102
RTVSPost2010PropOp29
 70
     1
102
RTVSPost2010Prop30
280
     1
102
RTVSPost2010PropOp30
 70
     1
102
RTVSPost2010Prop31
280
     0
102
RTVSPost2010PropOp31
 70
     1
102
RTVSPost2010Prop32
280
     0
102
RTVSPost2010PropOp32
 70
     1
102
RTVSPost2010Prop33
280
     0
102
RTVSPost2010PropOp33
 70
     1
102
RTVSPost2010Prop34
280
     0
102
RTVSPost2010PropOp34
 70
     1
102
RTVSPost2010Prop35
280
     0
102
RTVSPost2010PropOp35
 70
     1
102
RTVSPost2010Prop36
280
     0
102
RTVSPost2010PropOp36
 70
     1
102
RTVSPost2010Prop37
 90
       50
102
RTVSPost2010PropOp37
 70
     1
102
RTVSPost2010Prop38
140
0.0
102
RTVSPost2010PropOp38
 70
     1
102
RTVSPost2010Prop39
140
1.0
102
RTVSPost2010PropOp39
 70
     1
102
RTVSPost2010Prop40
 90
        0
102
RTVSPost2010PropOp40
 70
     1
102
RTVSPost2010Prop41ColorIndex
 90
       18
102
RTVSPost2010Prop41ColorRGB
 90
        0
102
RTVSPost2010PropOp41
 70
     1
102
RTVSPost2010Prop42
 90
       50
102
RTVSPost2010PropOp42
 70
     1
102
RTVSPost2010Prop43
 90
        3
102
RTVSPost2010PropOp43
 70
     1
102
RTVSPost2010Prop44ColorIndex
 90
        5
102
RTVSPost2010Prop44ColorRGB
 90
      255
102
RTVSPost2010PropOp44
 70
     1
102
RTVSPost2010Prop45
280
     0
102
RTVSPost2010PropOp45
 70
     1
102
RTVSPost2010Prop46
 90
       50
102
RTVSPost2010PropOp46
 70
     1
102
RTVSPost2010Prop47
 90
       50
102
RTVSPost2010PropOp47
 70
     1
102
RTVSPost2010Prop48
 90
       50
102
RTVSPost2010PropOp48
 70
     1
102
RTVSPost2010Prop49
280
     0
102
RTVSPost2010PropOp49
 70
     1
102
RTVSPost2010Prop50
 90
       50
102
RTVSPost2010PropOp50
 70
     1
102
RTVSPost2010Prop51ColorIndex
 90
      256
102
RTVSPost2010Prop51ColorRGB
 90
-16777216
102
RTVSPost2010PropOp51
 70
     0
102
RTVSPost2010Prop52
140
1.0
102
RTVSPost2010PropOp52
 70
     0
102
RTVSPost2010Prop53
 90
        2
102
RTVSPost2010PropOp53
 70
     1
102
RTVSPost2010Prop54
  1
strokes_ogs.tif
102
RTVSPost2010PropOp54
 70
     1
102
RTVSPost2010Prop55
280
     0
102
RTVSPost2010PropOp55
 70
     1
102
RTVSPost2010Prop56
140
1.0
102
RTVSPost2010PropOp56
 70
     1
102
RTVSPost2010Prop57
140
1.0
102
RTVSPost2010PropOp57
 70
     1
  0
XRECORD
  5
354
102
{ACAD_REACTORS
330
353
102
}
330
353
100
AcDbXrecord
280
     1
102
RTVSPropertyOp0
 70
     1
102
RTVSPropertyOp1
 70
     1
102
RTVSPropertyOp2
 70
     1
102
RTVSPropertyOp3
 70
     1
102
RTVSPropertyOp4
 70
     1
102
RTVSPropertyOp5
 70
     1
102
RTVSPropertyOp6
 70
     1
102
RTVSPropertyOp7
 70
     1
102
RTVSPropertyOp8
 70
     1
102
RTVSPropertyOp9
 70
     1
102
RTVSPropertyOp10
 70
     1
102
RTVSPropertyOp11
 70
     1
102
RTVSPropertyOp12
 70
     1
102
RTVSPropertyOp13
 70
     1
102
RTVSPropertyOp14
 70
     1
102
RTVSPropertyOp15
 70
     1
102
RTVSPropertyOp16
 70
     1
102
RTVSPropertyOp17
 70
     1
102
RTVSPropertyOp18
 70
     1
102
RTVSPropertyOp19
 70
     1
102
RTVSPropertyOp20
 70
     1
102
RTVSPropertyOp21
 70
     1
102
RTVSPropertyOp22
 70
     1
102
RTVSPropertyOp23
 70
     1
102
RTVSPropertyOp24
 70
     1
102
RTVSPropertyOp25
 70
     1
102
RTVSPropertyOp26
 70
     1
102
RTVSPropertyOp27
 70
     1
102
RTVSPropertyOp28
 70
     1
102
RTVSPropertyOp29
 70
     1
102
RTVSPropertyOp30
 70
     1
102
RTVSPropertyOp31
 70
     1
102
RTVSPropertyOp32
 70
     1
102
RTVSPropertyOp33
 70
     1
102
RTVSPropertyOp34
 70
     1
102
RTVSPropertyOp35
 70
     1
102
RTVSPropertyOp36
 70
     1
102
RTVSPropertyOp37
 70
     1
102
RTVSPropertyOp38
 70
     1
102
RTVSPropertyOp39
 70
     1
102
RTVSPropertyOp40
 70
     1
102
RTVSPropertyOp41
 70
     1
102
RTVSPropertyOp42
 70
     1
102
RTVSPropertyOp43
 70
     1
102
RTVSPropertyOp44
 70
     1
102
RTVSPropertyOp45
 70
     1
102
RTVSPropertyOp46
 70
     1
102
RTVSPropertyOp47
 70
     1
102
RTVSPropertyOp48
 70
     1
102
RTVSPropertyOp49
 70
     1
102
RTVSPropertyOp50
 70
     1
102
RTVSPropertyOp51
 70
     0
102
RTVSPropertyOp52
 70
     0
102
RTVSPropertyOp53
 70
     1
102
RTVSPropertyOp54
 70
     1
102
RTVSPropertyOp55
 70
     1
102
RTVSPropertyOp56
 70
     1
102
RTVSPropertyOp57
 70
     1
102
RTVSPost2010Prop28
280
     0
102
RTVSPost2010PropOp28
 70
     1
102
RTVSPost2010Prop29
280
     1
102
RTVSPost2010PropOp29
 70
     1
102
RTVSPost2010Prop30
280
     1
102
RTVSPost2010PropOp30
 70
     1
102
RTVSPost2010Prop31
280
     0
102
RTVSPost2010PropOp31
 70
     1
102
RTVSPost2010Prop32
280
     0
102
RTVSPost2010PropOp32
 70
     1
102
RTVSPost2010Prop33
280
     0
102
RTVSPost2010PropOp33
 70
     1
102
RTVSPost2010Prop34
280
     0
102
RTVSPost2010PropOp34
 70
     1
102
RTVSPost2010Prop35
280
     0
102
RTVSPost2010PropOp35
 70
     1
102
RTVSPost2010Prop36
280
     0
102
RTVSPost2010PropOp36
 70
     1
102
RTVSPost2010Prop37
 90
       50
102
RTVSPost2010PropOp37
 70
     1
102
RTVSPost2010Prop38
140
0.0
102
RTVSPost2010PropOp38
 70
     1
102
RTVSPost2010Prop39
140
1.0
102
RTVSPost2010PropOp39
 70
     1
102
RTVSPost2010Prop40
 90
        0
102
RTVSPost2010PropOp40
 70
     1
102
RTVSPost2010Prop41ColorIndex
 90
       18
102
RTVSPost2010Prop41ColorRGB
 90
        0
102
RTVSPost2010PropOp41
 70
     1
102
RTVSPost2010Prop42
 90
       50
102
RTVSPost2010PropOp42
 70
     1
102
RTVSPost2010Prop43
 90
        3
102
RTVSPost2010PropOp43
 70
     1
102
RTVSPost2010Prop44ColorIndex
 90
        5
102
RTVSPost2010Prop44ColorRGB
 90
      255
102
RTVSPost2010PropOp44
 70
     1
102
RTVSPost2010Prop45
280
     0
102
RTVSPost2010PropOp45
 70
     1
102
RTVSPost2010Prop46
 90
       50
102
RTVSPost2010PropOp46
 70
     1
102
RTVSPost2010Prop47
 90
       50
102
RTVSPost2010PropOp47
 70
     1
102
RTVSPost2010Prop48
 90
       50
102
RTVSPost2010PropOp48
 70
     1
102
RTVSPost2010Prop49
280
     0
102
RTVSPost2010PropOp49
 70
     1
102
RTVSPost2010Prop50
 90
       50
102
RTVSPost2010PropOp50
 70
     1
102
RTVSPost2010Prop51ColorIndex
 90
      256
102
RTVSPost2010Prop51ColorRGB
 90
-16777216
102
RTVSPost2010PropOp51
 70
     0
102
RTVSPost2010Prop52
140
1.0
102
RTVSPost2010PropOp52
 70
     0
102
RTVSPost2010Prop53
 90
        2
102
RTVSPost2010PropOp53
 70
     1
102
RTVSPost2010Prop54
  1
strokes_ogs.tif
102
RTVSPost2010PropOp54
 70
     1
102
RTVSPost2010Prop55
280
     0
102
RTVSPost2010PropOp55
 70
     1
102
RTVSPost2010Prop56
140
1.0
102
RTVSPost2010PropOp56
 70
     1
102
RTVSPost2010Prop57
140
1.0
102
RTVSPost2010PropOp57
 70
     1
  0
XRECORD
  5
34E
102
{ACAD_REACTORS
330
34D
102
}
330
34D
100
AcDbXrecord
280
     1
102
RTVSPropertyOp0
 70
     1
102
RTVSPropertyOp1
 70
     1
102
RTVSPropertyOp2
 70
     1
102
RTVSPropertyOp3
 70
     1
102
RTVSPropertyOp4
 70
     1
102
RTVSPropertyOp5
 70
     1
102
RTVSPropertyOp6
 70
     1
102
RTVSPropertyOp7
 70
     1
102
RTVSPropertyOp8
 70
     1
102
RTVSPropertyOp9
 70
     1
102
RTVSPropertyOp10
 70
     1
102
RTVSPropertyOp11
 70
     1
102
RTVSPropertyOp12
 70
     1
102
RTVSPropertyOp13
 70
     1
102
RTVSPropertyOp14
 70
     1
102
RTVSPropertyOp15
 70
     1
102
RTVSPropertyOp16
 70
     1
102
RTVSPropertyOp17
 70
     1
102
RTVSPropertyOp18
 70
     1
102
RTVSPropertyOp19
 70
     1
102
RTVSPropertyOp20
 70
     1
102
RTVSPropertyOp21
 70
     1
102
RTVSPropertyOp22
 70
     1
102
RTVSPropertyOp23
 70
     1
102
RTVSPropertyOp24
 70
     1
102
RTVSPropertyOp25
 70
     1
102
RTVSPropertyOp26
 70
     1
102
RTVSPropertyOp27
 70
     1
102
RTVSPropertyOp28
 70
     1
102
RTVSPropertyOp29
 70
     1
102
RTVSPropertyOp30
 70
     1
102
RTVSPropertyOp31
 70
     1
102
RTVSPropertyOp32
 70
     1
102
RTVSPropertyOp33
 70
     1
102
RTVSPropertyOp34
 70
     1
102
RTVSPropertyOp35
 70
     1
102
RTVSPropertyOp36
 70
     1
102
RTVSPropertyOp37
 70
     1
102
RTVSPropertyOp38
 70
     1
102
RTVSPropertyOp39
 70
     1
102
RTVSPropertyOp40
 70
     1
102
RTVSPropertyOp41
 70
     1
102
RTVSPropertyOp42
 70
     1
102
RTVSPropertyOp43
 70
     1
102
RTVSPropertyOp44
 70
     1
102
RTVSPropertyOp45
 70
     1
102
RTVSPropertyOp46
 70
     1
102
RTVSPropertyOp47
 70
     1
102
RTVSPropertyOp48
 70
     1
102
RTVSPropertyOp49
 70
     1
102
RTVSPropertyOp50
 70
     1
102
RTVSPropertyOp51
 70
     0
102
RTVSPropertyOp52
 70
     0
102
RTVSPropertyOp53
 70
     1
102
RTVSPropertyOp54
 70
     1
102
RTVSPropertyOp55
 70
     1
102
RTVSPropertyOp56
 70
     1
102
RTVSPropertyOp57
 70
     1
102
RTVSPost2010Prop28
280
     0
102
RTVSPost2010PropOp28
 70
     1
102
RTVSPost2010Prop29
280
     1
102
RTVSPost2010PropOp29
 70
     1
102
RTVSPost2010Prop30
280
     1
102
RTVSPost2010PropOp30
 70
     1
102
RTVSPost2010Prop31
280
     0
102
RTVSPost2010PropOp31
 70
     1
102
RTVSPost2010Prop32
280
     0
102
RTVSPost2010PropOp32
 70
     1
102
RTVSPost2010Prop33
280
     0
102
RTVSPost2010PropOp33
 70
     1
102
RTVSPost2010Prop34
280
     0
102
RTVSPost2010PropOp34
 70
     1
102
RTVSPost2010Prop35
280
     0
102
RTVSPost2010PropOp35
 70
     1
102
RTVSPost2010Prop36
280
     0
102
RTVSPost2010PropOp36
 70
     1
102
RTVSPost2010Prop37
 90
       50
102
RTVSPost2010PropOp37
 70
     1
102
RTVSPost2010Prop38
140
0.0
102
RTVSPost2010PropOp38
 70
     1
102
RTVSPost2010Prop39
140
1.0
102
RTVSPost2010PropOp39
 70
     1
102
RTVSPost2010Prop40
 90
        0
102
RTVSPost2010PropOp40
 70
     1
102
RTVSPost2010Prop41ColorIndex
 90
       18
102
RTVSPost2010Prop41ColorRGB
 90
        0
102
RTVSPost2010PropOp41
 70
     1
102
RTVSPost2010Prop42
 90
       50
102
RTVSPost2010PropOp42
 70
     1
102
RTVSPost2010Prop43
 90
        3
102
RTVSPost2010PropOp43
 70
     1
102
RTVSPost2010Prop44ColorIndex
 90
        5
102
RTVSPost2010Prop44ColorRGB
 90
      255
102
RTVSPost2010PropOp44
 70
     1
102
RTVSPost2010Prop45
280
     0
102
RTVSPost2010PropOp45
 70
     1
102
RTVSPost2010Prop46
 90
       50
102
RTVSPost2010PropOp46
 70
     1
102
RTVSPost2010Prop47
 90
       50
102
RTVSPost2010PropOp47
 70
     1
102
RTVSPost2010Prop48
 90
       50
102
RTVSPost2010PropOp48
 70
     1
102
RTVSPost2010Prop49
280
     0
102
RTVSPost2010PropOp49
 70
     1
102
RTVSPost2010Prop50
 90
       50
102
RTVSPost2010PropOp50
 70
     1
102
RTVSPost2010Prop51ColorIndex
 90
      256
102
RTVSPost2010Prop51ColorRGB
 90
-16777216
102
RTVSPost2010PropOp51
 70
     0
102
RTVSPost2010Prop52
140
1.0
102
RTVSPost2010PropOp52
 70
     0
102
RTVSPost2010Prop53
 90
        2
102
RTVSPost2010PropOp53
 70
     1
102
RTVSPost2010Prop54
  1
strokes_ogs.tif
102
RTVSPost2010PropOp54
 70
     1
102
RTVSPost2010Prop55
280
     0
102
RTVSPost2010PropOp55
 70
     1
102
RTVSPost2010Prop56
140
1.0
102
RTVSPost2010PropOp56
 70
     1
102
RTVSPost2010Prop57
140
1.0
102
RTVSPost2010PropOp57
 70
     1
  0
XRECORD
  5
350
102
{ACAD_REACTORS
330
34F
102
}
330
34F
100
AcDbXrecord
280
     1
102
RTVSPropertyOp0
 70
     1
102
RTVSPropertyOp1
 70
     1
102
RTVSPropertyOp2
 70
     1
102
RTVSPropertyOp3
 70
     1
102
RTVSPropertyOp4
 70
     1
102
RTVSPropertyOp5
 70
     1
102
RTVSPropertyOp6
 70
     1
102
RTVSPropertyOp7
 70
     1
102
RTVSPropertyOp8
 70
     1
102
RTVSPropertyOp9
 70
     1
102
RTVSPropertyOp10
 70
     1
102
RTVSPropertyOp11
 70
     1
102
RTVSPropertyOp12
 70
     1
102
RTVSPropertyOp13
 70
     1
102
RTVSPropertyOp14
 70
     1
102
RTVSPropertyOp15
 70
     1
102
RTVSPropertyOp16
 70
     1
102
RTVSPropertyOp17
 70
     1
102
RTVSPropertyOp18
 70
     1
102
RTVSPropertyOp19
 70
     1
102
RTVSPropertyOp20
 70
     1
102
RTVSPropertyOp21
 70
     1
102
RTVSPropertyOp22
 70
     1
102
RTVSPropertyOp23
 70
     1
102
RTVSPropertyOp24
 70
     1
102
RTVSPropertyOp25
 70
     1
102
RTVSPropertyOp26
 70
     1
102
RTVSPropertyOp27
 70
     1
102
RTVSPropertyOp28
 70
     1
102
RTVSPropertyOp29
 70
     1
102
RTVSPropertyOp30
 70
     1
102
RTVSPropertyOp31
 70
     1
102
RTVSPropertyOp32
 70
     1
102
RTVSPropertyOp33
 70
     1
102
RTVSPropertyOp34
 70
     1
102
RTVSPropertyOp35
 70
     1
102
RTVSPropertyOp36
 70
     1
102
RTVSPropertyOp37
 70
     1
102
RTVSPropertyOp38
 70
     1
102
RTVSPropertyOp39
 70
     1
102
RTVSPropertyOp40
 70
     1
102
RTVSPropertyOp41
 70
     1
102
RTVSPropertyOp42
 70
     1
102
RTVSPropertyOp43
 70
     1
102
RTVSPropertyOp44
 70
     1
102
RTVSPropertyOp45
 70
     1
102
RTVSPropertyOp46
 70
     1
102
RTVSPropertyOp47
 70
     1
102
RTVSPropertyOp48
 70
     1
102
RTVSPropertyOp49
 70
     1
102
RTVSPropertyOp50
 70
     1
102
RTVSPropertyOp51
 70
     0
102
RTVSPropertyOp52
 70
     0
102
RTVSPropertyOp53
 70
     1
102
RTVSPropertyOp54
 70
     1
102
RTVSPropertyOp55
 70
     1
102
RTVSPropertyOp56
 70
     1
102
RTVSPropertyOp57
 70
     1
102
RTVSPost2010Prop28
280
     0
102
RTVSPost2010PropOp28
 70
     1
102
RTVSPost2010Prop29
280
     1
102
RTVSPost2010PropOp29
 70
     1
102
RTVSPost2010Prop30
280
     1
102
RTVSPost2010PropOp30
 70
     1
102
RTVSPost2010Prop31
280
     0
102
RTVSPost2010PropOp31
 70
     1
102
RTVSPost2010Prop32
280
     0
102
RTVSPost2010PropOp32
 70
     1
102
RTVSPost2010Prop33
280
     0
102
RTVSPost2010PropOp33
 70
     1
102
RTVSPost2010Prop34
280
     0
102
RTVSPost2010PropOp34
 70
     1
102
RTVSPost2010Prop35
280
     0
102
RTVSPost2010PropOp35
 70
     1
102
RTVSPost2010Prop36
280
     0
102
RTVSPost2010PropOp36
 70
     1
102
RTVSPost2010Prop37
 90
       50
102
RTVSPost2010PropOp37
 70
     1
102
RTVSPost2010Prop38
140
0.0
102
RTVSPost2010PropOp38
 70
     1
102
RTVSPost2010Prop39
140
1.0
102
RTVSPost2010PropOp39
 70
     1
102
RTVSPost2010Prop40
 90
        0
102
RTVSPost2010PropOp40
 70
     1
102
RTVSPost2010Prop41ColorIndex
 90
       18
102
RTVSPost2010Prop41ColorRGB
 90
        0
102
RTVSPost2010PropOp41
 70
     1
102
RTVSPost2010Prop42
 90
       50
102
RTVSPost2010PropOp42
 70
     1
102
RTVSPost2010Prop43
 90
        3
102
RTVSPost2010PropOp43
 70
     1
102
RTVSPost2010Prop44ColorIndex
 90
        5
102
RTVSPost2010Prop44ColorRGB
 90
      255
102
RTVSPost2010PropOp44
 70
     1
102
RTVSPost2010Prop45
280
     0
102
RTVSPost2010PropOp45
 70
     1
102
RTVSPost2010Prop46
 90
       50
102
RTVSPost2010PropOp46
 70
     1
102
RTVSPost2010Prop47
 90
       50
102
RTVSPost2010PropOp47
 70
     1
102
RTVSPost2010Prop48
 90
       50
102
RTVSPost2010PropOp48
 70
     1
102
RTVSPost2010Prop49
280
     0
102
RTVSPost2010PropOp49
 70
     1
102
RTVSPost2010Prop50
 90
       50
102
RTVSPost2010PropOp50
 70
     1
102
RTVSPost2010Prop51ColorIndex
 90
      256
102
RTVSPost2010Prop51ColorRGB
 90
-16777216
102
RTVSPost2010PropOp51
 70
     0
102
RTVSPost2010Prop52
140
1.0
102
RTVSPost2010PropOp52
 70
     0
102
RTVSPost2010Prop53
 90
        2
102
RTVSPost2010PropOp53
 70
     1
102
RTVSPost2010Prop54
  1
strokes_ogs.tif
102
RTVSPost2010PropOp54
 70
     1
102
RTVSPost2010Prop55
280
     0
102
RTVSPost2010PropOp55
 70
     1
102
RTVSPost2010Prop56
140
1.0
102
RTVSPost2010PropOp56
 70
     1
102
RTVSPost2010Prop57
140
1.0
102
RTVSPost2010PropOp57
 70
     1
  0
XRECORD
  5
340
102
{ACAD_REACTORS
330
33F
102
}
330
33F
100
AcDbXrecord
280
     1
102
RTVSPropertyOp0
 70
     1
102
RTVSPropertyOp1
 70
     1
102
RTVSPropertyOp2
 70
     1
102
RTVSPropertyOp3
 70
     1
102
RTVSPropertyOp4
 70
     1
102
RTVSPropertyOp5
 70
     1
102
RTVSPropertyOp6
 70
     1
102
RTVSPropertyOp7
 70
     1
102
RTVSPropertyOp8
 70
     1
102
RTVSPropertyOp9
 70
     1
102
RTVSPropertyOp10
 70
     1
102
RTVSPropertyOp11
 70
     1
102
RTVSPropertyOp12
 70
     1
102
RTVSPropertyOp13
 70
     1
102
RTVSPropertyOp14
 70
     1
102
RTVSPropertyOp15
 70
     1
102
RTVSPropertyOp16
 70
     1
102
RTVSPropertyOp17
 70
     1
102
RTVSPropertyOp18
 70
     1
102
RTVSPropertyOp19
 70
     1
102
RTVSPropertyOp20
 70
     1
102
RTVSPropertyOp21
 70
     1
102
RTVSPropertyOp22
 70
     1
102
RTVSPropertyOp23
 70
     1
102
RTVSPropertyOp24
 70
     1
102
RTVSPropertyOp25
 70
     1
102
RTVSPropertyOp26
 70
     1
102
RTVSPropertyOp27
 70
     1
102
RTVSPropertyOp28
 70
     1
102
RTVSPropertyOp29
 70
     1
102
RTVSPropertyOp30
 70
     1
102
RTVSPropertyOp31
 70
     1
102
RTVSPropertyOp32
 70
     1
102
RTVSPropertyOp33
 70
     1
102
RTVSPropertyOp34
 70
     1
102
RTVSPropertyOp35
 70
     1
102
RTVSPropertyOp36
 70
     1
102
RTVSPropertyOp37
 70
     1
102
RTVSPropertyOp38
 70
     1
102
RTVSPropertyOp39
 70
     1
102
RTVSPropertyOp40
 70
     1
102
RTVSPropertyOp41
 70
     1
102
RTVSPropertyOp42
 70
     1
102
RTVSPropertyOp43
 70
     1
102
RTVSPropertyOp44
 70
     1
102
RTVSPropertyOp45
 70
     1
102
RTVSPropertyOp46
 70
     1
102
RTVSPropertyOp47
 70
     1
102
RTVSPropertyOp48
 70
     1
102
RTVSPropertyOp49
 70
     1
102
RTVSPropertyOp50
 70
     1
102
RTVSPropertyOp51
 70
     0
102
RTVSPropertyOp52
 70
     0
102
RTVSPropertyOp53
 70
     1
102
RTVSPropertyOp54
 70
     1
102
RTVSPropertyOp55
 70
     1
102
RTVSPropertyOp56
 70
     1
102
RTVSPropertyOp57
 70
     1
102
RTVSPost2010Prop28
280
     0
102
RTVSPost2010PropOp28
 70
     1
102
RTVSPost2010Prop29
280
     1
102
RTVSPost2010PropOp29
 70
     1
102
RTVSPost2010Prop30
280
     1
102
RTVSPost2010PropOp30
 70
     1
102
RTVSPost2010Prop31
280
     0
102
RTVSPost2010PropOp31
 70
     1
102
RTVSPost2010Prop32
280
     0
102
RTVSPost2010PropOp32
 70
     1
102
RTVSPost2010Prop33
280
     0
102
RTVSPost2010PropOp33
 70
     1
102
RTVSPost2010Prop34
280
     0
102
RTVSPost2010PropOp34
 70
     1
102
RTVSPost2010Prop35
280
     0
102
RTVSPost2010PropOp35
 70
     1
102
RTVSPost2010Prop36
280
     0
102
RTVSPost2010PropOp36
 70
     1
102
RTVSPost2010Prop37
 90
       50
102
RTVSPost2010PropOp37
 70
     1
102
RTVSPost2010Prop38
140
0.0
102
RTVSPost2010PropOp38
 70
     1
102
RTVSPost2010Prop39
140
1.0
102
RTVSPost2010PropOp39
 70
     1
102
RTVSPost2010Prop40
 90
        0
102
RTVSPost2010PropOp40
 70
     1
102
RTVSPost2010Prop41ColorIndex
 90
       18
102
RTVSPost2010Prop41ColorRGB
 90
        0
102
RTVSPost2010PropOp41
 70
     1
102
RTVSPost2010Prop42
 90
       50
102
RTVSPost2010PropOp42
 70
     1
102
RTVSPost2010Prop43
 90
        3
102
RTVSPost2010PropOp43
 70
     1
102
RTVSPost2010Prop44ColorIndex
 90
        5
102
RTVSPost2010Prop44ColorRGB
 90
      255
102
RTVSPost2010PropOp44
 70
     1
102
RTVSPost2010Prop45
280
     0
102
RTVSPost2010PropOp45
 70
     1
102
RTVSPost2010Prop46
 90
       50
102
RTVSPost2010PropOp46
 70
     1
102
RTVSPost2010Prop47
 90
       50
102
RTVSPost2010PropOp47
 70
     1
102
RTVSPost2010Prop48
 90
       50
102
RTVSPost2010PropOp48
 70
     1
102
RTVSPost2010Prop49
280
     0
102
RTVSPost2010PropOp49
 70
     1
102
RTVSPost2010Prop50
 90
       50
102
RTVSPost2010PropOp50
 70
     1
102
RTVSPost2010Prop51ColorIndex
 90
      256
102
RTVSPost2010Prop51ColorRGB
 90
-16777216
102
RTVSPost2010PropOp51
 70
     0
102
RTVSPost2010Prop52
140
1.0
102
RTVSPost2010PropOp52
 70
     0
102
RTVSPost2010Prop53
 90
        2
102
RTVSPost2010PropOp53
 70
     1
102
RTVSPost2010Prop54
  1
strokes_ogs.tif
102
RTVSPost2010PropOp54
 70
     1
102
RTVSPost2010Prop55
280
     0
102
RTVSPost2010PropOp55
 70
     1
102
RTVSPost2010Prop56
140
1.0
102
RTVSPost2010PropOp56
 70
     1
102
RTVSPost2010Prop57
140
1.0
102
RTVSPost2010PropOp57
 70
     1
  0
XRECORD
  5
332
102
{ACAD_REACTORS
330
331
102
}
330
331
100
AcDbXrecord
280
     1
102
RTVSPropertyOp0
 70
     1
102
RTVSPropertyOp1
 70
     1
102
RTVSPropertyOp2
 70
     1
102
RTVSPropertyOp3
 70
     1
102
RTVSPropertyOp4
 70
     1
102
RTVSPropertyOp5
 70
     1
102
RTVSPropertyOp6
 70
     1
102
RTVSPropertyOp7
 70
     1
102
RTVSPropertyOp8
 70
     1
102
RTVSPropertyOp9
 70
     1
102
RTVSPropertyOp10
 70
     1
102
RTVSPropertyOp11
 70
     1
102
RTVSPropertyOp12
 70
     1
102
RTVSPropertyOp13
 70
     1
102
RTVSPropertyOp14
 70
     1
102
RTVSPropertyOp15
 70
     1
102
RTVSPropertyOp16
 70
     1
102
RTVSPropertyOp17
 70
     1
102
RTVSPropertyOp18
 70
     1
102
RTVSPropertyOp19
 70
     1
102
RTVSPropertyOp20
 70
     1
102
RTVSPropertyOp21
 70
     1
102
RTVSPropertyOp22
 70
     1
102
RTVSPropertyOp23
 70
     1
102
RTVSPropertyOp24
 70
     1
102
RTVSPropertyOp25
 70
     1
102
RTVSPropertyOp26
 70
     1
102
RTVSPropertyOp27
 70
     1
102
RTVSPropertyOp28
 70
     1
102
RTVSPropertyOp29
 70
     1
102
RTVSPropertyOp30
 70
     1
102
RTVSPropertyOp31
 70
     1
102
RTVSPropertyOp32
 70
     1
102
RTVSPropertyOp33
 70
     1
102
RTVSPropertyOp34
 70
     1
102
RTVSPropertyOp35
 70
     1
102
RTVSPropertyOp36
 70
     1
102
RTVSPropertyOp37
 70
     1
102
RTVSPropertyOp38
 70
     1
102
RTVSPropertyOp39
 70
     1
102
RTVSPropertyOp40
 70
     1
102
RTVSPropertyOp41
 70
     1
102
RTVSPropertyOp42
 70
     1
102
RTVSPropertyOp43
 70
     1
102
RTVSPropertyOp44
 70
     1
102
RTVSPropertyOp45
 70
     1
102
RTVSPropertyOp46
 70
     1
102
RTVSPropertyOp47
 70
     1
102
RTVSPropertyOp48
 70
     1
102
RTVSPropertyOp49
 70
     1
102
RTVSPropertyOp50
 70
     1
102
RTVSPropertyOp51
 70
     0
102
RTVSPropertyOp52
 70
     0
102
RTVSPropertyOp53
 70
     1
102
RTVSPropertyOp54
 70
     1
102
RTVSPropertyOp55
 70
     1
102
RTVSPropertyOp56
 70
     1
102
RTVSPropertyOp57
 70
     1
102
RTVSPost2010Prop28
280
     0
102
RTVSPost2010PropOp28
 70
     1
102
RTVSPost2010Prop29
280
     1
102
RTVSPost2010PropOp29
 70
     1
102
RTVSPost2010Prop30
280
     1
102
RTVSPost2010PropOp30
 70
     1
102
RTVSPost2010Prop31
280
     0
102
RTVSPost2010PropOp31
 70
     1
102
RTVSPost2010Prop32
280
     0
102
RTVSPost2010PropOp32
 70
     1
102
RTVSPost2010Prop33
280
     0
102
RTVSPost2010PropOp33
 70
     1
102
RTVSPost2010Prop34
280
     0
102
RTVSPost2010PropOp34
 70
     1
102
RTVSPost2010Prop35
280
     0
102
RTVSPost2010PropOp35
 70
     1
102
RTVSPost2010Prop36
280
     0
102
RTVSPost2010PropOp36
 70
     1
102
RTVSPost2010Prop37
 90
       50
102
RTVSPost2010PropOp37
 70
     1
102
RTVSPost2010Prop38
140
0.0
102
RTVSPost2010PropOp38
 70
     1
102
RTVSPost2010Prop39
140
1.0
102
RTVSPost2010PropOp39
 70
     1
102
RTVSPost2010Prop40
 90
        0
102
RTVSPost2010PropOp40
 70
     1
102
RTVSPost2010Prop41ColorIndex
 90
       18
102
RTVSPost2010Prop41ColorRGB
 90
        0
102
RTVSPost2010PropOp41
 70
     1
102
RTVSPost2010Prop42
 90
       50
102
RTVSPost2010PropOp42
 70
     1
102
RTVSPost2010Prop43
 90
        3
102
RTVSPost2010PropOp43
 70
     1
102
RTVSPost2010Prop44ColorIndex
 90
        5
102
RTVSPost2010Prop44ColorRGB
 90
      255
102
RTVSPost2010PropOp44
 70
     1
102
RTVSPost2010Prop45
280
     0
102
RTVSPost2010PropOp45
 70
     1
102
RTVSPost2010Prop46
 90
       50
102
RTVSPost2010PropOp46
 70
     1
102
RTVSPost2010Prop47
 90
       50
102
RTVSPost2010PropOp47
 70
     1
102
RTVSPost2010Prop48
 90
       50
102
RTVSPost2010PropOp48
 70
     1
102
RTVSPost2010Prop49
280
     0
102
RTVSPost2010PropOp49
 70
     1
102
RTVSPost2010Prop50
 90
       50
102
RTVSPost2010PropOp50
 70
     1
102
RTVSPost2010Prop51ColorIndex
 90
      256
102
RTVSPost2010Prop51ColorRGB
 90
-16777216
102
RTVSPost2010PropOp51
 70
     0
102
RTVSPost2010Prop52
140
1.0
102
RTVSPost2010PropOp52
 70
     0
102
RTVSPost2010Prop53
 90
        2
102
RTVSPost2010PropOp53
 70
     1
102
RTVSPost2010Prop54
  1
strokes_ogs.tif
102
RTVSPost2010PropOp54
 70
     1
102
RTVSPost2010Prop55
280
     0
102
RTVSPost2010PropOp55
 70
     1
102
RTVSPost2010Prop56
140
1.0
102
RTVSPost2010PropOp56
 70
     1
102
RTVSPost2010Prop57
140
1.0
102
RTVSPost2010PropOp57
 70
     1
  0
XRECORD
  5
352
102
{ACAD_REACTORS
330
351
102
}
330
351
100
AcDbXrecord
280
     1
102
RTVSPropertyOp0
 70
     1
102
RTVSPropertyOp1
 70
     1
102
RTVSPropertyOp2
 70
     1
102
RTVSPropertyOp3
 70
     1
102
RTVSPropertyOp4
 70
     1
102
RTVSPropertyOp5
 70
     1
102
RTVSPropertyOp6
 70
     1
102
RTVSPropertyOp7
 70
     1
102
RTVSPropertyOp8
 70
     1
102
RTVSPropertyOp9
 70
     1
102
RTVSPropertyOp10
 70
     1
102
RTVSPropertyOp11
 70
     1
102
RTVSPropertyOp12
 70
     1
102
RTVSPropertyOp13
 70
     1
102
RTVSPropertyOp14
 70
     1
102
RTVSPropertyOp15
 70
     1
102
RTVSPropertyOp16
 70
     1
102
RTVSPropertyOp17
 70
     1
102
RTVSPropertyOp18
 70
     1
102
RTVSPropertyOp19
 70
     1
102
RTVSPropertyOp20
 70
     1
102
RTVSPropertyOp21
 70
     1
102
RTVSPropertyOp22
 70
     1
102
RTVSPropertyOp23
 70
     1
102
RTVSPropertyOp24
 70
     1
102
RTVSPropertyOp25
 70
     1
102
RTVSPropertyOp26
 70
     1
102
RTVSPropertyOp27
 70
     1
102
RTVSPropertyOp28
 70
     1
102
RTVSPropertyOp29
 70
     1
102
RTVSPropertyOp30
 70
     1
102
RTVSPropertyOp31
 70
     1
102
RTVSPropertyOp32
 70
     1
102
RTVSPropertyOp33
 70
     1
102
RTVSPropertyOp34
 70
     1
102
RTVSPropertyOp35
 70
     1
102
RTVSPropertyOp36
 70
     1
102
RTVSPropertyOp37
 70
     1
102
RTVSPropertyOp38
 70
     1
102
RTVSPropertyOp39
 70
     1
102
RTVSPropertyOp40
 70
     1
102
RTVSPropertyOp41
 70
     1
102
RTVSPropertyOp42
 70
     1
102
RTVSPropertyOp43
 70
     1
102
RTVSPropertyOp44
 70
     1
102
RTVSPropertyOp45
 70
     1
102
RTVSPropertyOp46
 70
     1
102
RTVSPropertyOp47
 70
     1
102
RTVSPropertyOp48
 70
     1
102
RTVSPropertyOp49
 70
     1
102
RTVSPropertyOp50
 70
     1
102
RTVSPropertyOp51
 70
     0
102
RTVSPropertyOp52
 70
     0
102
RTVSPropertyOp53
 70
     1
102
RTVSPropertyOp54
 70
     1
102
RTVSPropertyOp55
 70
     1
102
RTVSPropertyOp56
 70
     1
102
RTVSPropertyOp57
 70
     1
102
RTVSPost2010Prop28
280
     0
102
RTVSPost2010PropOp28
 70
     1
102
RTVSPost2010Prop29
280
     1
102
RTVSPost2010PropOp29
 70
     1
102
RTVSPost2010Prop30
280
     1
102
RTVSPost2010PropOp30
 70
     1
102
RTVSPost2010Prop31
280
     0
102
RTVSPost2010PropOp31
 70
     1
102
RTVSPost2010Prop32
280
     0
102
RTVSPost2010PropOp32
 70
     1
102
RTVSPost2010Prop33
280
     0
102
RTVSPost2010PropOp33
 70
     1
102
RTVSPost2010Prop34
280
     0
102
RTVSPost2010PropOp34
 70
     1
102
RTVSPost2010Prop35
280
     0
102
RTVSPost2010PropOp35
 70
     1
102
RTVSPost2010Prop36
280
     0
102
RTVSPost2010PropOp36
 70
     1
102
RTVSPost2010Prop37
 90
       50
102
RTVSPost2010PropOp37
 70
     1
102
RTVSPost2010Prop38
140
0.0
102
RTVSPost2010PropOp38
 70
     1
102
RTVSPost2010Prop39
140
1.0
102
RTVSPost2010PropOp39
 70
     1
102
RTVSPost2010Prop40
 90
        0
102
RTVSPost2010PropOp40
 70
     1
102
RTVSPost2010Prop41ColorIndex
 90
       18
102
RTVSPost2010Prop41ColorRGB
 90
        0
102
RTVSPost2010PropOp41
 70
     1
102
RTVSPost2010Prop42
 90
       50
102
RTVSPost2010PropOp42
 70
     1
102
RTVSPost2010Prop43
 90
        3
102
RTVSPost2010PropOp43
 70
     1
102
RTVSPost2010Prop44ColorIndex
 90
        5
102
RTVSPost2010Prop44ColorRGB
 90
      255
102
RTVSPost2010PropOp44
 70
     1
102
RTVSPost2010Prop45
280
     0
102
RTVSPost2010PropOp45
 70
     1
102
RTVSPost2010Prop46
 90
       50
102
RTVSPost2010PropOp46
 70
     1
102
RTVSPost2010Prop47
 90
       50
102
RTVSPost2010PropOp47
 70
     1
102
RTVSPost2010Prop48
 90
       50
102
RTVSPost2010PropOp48
 70
     1
102
RTVSPost2010Prop49
280
     0
102
RTVSPost2010PropOp49
 70
     1
102
RTVSPost2010Prop50
 90
       50
102
RTVSPost2010PropOp50
 70
     1
102
RTVSPost2010Prop51ColorIndex
 90
      256
102
RTVSPost2010Prop51ColorRGB
 90
-16777216
102
RTVSPost2010PropOp51
 70
     0
102
RTVSPost2010Prop52
140
1.0
102
RTVSPost2010PropOp52
 70
     0
102
RTVSPost2010Prop53
 90
        2
102
RTVSPost2010PropOp53
 70
     1
102
RTVSPost2010Prop54
  1
strokes_ogs.tif
102
RTVSPost2010PropOp54
 70
     1
102
RTVSPost2010Prop55
280
     0
102
RTVSPost2010PropOp55
 70
     1
102
RTVSPost2010Prop56
140
1.0
102
RTVSPost2010PropOp56
 70
     1
102
RTVSPost2010Prop57
140
1.0
102
RTVSPost2010PropOp57
 70
     1
  0
ENDSEC
  0
EOF
