  0
SECTION
  2
HEADER
  9
$ACADVER
  1
AC1015
  9
$ACADMAINTVER
 70
     6
  9
$DWGCODEPAGE
  3
ANSI_932
  9
$INSBASE
 10
0.0
 20
0.0
 30
0.0
  9
$EXTMIN
 10
-157.5
 20
-46.7578495815465
 30
0.0
  9
$EXTMAX
 10
153.0
 20
176.5
 30
0.0
  9
$LIMMIN
 10
0.0
 20
0.0
  9
$LIMMAX
 10
12.0
 20
9.0
  9
$ORTHOMODE
 70
     0
  9
$REGENMODE
 70
     1
  9
$FILLMODE
 70
     1
  9
$QTEXTMODE
 70
     0
  9
$MIRRTEXT
 70
     1
  9
$LTSCALE
 40
1.0
  9
$ATTMODE
 70
     1
  9
$TEXTSIZE
 40
0.2
  9
$TRACEWID
 40
0.05
  9
$TEXTSTYLE
  7
Standard
  9
$CLAYER
  8
0
  9
$CELTYPE
  6
ByLayer
  9
$CECOLOR
 62
   256
  9
$CELTSCALE
 40
1.0
  9
$DISPSILH
 70
     0
  9
$DIMSCALE
 40
1.0
  9
$DIMASZ
 40
0.18
  9
$DIMEXO
 40
0.0625
  9
$DIMDLI
 40
0.38
  9
$DIMRND
 40
0.0
  9
$DIMDLE
 40
0.0
  9
$DIMEXE
 40
0.18
  9
$DIMTP
 40
0.0
  9
$DIMTM
 40
0.0
  9
$DIMTXT
 40
0.18
  9
$DIMCEN
 40
0.09
  9
$DIMTSZ
 40
0.0
  9
$DIMTOL
 70
     0
  9
$DIMLIM
 70
     0
  9
$DIMTIH
 70
     1
  9
$DIMTOH
 70
     1
  9
$DIMSE1
 70
     0
  9
$DIMSE2
 70
     0
  9
$DIMTAD
 70
     0
  9
$DIMZIN
 70
     0
  9
$DIMBLK
  1

  9
$DIMASO
 70
     1
  9
$DIMSHO
 70
     1
  9
$DIMPOST
  1

  9
$DIMAPOST
  1

  9
$DIMALT
 70
     0
  9
$DIMALTD
 70
     2
  9
$DIMALTF
 40
25.4
  9
$DIMLFAC
 40
1.0
  9
$DIMTOFL
 70
     0
  9
$DIMTVP
 40
0.0
  9
$DIMTIX
 70
     0
  9
$DIMSOXD
 70
     0
  9
$DIMSAH
 70
     0
  9
$DIMBLK1
  1

  9
$DIMBLK2
  1

  9
$DIMSTYLE
  2
Standard
  9
$DIMCLRD
 70
     0
  9
$DIMCLRE
 70
     0
  9
$DIMCLRT
 70
     0
  9
$DIMTFAC
 40
1.0
  9
$DIMGAP
 40
0.09
  9
$DIMJUST
 70
     0
  9
$DIMSD1
 70
     0
  9
$DIMSD2
 70
     0
  9
$DIMTOLJ
 70
     1
  9
$DIMTZIN
 70
     0
  9
$DIMALTZ
 70
     0
  9
$DIMALTTZ
 70
     0
  9
$DIMUPT
 70
     0
  9
$DIMDEC
 70
     4
  9
$DIMTDEC
 70
     4
  9
$DIMALTU
 70
     2
  9
$DIMALTTD
 70
     2
  9
$DIMTXSTY
  7
Standard
  9
$DIMAUNIT
 70
     0
  9
$DIMADEC
 70
     0
  9
$DIMALTRND
 40
0.0
  9
$DIMAZIN
 70
     0
  9
$DIMDSEP
 70
    46
  9
$DIMATFIT
 70
     3
  9
$DIMFRAC
 70
     0
  9
$DIMLDRBLK
  1

  9
$DIMLUNIT
 70
     2
  9
$DIMLWD
 70
    -2
  9
$DIMLWE
 70
    -2
  9
$DIMTMOVE
 70
     0
  9
$LUNITS
 70
     2
  9
$LUPREC
 70
     4
  9
$SKETCHINC
 40
0.1
  9
$FILLETRAD
 40
0.5
  9
$AUNITS
 70
     0
  9
$AUPREC
 70
     0
  9
$MENU
  1
.
  9
$ELEVATION
 40
0.0
  9
$PELEVATION
 40
0.0
  9
$THICKNESS
 40
0.0
  9
$LIMCHECK
 70
     0
  9
$CHAMFERA
 40
0.0
  9
$CHAMFERB
 40
0.0
  9
$CHAMFERC
 40
0.0
  9
$CHAMFERD
 40
0.0
  9
$SKPOLY
 70
     0
  9
$TDCREATE
 40
2458080.576070544
  9
$TDUCREATE
 40
2458080.201070544
  9
$TDUPDATE
 40
2458080.576072083
  9
$TDUUPDATE
 40
2458080.201072083
  9
$TDINDWG
 40
0.0000000116
  9
$TDUSRTIMER
 40
0.0000000116
  9
$USRTIMER
 70
     1
  9
$ANGBASE
 50
0.0
  9
$ANGDIR
 70
     0
  9
$PDMODE
 70
     0
  9
$PDSIZE
 40
0.0
  9
$PLINEWID
 40
0.0
  9
$SPLFRAME
 70
     0
  9
$SPLINETYPE
 70
     6
  9
$SPLINESEGS
 70
     8
  9
$HANDSEED
  5
357
  9
$SURFTAB1
 70
     6
  9
$SURFTAB2
 70
     6
  9
$SURFTYPE
 70
     6
  9
$SURFU
 70
     6
  9
$SURFV
 70
     6
  9
$UCSBASE
  2

  9
$UCSNAME
  2

  9
$UCSORG
 10
0.0
 20
0.0
 30
0.0
  9
$UCSXDIR
 10
1.0
 20
0.0
 30
0.0
  9
$UCSYDIR
 10
0.0
 20
1.0
 30
0.0
  9
$UCSORTHOREF
  2

  9
$UCSORTHOVIEW
 70
     0
  9
$UCSORGTOP
 10
0.0
 20
0.0
 30
0.0
  9
$UCSORGBOTTOM
 10
0.0
 20
0.0
 30
0.0
  9
$UCSORGLEFT
 10
0.0
 20
0.0
 30
0.0
  9
$UCSORGRIGHT
 10
0.0
 20
0.0
 30
0.0
  9
$UCSORGFRONT
 10
0.0
 20
0.0
 30
0.0
  9
$UCSORGBACK
 10
0.0
 20
0.0
 30
0.0
  9
$PUCSBASE
  2

  9
$PUCSNAME
  2

  9
$PUCSORG
 10
0.0
 20
0.0
 30
0.0
  9
$PUCSXDIR
 10
1.0
 20
0.0
 30
0.0
  9
$PUCSYDIR
 10
0.0
 20
1.0
 30
0.0
  9
$PUCSORTHOREF
  2

  9
$PUCSORTHOVIEW
 70
     0
  9
$PUCSORGTOP
 10
0.0
 20
0.0
 30
0.0
  9
$PUCSORGBOTTOM
 10
0.0
 20
0.0
 30
0.0
  9
$PUCSORGLEFT
 10
0.0
 20
0.0
 30
0.0
  9
$PUCSORGRIGHT
 10
0.0
 20
0.0
 30
0.0
  9
$PUCSORGFRONT
 10
0.0
 20
0.0
 30
0.0
  9
$PUCSORGBACK
 10
0.0
 20
0.0
 30
0.0
  9
$USERI1
 70
     0
  9
$USERI2
 70
     0
  9
$USERI3
 70
     0
  9
$USERI4
 70
     0
  9
$USERI5
 70
     0
  9
$USERR1
 40
19.0
  9
$USERR2
 40
0.0
  9
$USERR3
 40
0.0
  9
$USERR4
 40
0.0
  9
$USERR5
 40
0.0
  9
$WORLDVIEW
 70
     1
  9
$SHADEDGE
 70
     3
  9
$SHADEDIF
 70
    70
  9
$TILEMODE
 70
     1
  9
$MAXACTVP
 70
    64
  9
$PINSBASE
 10
0.0
 20
0.0
 30
0.0
  9
$PLIMCHECK
 70
     0
  9
$PEXTMIN
 10
1.00000000000000E+20
 20
1.00000000000000E+20
 30
1.00000000000000E+20
  9
$PEXTMAX
 10
-1.00000000000000E+20
 20
-1.00000000000000E+20
 30
-1.00000000000000E+20
  9
$PLIMMIN
 10
0.0
 20
0.0
  9
$PLIMMAX
 10
12.0
 20
9.0
  9
$UNITMODE
 70
     0
  9
$VISRETAIN
 70
     1
  9
$PLINEGEN
 70
     0
  9
$PSLTSCALE
 70
     1
  9
$TREEDEPTH
 70
  3020
  9
$CMLSTYLE
  2
Standard
  9
$CMLJUST
 70
     0
  9
$CMLSCALE
 40
1.0
  9
$PROXYGRAPHICS
 70
     1
  9
$MEASUREMENT
 70
     1
  9
$CELWEIGHT
370
    -1
  9
$ENDCAPS
280
     0
  9
$JOINSTYLE
280
     0
  9
$LWDISPLAY
290
     0
  9
$INSUNITS
 70
     4
  9
$HYPERLINKBASE
  1

  9
$STYLESHEET
  1

  9
$XEDIT
290
     1
  9
$CEPSNTYPE
380
     0
  9
$PSTYLEMODE
290
     1
  9
$FINGERPRINTGUID
  2
{6A0F2563-8EE5-46A6-B5F9-5203D0644AFD}
  9
$VERSIONGUID
  2
{FAEB1C32-E019-11D5-929B-00C0DF256EC4}
  9
$EXTNAMES
290
     1
  9
$PSVPSCALE
 40
0.0
  9
$OLESTARTUP
290
     0
  0
ENDSEC
  0
SECTION
  2
CLASSES
  0
CLASS
  1
ACDBDICTIONARYWDFLT
  2
AcDbDictionaryWithDefault
  3
ObjectDBX Classes
 90
        0
280
     0
281
     0
  0
CLASS
  1
VISUALSTYLE
  2
AcDbVisualStyle
  3
ObjectDBX Classes
 90
     4095
280
     0
281
     0
  0
CLASS
  1
MATERIAL
  2
AcDbMaterial
  3
ObjectDBX Classes
 90
     1153
280
     0
281
     0
  0
CLASS
  1
SCALE
  2
AcDbScale
  3
ObjectDBX Classes
 90
     1153
280
     0
281
     0
  0
CLASS
  1
SUN
  2
AcDbSun
  3
SCENEOE
 90
     1153
280
     0
281
     0
  0
CLASS
  1
DICTIONARYVAR
  2
AcDbDictionaryVar
  3
ObjectDBX Classes
 90
        0
280
     0
281
     0
  0
CLASS
  1
ACDBPLACEHOLDER
  2
AcDbPlaceHolder
  3
ObjectDBX Classes
 90
        0
280
     0
281
     0
  0
CLASS
  1
LAYOUT
  2
AcDbLayout
  3
ObjectDBX Classes
 90
        0
280
     0
281
     0
  0
ENDSEC
  0
SECTION
  2
TABLES
  0
TABLE
  2
VPORT
  5
8
330
0
100
AcDbSymbolTable
 70
     1
  0
VPORT
  5
29
330
8
100
AcDbSymbolTableRecord
100
AcDbViewportTableRecord
  2
*Active
 70
     0
 10
0.0
 20
0.0
 11
1.0
 21
1.0
 12
-2.25
 22
64.87107520922675
 13
0.0
 23
0.0
 14
0.5
 24
0.5
 15
0.5
 25
0.5
 16
0.0
 26
0.0
 36
1.0
 17
0.0
 27
0.0
 37
0.0
 40
245.5836345397012
 41
1.60267857142857
 42
50.0
 43
0.0
 44
0.0
 50
0.0
 51
0.0
 71
     0
 72
   100
 73
     1
 74
     3
 75
     0
 76
     0
 77
     0
 78
     0
281
     0
 65
     1
110
0.0
120
0.0
130
0.0
111
1.0
121
0.0
131
0.0
112
0.0
122
1.0
132
0.0
 79
     0
146
0.0
  0
ENDTAB
  0
TABLE
  2
LTYPE
  5
5
330
0
100
AcDbSymbolTable
 70
     8
  0
LTYPE
  5
14
330
5
100
AcDbSymbolTableRecord
100
AcDbLinetypeTableRecord
  2
ByBlock
 70
     0
  3

 72
    65
 73
     0
 40
0.0
  0
LTYPE
  5
15
330
5
100
AcDbSymbolTableRecord
100
AcDbLinetypeTableRecord
  2
ByLayer
 70
     0
  3

 72
    65
 73
     0
 40
0.0
  0
LTYPE
  5
16
330
5
100
AcDbSymbolTableRecord
100
AcDbLinetypeTableRecord
  2
Continuous
 70
     0
  3
Solid line
 72
    65
 73
     0
 40
0.0
  0
LTYPE
  5
6A
330
5
100
AcDbSymbolTableRecord
100
AcDbLinetypeTableRecord
  2
DASHED
 70
     0
  3
Dashed
 72
    65
 73
     2
 40
15.0
 49
7.0
 74
     0
 49
-8.0
 74
     0
  0
LTYPE
  5
6B
330
5
100
AcDbSymbolTableRecord
100
AcDbLinetypeTableRecord
  2
DOTTED
 70
     0
  3
Dotted
 72
    65
 73
     2
 40
1.0
 49
0.0
 74
     0
 49
-1.0
 74
     0
  0
LTYPE
  5
6C
330
5
100
AcDbSymbolTableRecord
100
AcDbLinetypeTableRecord
  2
DOT_CENTER
 70
     0
  3
Dot_Center
 72
    65
 73
     4
 40
14.0
 49
12.0
 74
     0
 49
-1.0
 74
     0
 49
0.0
 74
     0
 49
-1.0
 74
     0
  0
LTYPE
  5
6D
330
5
100
AcDbSymbolTableRecord
100
AcDbLinetypeTableRecord
  2
LONG_DASHED
 70
     0
  3
Long_Dashed
 72
    65
 73
     2
 40
15.0
 49
10.0
 74
     0
 49
-5.0
 74
     0
  0
LTYPE
  5
6E
330
5
100
AcDbSymbolTableRecord
100
AcDbLinetypeTableRecord
  2
DASH_CENTER
 70
     0
  3
Dash_Center
 72
    65
 73
     4
 40
14.0
 49
11.0
 74
     0
 49
-1.0
 74
     0
 49
1.0
 74
     0
 49
-1.0
 74
     0
  0
LTYPE
  5
6F
330
5
100
AcDbSymbolTableRecord
100
AcDbLinetypeTableRecord
  2
PHANTOM
 70
     0
  3
Phantom
 72
    65
 73
     6
 40
13.0
 49
10.0
 74
     0
 49
-1.0
 74
     0
 49
0.0
 74
     0
 49
-1.0
 74
     0
 49
0.0
 74
     0
 49
-1.0
 74
     0
  0
LTYPE
  5
70
330
5
100
AcDbSymbolTableRecord
100
AcDbLinetypeTableRecord
  2
CENTER_DASH_DASH
 70
     0
  3
Center_Dash_Dash
 72
    65
 73
     6
 40
14.0
 49
9.0
 74
     0
 49
-1.0
 74
     0
 49
1.0
 74
     0
 49
-1.0
 74
     0
 49
1.0
 74
     0
 49
-1.0
 74
     0
  0
ENDTAB
  0
TABLE
  2
LAYER
  5
2
330
0
100
AcDbSymbolTable
 70
     2
  0
LAYER
  5
10
330
2
100
AcDbSymbolTableRecord
100
AcDbLayerTableRecord
  2
0
 70
     0
 62
     7
  6
Continuous
370
    -3
390
F
  0
LAYER
  5
71
330
2
100
AcDbSymbolTableRecord
100
AcDbLayerTableRecord
  2
1
 70
     0
 62
     7
  6
Continuous
370
    -3
390
F
  0
ENDTAB
  0
TABLE
  2
STYLE
  5
3
330
0
100
AcDbSymbolTable
 70
     1
  0
STYLE
  5
11
330
3
100
AcDbSymbolTableRecord
100
AcDbTextStyleTableRecord
  2
Standard
 70
     0
 40
0.0
 41
1.0
 50
0.0
 71
     0
 42
0.2
  3
txt
  4

  0
ENDTAB
  0
TABLE
  2
VIEW
  5
6
330
0
100
AcDbSymbolTable
 70
     0
  0
ENDTAB
  0
TABLE
  2
UCS
  5
7
330
0
100
AcDbSymbolTable
 70
     0
  0
ENDTAB
  0
TABLE
  2
APPID
  5
9
330
0
100
AcDbSymbolTable
 70
     1
  0
APPID
  5
12
330
9
100
AcDbSymbolTableRecord
100
AcDbRegAppTableRecord
  2
ACAD
 70
     0
  0
ENDTAB
  0
TABLE
  2
DIMSTYLE
  5
A
330
0
100
AcDbSymbolTable
 70
     1
100
AcDbDimStyleTable
  0
DIMSTYLE
105
27
330
A
100
AcDbSymbolTableRecord
100
AcDbDimStyleTableRecord
  2
Standard
 70
     0
178
     0
340
11
  0
ENDTAB
  0
TABLE
  2
BLOCK_RECORD
  5
1
330
0
100
AcDbSymbolTable
 70
     1
  0
BLOCK_RECORD
  5
1F
330
1
100
AcDbSymbolTableRecord
100
AcDbBlockTableRecord
  2
*Model_Space
340
22
  0
BLOCK_RECORD
  5
1B
330
1
100
AcDbSymbolTableRecord
100
AcDbBlockTableRecord
  2
*Paper_Space
340
1E
  0
BLOCK_RECORD
  5
23
330
1
100
AcDbSymbolTableRecord
100
AcDbBlockTableRecord
  2
*Paper_Space0
340
26
  0
ENDTAB
  0
ENDSEC
  0
SECTION
  2
BLOCKS
  0
BLOCK
  5
20
330
1F
100
AcDbEntity
  8
0
100
AcDbBlockBegin
  2
*Model_Space
 70
     0
 10
0.0
 20
0.0
 30
0.0
  3
*Model_Space
  1
*Model_Space
  0
ENDBLK
  5
21
330
1F
100
AcDbEntity
  8
0
100
AcDbBlockEnd
  0
BLOCK
  5
1C
330
1B
100
AcDbEntity
 67
     1
  8
0
100
AcDbBlockBegin
  2
*Paper_Space
 70
     0
 10
0.0
 20
0.0
 30
0.0
  3
*Paper_Space
  1
*Paper_Space
  0
ENDBLK
  5
1D
330
1B
100
AcDbEntity
 67
     1
  8
0
100
AcDbBlockEnd
  0
BLOCK
  5
24
330
23
100
AcDbEntity
  8
0
100
AcDbBlockBegin
  2
*Paper_Space0
 70
     0
 10
0.0
 20
0.0
 30
0.0
  3
*Paper_Space0
  1
*Paper_Space0
  0
ENDBLK
  5
25
330
23
100
AcDbEntity
  8
0
100
AcDbBlockEnd
  0
ENDSEC
  0
SECTION
  2
ENTITIES
  0
LINE
  5
72
330
1F
100
AcDbEntity
  8
1
  6
Continuous
 62
     3
100
AcDbLine
 10
-6.92820323027551
 20
152.0
 30
0.0
 11
-13.856406460551
 21
140.0
 31
0.0
  0
LINE
  5
73
330
1F
100
AcDbEntity
  8
1
  6
Continuous
 62
     3
100
AcDbLine
 10
-13.856406460551
 20
140.0
 30
0.0
 11
-6.92820323027551
 21
128.0
 31
0.0
  0
LINE
  5
74
330
1F
100
AcDbEntity
  8
1
  6
Continuous
 62
     3
100
AcDbLine
 10
-6.92820323027551
 20
128.0
 30
0.0
 11
6.92820323027551
 21
128.0
 31
0.0
  0
LINE
  5
75
330
1F
100
AcDbEntity
  8
1
  6
Continuous
 62
     3
100
AcDbLine
 10
6.92820323027551
 20
128.0
 30
0.0
 11
13.856406460551
 21
140.0
 31
0.0
  0
LINE
  5
76
330
1F
100
AcDbEntity
  8
1
  6
Continuous
 62
     3
100
AcDbLine
 10
13.856406460551
 20
140.0
 30
0.0
 11
6.92820323027551
 21
152.0
 31
0.0
  0
LINE
  5
77
330
1F
100
AcDbEntity
  8
1
  6
Continuous
 62
     3
100
AcDbLine
 10
6.92820323027551
 20
152.0
 30
0.0
 11
0.0
 21
152.0
 31
0.0
  0
LINE
  5
78
330
1F
100
AcDbEntity
  8
1
  6
Continuous
 62
     3
100
AcDbLine
 10
0.0
 20
152.0
 30
0.0
 11
-6.92820323027551
 21
152.0
 31
0.0
  0
LINE
  5
79
330
1F
100
AcDbEntity
  8
1
  6
Continuous
 62
     3
100
AcDbLine
 10
-23.0
 20
144.6
 30
0.0
 11
-23.0
 21
135.4
 31
0.0
  0
LINE
  5
7A
330
1F
100
AcDbEntity
  8
1
  6
Continuous
 62
     3
100
AcDbLine
 10
-11.3100704081862
 20
152.5
 30
0.0
 11
-2.51246890528023
 21
152.5
 31
0.0
  0
LINE
  5
7B
330
1F
100
AcDbEntity
  8
1
  6
Continuous
 62
     3
100
AcDbLine
 10
-12.2449325538955
 20
151.855010941409
 30
0.0
 11
-14.7550674461045
 21
145.244989058591
 31
0.0
  0
LINE
  5
7C
330
1F
100
AcDbEntity
  8
1
  6
Continuous
 62
     3
100
AcDbLine
 10
-15.6899295918138
 20
144.6
 30
0.0
 11
-19.0
 21
144.6
 31
0.0
  0
LINE
  5
7D
330
1F
100
AcDbEntity
  8
1
  6
Continuous
 62
     3
100
AcDbLine
 10
-23.0
 20
135.4
 30
0.0
 11
-19.0
 21
135.4
 31
0.0
  0
LINE
  5
7E
330
1F
100
AcDbEntity
  8
1
  6
Continuous
 62
     3
100
AcDbLine
 10
-14.7550674461045
 20
134.755010941409
 30
0.0
 11
-12.2449325538955
 21
128.144989058591
 31
0.0
  0
LINE
  5
7F
330
1F
100
AcDbEntity
  8
1
  6
LONG_DASHED
 62
     3
100
AcDbLine
 10
-19.0
 20
144.6
 30
0.0
 11
-19.0
 21
135.4
 31
0.0
  0
LINE
  5
80
330
1F
100
AcDbEntity
  8
1
  6
Continuous
 62
     3
100
AcDbLine
 10
-19.0
 20
144.6
 30
0.0
 11
-23.0
 21
144.6
 31
0.0
  0
LINE
  5
81
330
1F
100
AcDbEntity
  8
1
  6
Continuous
 62
     3
100
AcDbLine
 10
-19.0
 20
135.4
 30
0.0
 11
-15.6899295918138
 21
135.4
 31
0.0
  0
LINE
  5
82
330
1F
100
AcDbEntity
  8
1
  6
Continuous
 62
     3
100
AcDbLine
 10
20.5
 20
152.5
 30
0.0
 11
20.5
 21
127.5
 31
0.0
  0
LINE
  5
83
330
1F
100
AcDbEntity
  8
1
  6
Continuous
 62
     3
100
AcDbLine
 10
20.5
 20
127.5
 30
0.0
 11
2.51246890528023
 21
127.5
 31
0.0
  0
LINE
  5
84
330
1F
100
AcDbEntity
  8
1
  6
Continuous
 62
     3
100
AcDbLine
 10
46.6733127480703
 20
129.5
 30
0.0
 11
46.6733127480703
 21
150.5
 31
0.0
  0
LINE
  5
85
330
1F
100
AcDbEntity
  8
1
  6
Continuous
 62
     3
100
AcDbLine
 10
2.51246890528023
 20
152.5
 30
0.0
 11
20.5
 21
152.5
 31
0.0
  0
LINE
  5
86
330
1F
100
AcDbEntity
  8
1
  6
Continuous
 62
     3
100
AcDbLine
 10
-2.51246890528023
 20
127.5
 30
0.0
 11
-11.3100704081862
 21
127.5
 31
0.0
  0
LINE
  5
87
330
1F
100
AcDbEntity
  8
1
  6
Continuous
 62
     3
100
AcDbLine
 10
20.5
 20
152.5
 30
0.0
 11
23.0
 21
152.5
 31
0.0
  0
LINE
  5
88
330
1F
100
AcDbEntity
  8
1
  6
Continuous
 62
     3
100
AcDbLine
 10
143.091663046626
 20
154.5
 30
0.0
 11
25.0
 21
154.5
 31
0.0
  0
LINE
  5
89
330
1F
100
AcDbEntity
  8
1
  6
Continuous
 62
     3
100
AcDbLine
 10
25.0
 20
125.5
 30
0.0
 11
143.091663046626
 21
125.5
 31
0.0
  0
LINE
  5
8A
330
1F
100
AcDbEntity
  8
1
  6
Continuous
 62
     3
100
AcDbLine
 10
25.0
 20
151.5
 30
0.0
 11
25.0
 21
128.5
 31
0.0
  0
LINE
  5
8B
330
1F
100
AcDbEntity
  8
1
  6
Continuous
 62
     3
100
AcDbLine
 10
23.0
 20
127.5
 30
0.0
 11
20.5
 21
127.5
 31
0.0
  0
LINE
  5
8C
102
{ACAD_REACTORS
330
30C
102
}
330
1F
100
AcDbEntity
  8
1
  6
Continuous
 62
     3
100
AcDbLine
 10
87.7060017051703
 20
141.696906354515
 30
0.0
 11
89.160769595856
 21
141.696906354515
 31
0.0
  0
LINE
  5
8D
102
{ACAD_REACTORS
330
30C
102
}
330
1F
100
AcDbEntity
  8
1
  6
Continuous
 62
     3
100
AcDbLine
 10
89.160769595856
 20
140.242622740757
 30
0.0
 11
89.160769595856
 21
141.696906354515
 31
0.0
  0
LINE
  5
8E
102
{ACAD_REACTORS
330
30C
102
}
330
1F
100
AcDbEntity
  8
1
  6
Continuous
 62
     3
100
AcDbLine
 10
89.160769595856
 20
140.242622740757
 30
0.0
 11
91.7779958236932
 21
140.242622740757
 31
0.0
  0
LINE
  5
8F
102
{ACAD_REACTORS
330
30C
102
}
330
1F
100
AcDbEntity
  8
1
  6
Continuous
 62
     3
100
AcDbLine
 10
91.7779958236932
 20
141.696906354515
 30
0.0
 11
91.7779958236932
 21
140.242622740757
 31
0.0
  0
LINE
  5
90
102
{ACAD_REACTORS
330
30C
102
}
330
1F
100
AcDbEntity
  8
1
  6
Continuous
 62
     3
100
AcDbLine
 10
91.7779958236932
 20
141.696906354515
 30
0.0
 11
93.232763714379
 21
141.696906354515
 31
0.0
  0
LINE
  5
91
102
{ACAD_REACTORS
330
30C
102
}
330
1F
100
AcDbEntity
  8
1
  6
Continuous
 62
     3
100
AcDbLine
 10
93.232763714379
 20
141.696906354515
 30
0.0
 11
93.232763714379
 21
138.303093645485
 31
0.0
  0
LINE
  5
92
102
{ACAD_REACTORS
330
30C
102
}
330
1F
100
AcDbEntity
  8
1
  6
Continuous
 62
     3
100
AcDbLine
 10
91.7779958236932
 20
138.303093645485
 30
0.0
 11
93.232763714379
 21
138.303093645485
 31
0.0
  0
LINE
  5
93
102
{ACAD_REACTORS
330
30C
102
}
330
1F
100
AcDbEntity
  8
1
  6
Continuous
 62
     3
100
AcDbLine
 10
91.7779958236932
 20
139.757377259243
 30
0.0
 11
91.7779958236932
 21
138.303093645485
 31
0.0
  0
LINE
  5
94
102
{ACAD_REACTORS
330
30C
102
}
330
1F
100
AcDbEntity
  8
1
  6
Continuous
 62
     3
100
AcDbLine
 10
89.160769595856
 20
139.757377259243
 30
0.0
 11
91.7779958236932
 21
139.757377259243
 31
0.0
  0
LINE
  5
95
102
{ACAD_REACTORS
330
30C
102
}
330
1F
100
AcDbEntity
  8
1
  6
Continuous
 62
     3
100
AcDbLine
 10
89.160769595856
 20
138.303093645485
 30
0.0
 11
89.160769595856
 21
139.757377259243
 31
0.0
  0
LINE
  5
96
102
{ACAD_REACTORS
330
30C
102
}
330
1F
100
AcDbEntity
  8
1
  6
Continuous
 62
     3
100
AcDbLine
 10
87.7060017051703
 20
138.303093645485
 30
0.0
 11
89.160769595856
 21
138.303093645485
 31
0.0
  0
LINE
  5
97
102
{ACAD_REACTORS
330
30C
102
}
330
1F
100
AcDbEntity
  8
1
  6
Continuous
 62
     3
100
AcDbLine
 10
87.7060017051703
 20
141.696906354515
 30
0.0
 11
87.7060017051703
 21
138.303093645485
 31
0.0
  0
LINE
  5
98
102
{ACAD_REACTORS
330
30D
102
}
330
1F
100
AcDbEntity
  8
1
  6
Continuous
 62
     3
100
AcDbLine
 10
96.8057312935573
 20
141.696906354515
 30
0.0
 11
98.8640834418908
 21
141.696906354515
 31
0.0
  0
LINE
  5
99
102
{ACAD_REACTORS
330
30D
102
}
330
1F
100
AcDbEntity
  8
1
  6
Continuous
 62
     3
100
AcDbLine
 10
98.8640834418908
 20
141.696906354515
 30
0.0
 11
100.900371067309
 21
138.303093645485
 31
0.0
  0
LINE
  5
9A
102
{ACAD_REACTORS
330
30D
102
}
330
1F
100
AcDbEntity
  8
1
  6
Continuous
 62
     3
100
AcDbLine
 10
99.1382763790877
 20
138.303093645485
 30
0.0
 11
100.900371067309
 21
138.303093645485
 31
0.0
  0
LINE
  5
9B
102
{ACAD_REACTORS
330
30D
102
}
330
1F
100
AcDbEntity
  8
1
  6
Continuous
 62
     3
100
AcDbLine
 10
98.6729056226852
 20
139.078711572823
 30
0.0
 11
99.1382763790877
 21
138.303093645485
 31
0.0
  0
LINE
  5
9C
102
{ACAD_REACTORS
330
30D
102
}
330
1F
100
AcDbEntity
  8
1
  6
Continuous
 62
     3
100
AcDbLine
 10
96.0775502069924
 20
139.078711572823
 30
0.0
 11
98.6729056226852
 21
139.078711572823
 31
0.0
  0
LINE
  5
9D
102
{ACAD_REACTORS
330
30D
102
}
330
1F
100
AcDbEntity
  8
1
  6
Continuous
 62
     3
100
AcDbLine
 10
95.5733985542229
 20
138.303093645485
 30
0.0
 11
96.0775502069924
 21
139.078711572823
 31
0.0
  0
LINE
  5
9E
102
{ACAD_REACTORS
330
30D
102
}
330
1F
100
AcDbEntity
  8
1
  6
Continuous
 62
     3
100
AcDbLine
 10
94.5997530326877
 20
138.303093645485
 30
0.0
 11
95.5733985542229
 21
138.303093645485
 31
0.0
  0
LINE
  5
9F
102
{ACAD_REACTORS
330
30D
102
}
330
1F
100
AcDbEntity
  8
1
  6
Continuous
 62
     3
100
AcDbLine
 10
94.5997530326877
 20
138.303093645485
 30
0.0
 11
96.8057312935573
 21
141.696906354515
 31
0.0
  0
LINE
  5
A0
102
{ACAD_REACTORS
330
30D
102
}
330
1F
100
AcDbEntity
  8
1
  6
Continuous
 62
     3
100
AcDbLine
 10
97.4271350231527
 20
141.154995905377
 30
0.0
 11
98.4399296783273
 21
139.467004813419
 31
0.0
  0
LINE
  5
A1
102
{ACAD_REACTORS
330
30D
102
}
330
1F
100
AcDbEntity
  8
1
  6
Continuous
 62
     3
100
AcDbLine
 10
98.4399296783273
 20
139.467004813419
 30
0.0
 11
96.3299408133802
 21
139.467004813419
 31
0.0
  0
LINE
  5
A2
102
{ACAD_REACTORS
330
30D
102
}
330
1F
100
AcDbEntity
  8
1
  6
Continuous
 62
     3
100
AcDbLine
 10
96.3299408133802
 20
139.467004813419
 30
0.0
 11
97.4271350231527
 21
141.154995905377
 31
0.0
  0
LINE
  5
A3
102
{ACAD_REACTORS
330
310
102
}
330
1F
100
AcDbEntity
  8
1
  6
Continuous
 62
     3
100
AcDbLine
 10
102.151885601835
 20
141.696906354515
 30
0.0
 11
104.73724860805
 21
141.696906354515
 31
0.0
  0
LINE
  5
A4
102
{ACAD_REACTORS
330
310
102
}
330
1F
100
AcDbEntity
  8
1
  6
Continuous
 62
     3
100
AcDbLine
 10
105.642408413318
 20
138.800394977656
 30
0.0
 11
104.73724860805
 21
141.696906354515
 31
0.0
  0
LINE
  5
A5
102
{ACAD_REACTORS
330
310
102
}
330
1F
100
AcDbEntity
  8
1
  6
Continuous
 62
     3
100
AcDbLine
 10
106.547568218587
 20
141.696906354515
 30
0.0
 11
105.642408413318
 21
138.800394977656
 31
0.0
  0
LINE
  5
A6
102
{ACAD_REACTORS
330
310
102
}
330
1F
100
AcDbEntity
  8
1
  6
Continuous
 62
     3
100
AcDbLine
 10
106.547568218587
 20
141.696906354515
 30
0.0
 11
109.132931224802
 21
141.696906354515
 31
0.0
  0
LINE
  5
A7
102
{ACAD_REACTORS
330
310
102
}
330
1F
100
AcDbEntity
  8
1
  6
Continuous
 62
     3
100
AcDbLine
 10
109.132931224802
 20
141.696906354515
 30
0.0
 11
109.132931224802
 21
138.303093645485
 31
0.0
  0
LINE
  5
A8
102
{ACAD_REACTORS
330
310
102
}
330
1F
100
AcDbEntity
  8
1
  6
Continuous
 62
     3
100
AcDbLine
 10
107.678163334116
 20
138.303093645485
 30
0.0
 11
109.132931224802
 21
138.303093645485
 31
0.0
  0
LINE
  5
A9
102
{ACAD_REACTORS
330
310
102
}
330
1F
100
AcDbEntity
  8
1
  6
Continuous
 62
     3
100
AcDbLine
 10
106.293868396339
 20
138.303093645485
 30
0.0
 11
107.290198594977
 21
141.192451221538
 31
0.0
  0
LINE
  5
AA
102
{ACAD_REACTORS
330
310
102
}
330
1F
100
AcDbEntity
  8
1
  6
Continuous
 62
     3
100
AcDbLine
 10
104.500679840944
 20
138.303093645485
 30
0.0
 11
106.293868396339
 21
138.303093645485
 31
0.0
  0
LINE
  5
AB
102
{ACAD_REACTORS
330
310
102
}
330
1F
100
AcDbEntity
  8
1
  6
Continuous
 62
     3
100
AcDbLine
 10
103.024940047017
 20
138.303093645485
 30
0.0
 11
103.024940047017
 21
141.192451221538
 31
0.0
  0
LINE
  5
AC
102
{ACAD_REACTORS
330
310
102
}
330
1F
100
AcDbEntity
  8
1
  6
Continuous
 62
     3
100
AcDbLine
 10
102.151885601835
 20
138.303093645485
 30
0.0
 11
103.024940047017
 21
138.303093645485
 31
0.0
  0
LINE
  5
AD
102
{ACAD_REACTORS
330
310
102
}
330
1F
100
AcDbEntity
  8
1
  6
Continuous
 62
     3
100
AcDbLine
 10
102.151885601835
 20
141.696906354515
 30
0.0
 11
102.151885601835
 21
138.303093645485
 31
0.0
  0
LINE
  5
AE
102
{ACAD_REACTORS
330
30E
102
}
330
1F
100
AcDbEntity
  8
1
  6
Continuous
 62
     3
100
AcDbLine
 10
110.499920543111
 20
138.303093645485
 30
0.0
 11
112.70589880398
 21
141.696906354515
 31
0.0
  0
LINE
  5
AF
102
{ACAD_REACTORS
330
30E
102
}
330
1F
100
AcDbEntity
  8
1
  6
Continuous
 62
     3
100
AcDbLine
 10
112.70589880398
 20
141.696906354515
 30
0.0
 11
114.764250952314
 21
141.696906354515
 31
0.0
  0
LINE
  5
B0
102
{ACAD_REACTORS
330
30E
102
}
330
1F
100
AcDbEntity
  8
1
  6
Continuous
 62
     3
100
AcDbLine
 10
114.764250952314
 20
141.696906354515
 30
0.0
 11
116.800538577732
 21
138.303093645485
 31
0.0
  0
LINE
  5
B1
102
{ACAD_REACTORS
330
30E
102
}
330
1F
100
AcDbEntity
  8
1
  6
Continuous
 62
     3
100
AcDbLine
 10
115.038443889511
 20
138.303093645485
 30
0.0
 11
116.800538577732
 21
138.303093645485
 31
0.0
  0
LINE
  5
B2
102
{ACAD_REACTORS
330
30E
102
}
330
1F
100
AcDbEntity
  8
1
  6
Continuous
 62
     3
100
AcDbLine
 10
114.573073133108
 20
139.078711572823
 30
0.0
 11
115.038443889511
 21
138.303093645485
 31
0.0
  0
LINE
  5
B3
102
{ACAD_REACTORS
330
30E
102
}
330
1F
100
AcDbEntity
  8
1
  6
Continuous
 62
     3
100
AcDbLine
 10
111.977717717415
 20
139.078711572823
 30
0.0
 11
114.573073133108
 21
139.078711572823
 31
0.0
  0
LINE
  5
B4
102
{ACAD_REACTORS
330
30E
102
}
330
1F
100
AcDbEntity
  8
1
  6
Continuous
 62
     3
100
AcDbLine
 10
111.473566064646
 20
138.303093645485
 30
0.0
 11
111.977717717415
 21
139.078711572823
 31
0.0
  0
LINE
  5
B5
102
{ACAD_REACTORS
330
30E
102
}
330
1F
100
AcDbEntity
  8
1
  6
Continuous
 62
     3
100
AcDbLine
 10
110.499920543111
 20
138.303093645485
 30
0.0
 11
111.473566064646
 21
138.303093645485
 31
0.0
  0
LINE
  5
B6
102
{ACAD_REACTORS
330
30E
102
}
330
1F
100
AcDbEntity
  8
1
  6
Continuous
 62
     3
100
AcDbLine
 10
112.230108323803
 20
139.467004813419
 30
0.0
 11
113.327302533576
 21
141.154995905377
 31
0.0
  0
LINE
  5
B7
102
{ACAD_REACTORS
330
30E
102
}
330
1F
100
AcDbEntity
  8
1
  6
Continuous
 62
     3
100
AcDbLine
 10
113.327302533576
 20
141.154995905377
 30
0.0
 11
114.34009718875
 21
139.467004813419
 31
0.0
  0
LINE
  5
B8
102
{ACAD_REACTORS
330
30E
102
}
330
1F
100
AcDbEntity
  8
1
  6
Continuous
 62
     3
100
AcDbLine
 10
114.34009718875
 20
139.467004813419
 30
0.0
 11
112.230108323803
 21
139.467004813419
 31
0.0
  0
LINE
  5
B9
102
{ACAD_REACTORS
330
30F
102
}
330
1F
100
AcDbEntity
  8
1
  6
Continuous
 62
     3
100
AcDbLine
 10
118.052053112258
 20
141.018240668095
 30
0.0
 11
119.506821002944
 21
141.018240668095
 31
0.0
  0
LINE
  5
BA
102
{ACAD_REACTORS
330
30F
102
}
330
1F
100
AcDbEntity
  8
1
  6
Continuous
 62
     3
100
AcDbLine
 10
119.506821002944
 20
141.018240668095
 30
0.0
 11
119.506821002944
 21
138.303093645485
 31
0.0
  0
LINE
  5
BB
102
{ACAD_REACTORS
330
30F
102
}
330
1F
100
AcDbEntity
  8
1
  6
Continuous
 62
     3
100
AcDbLine
 10
118.052053112258
 20
138.303093645485
 30
0.0
 11
119.506821002944
 21
138.303093645485
 31
0.0
  0
LINE
  5
BC
102
{ACAD_REACTORS
330
30F
102
}
330
1F
100
AcDbEntity
  8
1
  6
Continuous
 62
     3
100
AcDbLine
 10
118.052053112258
 20
141.018240668095
 30
0.0
 11
118.052053112258
 21
138.303093645485
 31
0.0
  0
LINE
  5
BD
102
{ACAD_REACTORS
330
310
102
}
330
1F
100
AcDbEntity
  8
1
  6
Continuous
 62
     3
100
AcDbLine
 10
103.024940047017
 20
141.192451221538
 30
0.0
 11
103.404716622441
 21
141.192451221538
 31
0.0
  0
LINE
  5
BE
102
{ACAD_REACTORS
330
310
102
}
330
1F
100
AcDbEntity
  8
1
  6
Continuous
 62
     3
100
AcDbLine
 10
107.290198594977
 20
141.192451221538
 30
0.0
 11
107.678163334116
 21
141.192451221538
 31
0.0
  0
LINE
  5
BF
102
{ACAD_REACTORS
330
310
102
}
330
1F
100
AcDbEntity
  8
1
  6
Continuous
 62
     3
100
AcDbLine
 10
107.678163334116
 20
141.192451221538
 30
0.0
 11
107.678163334116
 21
138.303093645485
 31
0.0
  0
LINE
  5
C0
102
{ACAD_REACTORS
330
310
102
}
330
1F
100
AcDbEntity
  8
1
  6
Continuous
 62
     3
100
AcDbLine
 10
103.404716622441
 20
141.192451221538
 30
0.0
 11
104.500679840944
 21
138.303093645485
 31
0.0
  0
LINE
  5
C1
102
{ACAD_REACTORS
330
311
102
}
330
1F
100
AcDbEntity
  8
1
  6
Continuous
 62
     3
100
AcDbLine
 10
72.5384615384616
 20
135.886287625418
 30
0.0
 11
75.6431501230517
 21
135.886287625418
 31
0.0
  0
LINE
  5
C2
102
{ACAD_REACTORS
330
311
102
}
330
1F
100
AcDbEntity
  8
1
  6
Continuous
 62
     3
100
AcDbLine
 10
75.6431501230517
 20
135.886287625418
 30
0.0
 11
75.6431501230517
 21
144.113712374582
 31
0.0
  0
LINE
  5
C3
102
{ACAD_REACTORS
330
311
102
}
330
1F
100
AcDbEntity
  8
1
  6
Continuous
 62
     3
100
AcDbLine
 10
75.6431501230517
 20
144.113712374582
 30
0.0
 11
72.5384615384616
 21
144.113712374582
 31
0.0
  0
LINE
  5
C4
102
{ACAD_REACTORS
330
311
102
}
330
1F
100
AcDbEntity
  8
1
  6
Continuous
 62
     3
100
AcDbLine
 10
72.5384615384616
 20
144.113712374582
 30
0.0
 11
72.5384615384616
 21
135.886287625418
 31
0.0
  0
LINE
  5
C5
102
{ACAD_REACTORS
330
312
102
}
330
1F
100
AcDbEntity
  8
1
  6
Continuous
 62
     3
100
AcDbLine
 10
77.1954944153467
 20
135.886287625418
 30
0.0
 11
80.3001829999368
 21
135.886287625418
 31
0.0
  0
LINE
  5
C6
102
{ACAD_REACTORS
330
312
102
}
330
1F
100
AcDbEntity
  8
1
  6
Continuous
 62
     3
100
AcDbLine
 10
80.3001829999368
 20
135.886287625418
 30
0.0
 11
80.3001829999368
 21
144.113712374582
 31
0.0
  0
LINE
  5
C7
102
{ACAD_REACTORS
330
312
102
}
330
1F
100
AcDbEntity
  8
1
  6
Continuous
 62
     3
100
AcDbLine
 10
80.3001829999368
 20
144.113712374582
 30
0.0
 11
77.1954944153467
 21
144.113712374582
 31
0.0
  0
LINE
  5
C8
102
{ACAD_REACTORS
330
312
102
}
330
1F
100
AcDbEntity
  8
1
  6
Continuous
 62
     3
100
AcDbLine
 10
77.1954944153467
 20
144.113712374582
 30
0.0
 11
77.1954944153467
 21
135.886287625418
 31
0.0
  0
LINE
  5
C9
102
{ACAD_REACTORS
330
313
102
}
330
1F
100
AcDbEntity
  8
1
  6
Continuous
 62
     3
100
AcDbLine
 10
81.852527292232
 20
135.886287625418
 30
0.0
 11
84.9572158768221
 21
135.886287625418
 31
0.0
  0
LINE
  5
CA
102
{ACAD_REACTORS
330
313
102
}
330
1F
100
AcDbEntity
  8
1
  6
Continuous
 62
     3
100
AcDbLine
 10
84.9572158768221
 20
135.886287625418
 30
0.0
 11
84.9572158768221
 21
144.113712374582
 31
0.0
  0
LINE
  5
CB
102
{ACAD_REACTORS
330
313
102
}
330
1F
100
AcDbEntity
  8
1
  6
Continuous
 62
     3
100
AcDbLine
 10
84.9572158768221
 20
144.113712374582
 30
0.0
 11
81.852527292232
 21
144.113712374582
 31
0.0
  0
LINE
  5
CC
102
{ACAD_REACTORS
330
313
102
}
330
1F
100
AcDbEntity
  8
1
  6
Continuous
 62
     3
100
AcDbLine
 10
81.852527292232
 20
144.113712374582
 30
0.0
 11
81.852527292232
 21
135.886287625418
 31
0.0
  0
LINE
  5
CD
102
{ACAD_REACTORS
330
315
102
}
330
1F
100
AcDbEntity
  8
1
  6
Continuous
 62
     3
100
AcDbLine
 10
63.8483299378546
 20
144.717822753167
 30
0.0
 11
64.5478493872474
 21
144.884375003023
 31
0.0
  0
LINE
  5
CE
102
{ACAD_REACTORS
330
314
102
}
330
1F
100
AcDbEntity
  8
1
  6
Continuous
 62
     3
100
AcDbLine
 10
58.5002001343192
 20
146.940276863681
 30
0.0
 11
62.376751175294
 21
146.940276863681
 31
0.0
  0
LINE
  5
CF
102
{ACAD_REACTORS
330
314
102
}
330
1F
100
AcDbEntity
  8
1
  6
Continuous
 62
     3
100
AcDbLine
 10
58.0
 20
146.440076729361
 30
0.0
 11
58.0
 21
145.564726494302
 31
0.0
  0
LINE
  5
D0
102
{ACAD_REACTORS
330
314
102
}
330
1F
100
AcDbEntity
  8
1
  6
Continuous
 62
     3
100
AcDbLine
 10
58.5002001343192
 20
145.064526359983
 30
0.0
 11
62.376751175294
 21
145.064526359983
 31
0.0
  0
LINE
  5
D1
102
{ACAD_REACTORS
330
314
102
}
330
1F
100
AcDbEntity
  8
1
  6
Continuous
 62
     3
100
AcDbLine
 10
62.8769513096134
 20
146.440076729361
 30
0.0
 11
62.8769513096134
 21
145.564726494302
 31
0.0
  0
LINE
  5
D2
102
{ACAD_REACTORS
330
316
102
}
330
1F
100
AcDbEntity
  8
1
  6
Continuous
 62
     3
100
AcDbLine
 10
58.5002001343192
 20
134.935473640017
 30
0.0
 11
59.6101273823701
 21
134.935473640017
 31
0.0
  0
LINE
  5
D3
102
{ACAD_REACTORS
330
316
102
}
330
1F
100
AcDbEntity
  8
1
  6
Continuous
 62
     3
100
AcDbLine
 10
58.0
 20
134.435273505698
 30
0.0
 11
58.0
 21
133.559923270639
 31
0.0
  0
LINE
  5
D4
102
{ACAD_REACTORS
330
316
102
}
330
1F
100
AcDbEntity
  8
1
  6
Continuous
 62
     3
100
AcDbLine
 10
62.8769513096134
 20
134.435273505698
 30
0.0
 11
62.8769513096134
 21
133.559923270639
 31
0.0
  0
LINE
  5
D5
102
{ACAD_REACTORS
330
316
102
}
330
1F
100
AcDbEntity
  8
1
  6
Continuous
 62
     3
100
AcDbLine
 10
60.8053480498904
 20
134.935473640017
 30
0.0
 11
62.376751175294
 21
134.935473640017
 31
0.0
  0
LINE
  5
D6
102
{ACAD_REACTORS
330
315
102
}
330
1F
100
AcDbEntity
  8
1
  6
Continuous
 62
     3
100
AcDbLine
 10
64.5478493872474
 20
135.115624996977
 30
0.0
 11
63.8671039431157
 21
135.27770724558
 31
0.0
  0
LINE
  5
D7
102
{ACAD_REACTORS
330
314
102
}
330
1F
100
AcDbEntity
  8
1
  6
Continuous
 62
     3
100
AcDbLine
 10
58.8362720995652
 20
146.57294239004
 30
0.0
 11
62.0406792100481
 21
146.57294239004
 31
0.0
  0
LINE
  5
D8
102
{ACAD_REACTORS
330
314
102
}
330
1F
100
AcDbEntity
  8
1
  6
Continuous
 62
     3
100
AcDbLine
 10
58.8362720995652
 20
145.431860833624
 30
0.0
 11
62.0406792100481
 21
145.431860833624
 31
0.0
  0
LINE
  5
D9
102
{ACAD_REACTORS
330
314
102
}
330
1F
100
AcDbEntity
  8
1
  6
Continuous
 62
     3
100
AcDbLine
 10
62.5096168359725
 20
146.104004764115
 30
0.0
 11
62.5096168359725
 21
145.900798459548
 31
0.0
  0
LINE
  5
DA
102
{ACAD_REACTORS
330
314
102
}
330
1F
100
AcDbEntity
  8
1
  6
Continuous
 62
     3
100
AcDbLine
 10
58.3673344736409
 20
146.104004764115
 30
0.0
 11
58.3673344736409
 21
145.900798459548
 31
0.0
  0
LINE
  5
DB
102
{ACAD_REACTORS
330
316
102
}
330
1F
100
AcDbEntity
  8
1
  6
Continuous
 62
     3
100
AcDbLine
 10
58.8362720995652
 20
134.568139166376
 30
0.0
 11
59.6101273823701
 21
134.568139166377
 31
0.0
  0
LINE
  5
DC
102
{ACAD_REACTORS
330
316
102
}
330
1F
100
AcDbEntity
  8
1
  6
Continuous
 62
     3
100
AcDbLine
 10
62.0406792100481
 20
133.427057609961
 30
0.0
 11
61.1909112050933
 21
133.427057609961
 31
0.0
  0
LINE
  5
DD
102
{ACAD_REACTORS
330
316
102
}
330
1F
100
AcDbEntity
  8
1
  6
Continuous
 62
     3
100
AcDbLine
 10
62.5096168359725
 20
134.099201540452
 30
0.0
 11
62.5096168359725
 21
133.895995235885
 31
0.0
  0
LINE
  5
DE
102
{ACAD_REACTORS
330
316
102
}
330
1F
100
AcDbEntity
  8
1
  6
Continuous
 62
     3
100
AcDbLine
 10
58.3673344736409
 20
134.099201540452
 30
0.0
 11
58.3673344736409
 21
133.895995235885
 31
0.0
  0
LINE
  5
DF
102
{ACAD_REACTORS
330
316
102
}
330
1F
100
AcDbEntity
  8
1
  6
Continuous
 62
     3
100
AcDbLine
 10
60.7797293304593
 20
134.46046114395
 30
0.0
 11
59.9623207999974
 21
133.188936763232
 31
0.0
  0
LINE
  5
E0
102
{ACAD_REACTORS
330
316
102
}
330
1F
100
AcDbEntity
  8
1
  6
Continuous
 62
     3
100
AcDbLine
 10
60.9769594490706
 20
134.568139166377
 30
0.0
 11
62.0406792100481
 21
134.568139166376
 31
0.0
  0
LINE
  5
E1
102
{ACAD_REACTORS
330
316
102
}
330
1F
100
AcDbEntity
  8
1
  6
Continuous
 62
     3
100
AcDbLine
 10
59.5508193675667
 20
133.427057609961
 30
0.0
 11
58.8362720995652
 21
133.427057609961
 31
0.0
  0
LINE
  5
E2
102
{ACAD_REACTORS
330
316
102
}
330
1F
100
AcDbEntity
  8
1
  6
Continuous
 62
     3
100
AcDbLine
 10
59.7256446576645
 20
133.05972313632
 30
0.0
 11
58.5002001343192
 21
133.05972313632
 31
0.0
  0
LINE
  5
E3
102
{ACAD_REACTORS
330
316
102
}
330
1F
100
AcDbEntity
  8
1
  6
Continuous
 62
     3
100
AcDbLine
 10
60.8053480498904
 20
134.935473640017
 30
0.0
 11
60.8035489102706
 21
134.935473640017
 31
0.0
  0
LINE
  5
E4
102
{ACAD_REACTORS
330
316
102
}
330
1F
100
AcDbEntity
  8
1
  6
Continuous
 62
     3
100
AcDbLine
 10
60.5669925490107
 20
134.806446178176
 30
0.0
 11
59.7479496686168
 21
133.534580494828
 31
0.0
  0
LINE
  5
E5
102
{ACAD_REACTORS
330
316
102
}
330
1F
100
AcDbEntity
  8
1
  6
Continuous
 62
     3
100
AcDbLine
 10
59.6101273823701
 20
134.935473640017
 30
0.0
 11
59.6101273823701
 21
134.568139166377
 31
0.0
  0
LINE
  5
E6
102
{ACAD_REACTORS
330
316
102
}
330
1F
100
AcDbEntity
  8
1
  6
Continuous
 62
     3
100
AcDbLine
 10
61.1909112050933
 20
133.427057609961
 30
0.0
 11
61.1909112050933
 21
133.05972313632
 31
0.0
  0
LINE
  5
E7
102
{ACAD_REACTORS
330
316
102
}
330
1F
100
AcDbEntity
  8
1
  6
Continuous
 62
     3
100
AcDbLine
 10
61.1909112050933
 20
133.05972313632
 30
0.0
 11
62.376751175294
 21
133.05972313632
 31
0.0
  0
LINE
  5
E8
102
{ACAD_REACTORS
330
315
102
}
330
1F
100
AcDbEntity
  8
1
  6
Continuous
 62
     3
100
AcDbLine
 10
63.5334639859072
 20
147.37494996642
 30
0.0
 11
63.8483299378546
 21
144.717822753167
 31
0.0
  0
LINE
  5
E9
102
{ACAD_REACTORS
330
315
102
}
330
1F
100
AcDbEntity
  8
1
  6
Continuous
 62
     3
100
AcDbLine
 10
63.8671039431157
 20
135.27770724558
 30
0.0
 11
63.5334639859072
 21
132.62505003358
 31
0.0
  0
LINE
  5
EA
330
1F
100
AcDbEntity
  8
1
  6
Continuous
 62
     3
100
AcDbLine
 10
-24.5
 20
176.5
 30
0.0
 11
-26.7788150569401
 21
176.5
 31
0.0
  0
LINE
  5
EB
330
1F
100
AcDbEntity
  8
1
  6
Continuous
 62
     3
100
AcDbLine
 10
-27.1487850936381
 20
176.336336396998
 30
0.0
 11
-35.0330330881801
 21
167.663663603002
 31
0.0
  0
LINE
  5
EC
330
1F
100
AcDbEntity
  8
1
  6
Continuous
 62
     3
100
AcDbLine
 10
-35.0330330881801
 20
112.336336396998
 30
0.0
 11
-27.1487850936381
 21
103.663663603002
 31
0.0
  0
LINE
  5
ED
330
1F
100
AcDbEntity
  8
1
  6
Continuous
 62
     3
100
AcDbLine
 10
-26.7788150569401
 20
103.5
 30
0.0
 11
-24.5
 21
103.5
 31
0.0
  0
LINE
  5
EE
330
1F
100
AcDbEntity
  8
1
  6
Continuous
 62
     3
100
AcDbLine
 10
-35.4030031248781
 20
167.5
 30
0.0
 11
-54.4792740578363
 21
167.5
 31
0.0
  0
LINE
  5
EF
330
1F
100
AcDbEntity
  8
1
  6
Continuous
 62
     3
100
AcDbLine
 10
-56.5
 20
167.5
 30
0.0
 11
-56.5
 21
112.5
 31
0.0
  0
LINE
  5
F0
330
1F
100
AcDbEntity
  8
1
  6
Continuous
 62
     3
100
AcDbLine
 10
-56.5
 20
112.5
 30
0.0
 11
-54.4792740578363
 21
112.5
 31
0.0
  0
LINE
  5
F1
330
1F
100
AcDbEntity
  8
1
  6
Continuous
 62
     3
100
AcDbLine
 10
-35.4030031248781
 20
167.5
 30
0.0
 11
-32.0
 21
167.5
 31
0.0
  0
LINE
  5
F2
330
1F
100
AcDbEntity
  8
1
  6
Continuous
 62
     3
100
AcDbLine
 10
-32.0
 20
167.5
 30
0.0
 11
-32.0
 21
166.142033731394
 31
0.0
  0
LINE
  5
F3
330
1F
100
AcDbEntity
  8
1
  6
Continuous
 62
     3
100
AcDbLine
 10
-32.0
 20
166.142033731394
 30
0.0
 11
-54.4792740578363
 21
166.142033731394
 31
0.0
  0
LINE
  5
F4
330
1F
100
AcDbEntity
  8
1
  6
Continuous
 62
     3
100
AcDbLine
 10
-54.4792740578363
 20
166.142033731394
 30
0.0
 11
-54.4792740578363
 21
167.5
 31
0.0
  0
LINE
  5
F5
330
1F
100
AcDbEntity
  8
1
  6
Continuous
 62
     3
100
AcDbLine
 10
-54.4792740578363
 20
167.5
 30
0.0
 11
-56.5
 21
167.5
 31
0.0
  0
LINE
  5
F6
330
1F
100
AcDbEntity
  8
1
  6
Continuous
 62
     3
100
AcDbLine
 10
-54.4792740578363
 20
112.5
 30
0.0
 11
-54.4792740578363
 21
113.857966268606
 31
0.0
  0
LINE
  5
F7
330
1F
100
AcDbEntity
  8
1
  6
Continuous
 62
     3
100
AcDbLine
 10
-54.4792740578363
 20
112.5
 30
0.0
 11
-35.4030031248781
 21
112.5
 31
0.0
  0
LINE
  5
F8
330
1F
100
AcDbEntity
  8
1
  6
Continuous
 62
     3
100
AcDbLine
 10
-54.4792740578363
 20
113.857966268606
 30
0.0
 11
-32.0
 21
113.857966268606
 31
0.0
  0
LINE
  5
F9
330
1F
100
AcDbEntity
  8
1
  6
Continuous
 62
     3
100
AcDbLine
 10
-32.0
 20
113.857966268606
 30
0.0
 11
-32.0
 21
112.5
 31
0.0
  0
LINE
  5
FA
330
1F
100
AcDbEntity
  8
1
  6
Continuous
 62
     3
100
AcDbLine
 10
-32.0
 20
112.5
 30
0.0
 11
-35.4030031248781
 21
112.5
 31
0.0
  0
LINE
  5
FB
330
1F
100
AcDbEntity
  8
1
  6
Continuous
 62
     3
100
AcDbLine
 10
-54.4792740578363
 20
141.357966268606
 30
0.0
 11
-32.0
 21
141.357966268606
 31
0.0
  0
LINE
  5
FC
330
1F
100
AcDbEntity
  8
1
  6
Continuous
 62
     3
100
AcDbLine
 10
-32.0
 20
141.357966268606
 30
0.0
 11
-32.0
 21
138.642033731394
 31
0.0
  0
LINE
  5
FD
330
1F
100
AcDbEntity
  8
1
  6
Continuous
 62
     3
100
AcDbLine
 10
-32.0
 20
138.642033731394
 30
0.0
 11
-54.4792740578363
 21
138.642033731394
 31
0.0
  0
LINE
  5
FE
330
1F
100
AcDbEntity
  8
1
  6
Continuous
 62
     3
100
AcDbLine
 10
-54.4792740578363
 20
138.642033731394
 30
0.0
 11
-54.4792740578363
 21
141.357966268606
 31
0.0
  0
LINE
  5
FF
330
1F
100
AcDbEntity
  8
1
  6
Continuous
 62
     3
100
AcDbLine
 10
-27.0
 20
175.5
 30
0.0
 11
-27.0
 21
104.5
 31
0.0
  0
LINE
  5
100
330
1F
100
AcDbEntity
  8
1
  6
DOT_CENTER
 62
     3
100
AcDbLine
 10
-157.5
 20
0.0
 30
0.0
 11
-82.5
 21
0.0
 31
0.0
  0
LINE
  5
101
330
1F
100
AcDbEntity
  8
1
  6
DOT_CENTER
 62
     3
100
AcDbLine
 10
-120.0
 20
64.0717967697245
 30
0.0
 11
-120.0
 21
-37.5
 31
0.0
  0
LINE
  5
102
330
1F
100
AcDbEntity
  8
1
  6
DOT_CENTER
 62
     3
100
AcDbLine
 10
-120.0
 20
92.0
 30
0.0
 11
-120.0
 21
71.9282032302755
 31
0.0
  0
LINE
  5
103
330
1F
100
AcDbEntity
  8
1
  6
Continuous
 62
     3
100
AcDbLine
 10
-132.5
 20
63.6909734131519
 30
0.0
 11
-132.5
 21
63.0
 31
0.0
  0
LINE
  5
104
330
1F
100
AcDbEntity
  8
1
  6
Continuous
 62
     3
100
AcDbLine
 10
-107.5
 20
63.0
 30
0.0
 11
-107.5
 21
63.6909734131519
 31
0.0
  0
LINE
  5
105
330
1F
100
AcDbEntity
  8
1
  6
Continuous
 62
     3
100
AcDbLine
 10
-107.5
 20
59.7343922842313
 30
0.0
 11
-107.558343734231
 21
59.7343922842313
 31
0.0
  0
LINE
  5
106
330
1F
100
AcDbEntity
  8
1
  6
Continuous
 62
     3
100
AcDbLine
 10
-132.5
 20
59.7343922842313
 30
0.0
 11
-132.441656265769
 21
59.7343922842313
 31
0.0
  0
LINE
  5
107
330
1F
100
AcDbEntity
  8
1
  6
Continuous
 62
     3
100
AcDbLine
 10
-134.5
 20
87.0
 30
0.0
 11
-134.5
 21
61.7343922842313
 31
0.0
  0
LINE
  5
108
330
1F
100
AcDbEntity
  8
1
  6
Continuous
 62
     3
100
AcDbLine
 10
-105.5
 20
87.0
 30
0.0
 11
-105.5
 21
61.7343922842313
 31
0.0
  0
LINE
  5
109
330
1F
100
AcDbEntity
  8
1
  6
Continuous
 62
     3
100
AcDbLine
 10
-130.5
 20
91.0
 30
0.0
 11
-109.5
 21
91.0
 31
0.0
  0
LINE
  5
10A
330
1F
100
AcDbEntity
  8
1
  6
Continuous
 62
     3
100
AcDbLine
 10
-132.0
 20
63.0
 30
0.0
 11
-132.5
 21
63.0
 31
0.0
  0
LINE
  5
10B
330
1F
100
AcDbEntity
  8
1
  6
Continuous
 62
     3
100
AcDbLine
 10
-108.0
 20
63.0
 30
0.0
 11
-107.5
 21
63.0
 31
0.0
  0
LINE
  5
10C
330
1F
100
AcDbEntity
  8
1
  6
Continuous
 62
     3
100
AcDbLine
 10
-120.0
 20
71.9282032302755
 30
0.0
 11
-120.0
 21
64.0717967697245
 31
0.0
  0
LINE
  5
10D
330
1F
100
AcDbEntity
  8
1
  6
Continuous
 62
     3
100
AcDbLine
 10
-108.0
 20
64.0717967697245
 30
0.0
 11
-108.0
 21
63.0
 31
0.0
  0
LINE
  5
10E
330
1F
100
AcDbEntity
  8
1
  6
Continuous
 62
     3
100
AcDbLine
 10
-132.0
 20
64.0717967697245
 30
0.0
 11
-132.0
 21
71.9282032302755
 31
0.0
  0
LINE
  5
10F
330
1F
100
AcDbEntity
  8
1
  6
Continuous
 62
     3
100
AcDbLine
 10
-132.0
 20
71.9282032302755
 30
0.0
 11
-132.0
 21
73.0
 31
0.0
  0
LINE
  5
110
330
1F
100
AcDbEntity
  8
1
  6
Continuous
 62
     3
100
AcDbLine
 10
-108.0
 20
71.9282032302755
 30
0.0
 11
-108.0
 21
64.0717967697245
 31
0.0
  0
LINE
  5
111
330
1F
100
AcDbEntity
  8
1
  6
Continuous
 62
     3
100
AcDbLine
 10
-132.0
 20
63.0
 30
0.0
 11
-132.0
 21
64.0717967697245
 31
0.0
  0
LINE
  5
112
330
1F
100
AcDbEntity
  8
1
  6
Continuous
 62
     3
100
AcDbLine
 10
-108.0
 20
63.0
 30
0.0
 11
-132.0
 21
63.0
 31
0.0
  0
LINE
  5
113
330
1F
100
AcDbEntity
  8
1
  6
Continuous
 62
     3
100
AcDbLine
 10
-108.0
 20
73.0
 30
0.0
 11
-108.0
 21
71.9282032302755
 31
0.0
  0
LINE
  5
114
330
1F
100
AcDbEntity
  8
1
  6
Continuous
 62
     3
100
AcDbLine
 10
-132.0
 20
73.0
 30
0.0
 11
-108.0
 21
73.0
 31
0.0
  0
LINE
  5
115
330
1F
100
AcDbEntity
  8
1
  6
Continuous
 62
     3
100
AcDbLine
 10
-132.5
 20
60.0
 30
0.0
 11
-132.0
 21
60.0
 31
0.0
  0
LINE
  5
116
330
1F
100
AcDbEntity
  8
1
  6
Continuous
 62
     3
100
AcDbLine
 10
-107.5
 20
60.0
 30
0.0
 11
-108.0
 21
60.0
 31
0.0
  0
LINE
  5
117
330
1F
100
AcDbEntity
  8
1
  6
Continuous
 62
     3
100
AcDbLine
 10
-132.75
 20
60.25
 30
0.0
 11
-132.75
 21
62.75
 31
0.0
  0
LINE
  5
118
330
1F
100
AcDbEntity
  8
1
  6
Continuous
 62
     3
100
AcDbLine
 10
-107.25
 20
62.75
 30
0.0
 11
-107.25
 21
60.25
 31
0.0
  0
LINE
  5
119
330
1F
100
AcDbEntity
  8
1
  6
Continuous
 62
     3
100
AcDbLine
 10
-115.4
 20
54.0
 30
0.0
 11
-105.0
 21
54.0
 31
0.0
  0
LINE
  5
11A
330
1F
100
AcDbEntity
  8
1
  6
Continuous
 62
     3
100
AcDbLine
 10
-114.4
 20
60.0
 30
0.0
 11
-108.0
 21
60.0
 31
0.0
  0
LINE
  5
11B
330
1F
100
AcDbEntity
  8
1
  6
Continuous
 62
     3
100
AcDbLine
 10
-115.4
 20
55.0
 30
0.0
 11
-115.4
 21
59.0
 31
0.0
  0
LINE
  5
11C
330
1F
100
AcDbEntity
  8
1
  6
Continuous
 62
     3
100
AcDbLine
 10
-115.4
 20
52.0
 30
0.0
 11
-115.4
 21
55.0
 31
0.0
  0
LINE
  5
11D
330
1F
100
AcDbEntity
  8
1
  6
Continuous
 62
     3
100
AcDbLine
 10
-115.4
 20
42.0
 30
0.0
 11
-115.4
 21
46.9937759589506
 31
0.0
  0
LINE
  5
11E
330
1F
100
AcDbEntity
  8
1
  6
Continuous
 62
     3
100
AcDbLine
 10
-123.6
 20
41.0
 30
0.0
 11
-116.4
 21
41.0
 31
0.0
  0
LINE
  5
11F
330
1F
100
AcDbEntity
  8
1
  6
Continuous
 62
     3
100
AcDbLine
 10
-124.6
 20
55.0
 30
0.0
 11
-124.6
 21
42.0
 31
0.0
  0
LINE
  5
120
330
1F
100
AcDbEntity
  8
1
  6
Continuous
 62
     3
100
AcDbLine
 10
-125.6
 20
56.0
 30
0.0
 11
-132.5
 21
56.0
 31
0.0
  0
LINE
  5
121
330
1F
100
AcDbEntity
  8
1
  6
Continuous
 62
     3
100
AcDbLine
 10
-125.6
 20
60.0
 30
0.0
 11
-114.4
 21
60.0
 31
0.0
  0
LINE
  5
122
330
1F
100
AcDbEntity
  8
1
  6
Continuous
 62
     3
100
AcDbLine
 10
-124.6
 20
59.0
 30
0.0
 11
-124.6
 21
55.0
 31
0.0
  0
LINE
  5
123
330
1F
100
AcDbEntity
  8
1
  6
Continuous
 62
     3
100
AcDbLine
 10
-132.5
 20
56.0
 30
0.0
 11
-132.5
 21
59.5
 31
0.0
  0
LINE
  5
124
330
1F
100
AcDbEntity
  8
1
  6
Continuous
 62
     3
100
AcDbLine
 10
-107.5
 20
56.0
 30
0.0
 11
-114.4
 21
56.0
 31
0.0
  0
LINE
  5
125
330
1F
100
AcDbEntity
  8
1
  6
Continuous
 62
     3
100
AcDbLine
 10
-107.5
 20
59.5
 30
0.0
 11
-107.5
 21
56.0
 31
0.0
  0
LINE
  5
126
330
1F
100
AcDbEntity
  8
1
  6
Continuous
 62
     3
100
AcDbLine
 10
-132.0
 20
60.0
 30
0.0
 11
-125.6
 21
60.0
 31
0.0
  0
LINE
  5
127
330
1F
100
AcDbEntity
  8
1
  6
Continuous
 62
     3
100
AcDbLine
 10
-132.0
 20
54.0
 30
0.0
 11
-132.0
 21
56.0
 31
0.0
  0
LINE
  5
128
330
1F
100
AcDbEntity
  8
1
  6
Continuous
 62
     3
100
AcDbLine
 10
-108.0
 20
56.0
 30
0.0
 11
-108.0
 21
54.0
 31
0.0
  0
LINE
  5
129
330
1F
100
AcDbEntity
  8
1
  6
Continuous
 62
     3
100
AcDbLine
 10
-14.5
 20
60.0
 30
0.0
 11
-15.5
 21
60.0
 31
0.0
  0
LINE
  5
12A
330
1F
100
AcDbEntity
  8
1
  6
Continuous
 62
     3
100
AcDbLine
 10
-11.5
 20
60.0
 30
0.0
 11
-14.5
 21
60.0
 31
0.0
  0
LINE
  5
12B
330
1F
100
AcDbEntity
  8
1
  6
Continuous
 62
     3
100
AcDbLine
 10
-12.0
 20
56.0
 30
0.0
 11
17.8911257502344
 21
56.0
 31
0.0
  0
LINE
  5
12C
330
1F
100
AcDbEntity
  8
1
  6
Continuous
 62
     3
100
AcDbLine
 10
-12.0
 20
59.5
 30
0.0
 11
-12.0
 21
56.0
 31
0.0
  0
LINE
  5
12D
330
1F
100
AcDbEntity
  8
1
  6
Continuous
 62
     3
100
AcDbLine
 10
-15.0
 20
56.0
 30
0.0
 11
-12.0
 21
56.0
 31
0.0
  0
LINE
  5
12E
330
1F
100
AcDbEntity
  8
1
  6
Continuous
 62
     3
100
AcDbLine
 10
-15.0
 20
56.0
 30
0.0
 11
-15.0
 21
59.5
 31
0.0
  0
LINE
  5
12F
330
1F
100
AcDbEntity
  8
1
  6
Continuous
 62
     3
100
AcDbLine
 10
-109.422759420318
 20
45.8839999198166
 30
0.0
 11
-111.5
 21
48.5
 31
0.0
  0
LINE
  5
130
330
1F
100
AcDbEntity
  8
1
  6
Continuous
 62
     3
100
AcDbLine
 10
-115.4
 20
49.0
 30
0.0
 11
-115.4
 21
46.9937759589506
 31
0.0
  0
LINE
  5
131
330
1F
100
AcDbEntity
  8
1
  6
Continuous
 62
     3
100
AcDbLine
 10
-109.08
 20
52.0
 30
0.0
 11
-109.08
 21
46.1383570602747
 31
0.0
  0
LINE
  5
132
330
1F
100
AcDbEntity
  8
1
  6
Continuous
 62
     3
100
AcDbLine
 10
-112.0
 20
52.5
 30
0.0
 11
-109.58
 21
52.5
 31
0.0
  0
LINE
  5
133
330
1F
100
AcDbEntity
  8
1
  6
Continuous
 62
     3
100
AcDbLine
 10
-115.4
 20
49.0
 30
0.0
 11
-115.4
 21
52.0
 31
0.0
  0
LINE
  5
134
330
1F
100
AcDbEntity
  8
1
  6
Continuous
 62
     3
100
AcDbLine
 10
-112.0
 20
48.5
 30
0.0
 11
-114.9
 21
48.5
 31
0.0
  0
LINE
  5
135
330
1F
100
AcDbEntity
  8
1
  6
Continuous
 62
     3
100
AcDbLine
 10
-111.5
 20
52.0
 30
0.0
 11
-111.5
 21
49.0
 31
0.0
  0
LINE
  5
136
330
1F
100
AcDbEntity
  8
1
  6
Continuous
 62
     3
100
AcDbLine
 10
-114.9
 20
52.5
 30
0.0
 11
-112.0
 21
52.5
 31
0.0
  0
LINE
  5
137
330
1F
100
AcDbEntity
  8
1
  6
Continuous
 62
     3
100
AcDbLine
 10
-135.0
 20
53.0
 30
0.0
 11
-135.0
 21
46.0989141968171
 31
0.0
  0
LINE
  5
138
330
1F
100
AcDbEntity
  8
1
  6
Continuous
 62
     3
100
AcDbLine
 10
-135.391534771091
 20
46.587007726909
 30
0.0
 11
-143.608465228909
 21
48.412992273091
 31
0.0
  0
LINE
  5
139
330
1F
100
AcDbEntity
  8
1
  6
Continuous
 62
     3
100
AcDbLine
 10
-144.0
 20
52.0
 30
0.0
 11
-144.0
 21
48.9010858031829
 31
0.0
  0
LINE
  5
13A
330
1F
100
AcDbEntity
  8
1
  6
Continuous
 62
     3
100
AcDbLine
 10
-135.0
 20
33.2753662639497
 30
0.0
 11
-135.0
 21
46.0989141968171
 31
0.0
  0
LINE
  5
13B
330
1F
100
AcDbEntity
  8
1
  6
Continuous
 62
     3
100
AcDbLine
 10
-143.5
 20
52.5
 30
0.0
 11
-135.5
 21
52.5
 31
0.0
  0
LINE
  5
13C
330
1F
100
AcDbEntity
  8
1
  6
Continuous
 62
     3
100
AcDbLine
 10
-135.0
 20
53.0
 30
0.0
 11
-135.0
 21
54.0
 31
0.0
  0
LINE
  5
13D
330
1F
100
AcDbEntity
  8
1
  6
Continuous
 62
     3
100
AcDbLine
 10
-135.0
 20
54.0
 30
0.0
 11
-124.6
 21
54.0
 31
0.0
  0
LINE
  5
13E
330
1F
100
AcDbEntity
  8
1
  6
Continuous
 62
     3
100
AcDbLine
 10
-96.5
 20
52.5
 30
0.0
 11
-104.5
 21
52.5
 31
0.0
  0
LINE
  5
13F
330
1F
100
AcDbEntity
  8
1
  6
Continuous
 62
     3
100
AcDbLine
 10
-96.0
 20
48.9010858031829
 30
0.0
 11
-96.0
 21
52.0
 31
0.0
  0
LINE
  5
140
330
1F
100
AcDbEntity
  8
1
  6
Continuous
 62
     3
100
AcDbLine
 10
-105.0
 20
46.0989141968171
 30
0.0
 11
-105.0
 21
33.2753662639497
 31
0.0
  0
LINE
  5
141
330
1F
100
AcDbEntity
  8
1
  6
Continuous
 62
     3
100
AcDbLine
 10
-104.608465228909
 20
46.587007726909
 30
0.0
 11
-96.3915347710907
 21
48.412992273091
 31
0.0
  0
LINE
  5
142
330
1F
100
AcDbEntity
  8
1
  6
Continuous
 62
     3
100
AcDbLine
 10
-105.0
 20
54.0
 30
0.0
 11
-105.0
 21
53.0
 31
0.0
  0
LINE
  5
143
330
1F
100
AcDbEntity
  8
1
  6
Continuous
 62
     3
100
AcDbLine
 10
-104.5
 20
52.5
 30
0.0
 11
-105.54
 21
52.5
 31
0.0
  0
LINE
  5
144
330
1F
100
AcDbEntity
  8
1
  6
Continuous
 62
     3
100
AcDbLine
 10
-106.04
 20
52.0
 30
0.0
 11
-106.04
 21
46.892196914294
 31
0.0
  0
LINE
  5
145
330
1F
100
AcDbEntity
  8
1
  6
Continuous
 62
     3
100
AcDbLine
 10
-105.431534771091
 20
46.4041033842021
 30
0.0
 11
-104.608465228909
 21
46.587007726909
 31
0.0
  0
LINE
  5
146
330
1F
100
AcDbEntity
  8
1
  6
Continuous
 62
     3
100
AcDbLine
 10
-23.0
 20
48.2777777777778
 30
0.0
 11
-23.0
 21
42.0
 31
0.0
  0
LINE
  5
147
330
1F
100
AcDbEntity
  8
1
  6
Continuous
 62
     3
100
AcDbLine
 10
-15.0
 20
53.0
 30
0.0
 11
-15.0
 21
54.0
 31
0.0
  0
LINE
  5
148
330
1F
100
AcDbEntity
  8
1
  6
Continuous
 62
     3
100
AcDbLine
 10
-10.894001361868
 20
45.5875558581929
 30
0.0
 11
-23.6084652289093
 21
48.412992273091
 31
0.0
  0
LINE
  5
149
330
1F
100
AcDbEntity
  8
1
  6
Continuous
 62
     3
100
AcDbLine
 10
-10.2855361329586
 20
52.0
 30
0.0
 11
-10.2855361329586
 21
46.0756493882849
 31
0.0
  0
LINE
  5
14A
330
1F
100
AcDbEntity
  8
1
  6
Continuous
 62
     3
100
AcDbLine
 10
-23.5
 20
52.5
 30
0.0
 11
-10.7855361329586
 21
52.5
 31
0.0
  0
LINE
  5
14B
330
1F
100
AcDbEntity
  8
1
  6
Continuous
 62
     3
100
AcDbLine
 10
-23.0
 20
135.4
 30
0.0
 11
-23.5
 21
135.4
 31
0.0
  0
LINE
  5
14C
330
1F
100
AcDbEntity
  8
1
  6
Continuous
 62
     3
100
AcDbLine
 10
-5.5
 20
49.0
 30
0.0
 11
-5.5
 21
46.8105070667052
 31
0.0
  0
LINE
  5
14D
330
1F
100
AcDbEntity
  8
1
  6
Continuous
 62
     3
100
AcDbLine
 10
5.5
 20
49.0
 30
0.0
 11
5.5
 21
46.8105070667052
 31
0.0
  0
LINE
  5
14E
330
1F
100
AcDbEntity
  8
1
  6
Continuous
 62
     3
100
AcDbLine
 10
-5.5
 20
49.0
 30
0.0
 11
-5.5
 21
52.0
 31
0.0
  0
LINE
  5
14F
330
1F
100
AcDbEntity
  8
1
  6
Continuous
 62
     3
100
AcDbLine
 10
5.0
 20
48.5
 30
0.0
 11
-5.0
 21
48.5
 31
0.0
  0
LINE
  5
150
330
1F
100
AcDbEntity
  8
1
  6
Continuous
 62
     3
100
AcDbLine
 10
5.5
 20
52.0
 30
0.0
 11
5.5
 21
49.0
 31
0.0
  0
LINE
  5
151
330
1F
100
AcDbEntity
  8
1
  6
Continuous
 62
     3
100
AcDbLine
 10
-5.0
 20
52.5
 30
0.0
 11
5.0
 21
52.5
 31
0.0
  0
LINE
  5
152
330
1F
100
AcDbEntity
  8
1
  6
Continuous
 62
     3
100
AcDbLine
 10
14.5684652289093
 20
46.4041033842021
 30
0.0
 11
15.3915347710907
 21
46.587007726909
 31
0.0
  0
LINE
  5
153
330
1F
100
AcDbEntity
  8
1
  6
Continuous
 62
     3
100
AcDbLine
 10
13.96
 20
52.0
 30
0.0
 11
13.96
 21
46.892196914294
 31
0.0
  0
LINE
  5
154
330
1F
100
AcDbEntity
  8
1
  6
Continuous
 62
     3
100
AcDbLine
 10
15.5
 20
52.5
 30
0.0
 11
14.46
 21
52.5
 31
0.0
  0
LINE
  5
155
330
1F
100
AcDbEntity
  8
1
  6
Continuous
 62
     3
100
AcDbLine
 10
12.0
 20
56.0
 30
0.0
 11
12.0
 21
54.0
 31
0.0
  0
LINE
  5
156
330
1F
100
AcDbEntity
  8
1
  6
Continuous
 62
     3
100
AcDbLine
 10
-12.0
 20
54.0
 30
0.0
 11
-12.0
 21
56.0
 31
0.0
  0
LINE
  5
157
330
1F
100
AcDbEntity
  8
1
  6
Continuous
 62
     3
100
AcDbLine
 10
-6.92820323027551
 20
64.0717967697245
 30
0.0
 11
-6.92820323027551
 21
71.9282032302755
 31
0.0
  0
LINE
  5
158
330
1F
100
AcDbEntity
  8
1
  6
Continuous
 62
     3
100
AcDbLine
 10
6.92820323027551
 20
71.9282032302755
 30
0.0
 11
6.92820323027551
 21
64.0717967697245
 31
0.0
  0
LINE
  5
159
330
1F
100
AcDbEntity
  8
1
  6
Continuous
 62
     3
100
AcDbLine
 10
12.0
 20
63.0
 30
0.0
 11
13.856406460551
 21
64.0717967697245
 31
0.0
  0
LINE
  5
15A
330
1F
100
AcDbEntity
  8
1
  6
Continuous
 62
     3
100
AcDbLine
 10
13.856406460551
 20
64.0717967697245
 30
0.0
 11
13.856406460551
 21
71.9282032302755
 31
0.0
  0
LINE
  5
15B
330
1F
100
AcDbEntity
  8
1
  6
Continuous
 62
     3
100
AcDbLine
 10
13.856406460551
 20
71.9282032302755
 30
0.0
 11
12.0
 21
73.0
 31
0.0
  0
LINE
  5
15C
330
1F
100
AcDbEntity
  8
1
  6
Continuous
 62
     3
100
AcDbLine
 10
12.0
 20
73.0
 30
0.0
 11
-12.0
 21
73.0
 31
0.0
  0
LINE
  5
15D
330
1F
100
AcDbEntity
  8
1
  6
Continuous
 62
     3
100
AcDbLine
 10
-12.0
 20
63.0
 30
0.0
 11
12.0
 21
63.0
 31
0.0
  0
LINE
  5
15E
330
1F
100
AcDbEntity
  8
1
  6
Continuous
 62
     3
100
AcDbLine
 10
-12.0
 20
73.0
 30
0.0
 11
-13.856406460551
 21
71.9282032302755
 31
0.0
  0
LINE
  5
15F
330
1F
100
AcDbEntity
  8
1
  6
Continuous
 62
     3
100
AcDbLine
 10
-13.856406460551
 20
71.9282032302755
 30
0.0
 11
-13.856406460551
 21
64.0717967697245
 31
0.0
  0
LINE
  5
160
330
1F
100
AcDbEntity
  8
1
  6
Continuous
 62
     3
100
AcDbLine
 10
-13.856406460551
 20
64.0717967697245
 30
0.0
 11
-12.0
 21
63.0
 31
0.0
  0
LINE
  5
161
330
1F
100
AcDbEntity
  8
1
  6
Continuous
 62
     3
100
AcDbLine
 10
-12.5
 20
63.0
 30
0.0
 11
-11.5
 21
63.0
 31
0.0
  0
LINE
  5
162
330
1F
100
AcDbEntity
  8
1
  6
Continuous
 62
     3
100
AcDbLine
 10
12.5
 20
63.0
 30
0.0
 11
11.5
 21
63.0
 31
0.0
  0
LINE
  5
163
330
1F
100
AcDbEntity
  8
1
  6
Continuous
 62
     3
100
AcDbLine
 10
-12.75
 20
60.25
 30
0.0
 11
-12.75
 21
62.75
 31
0.0
  0
LINE
  5
164
330
1F
100
AcDbEntity
  8
1
  6
Continuous
 62
     3
100
AcDbLine
 10
12.75
 20
62.75
 30
0.0
 11
12.75
 21
60.25
 31
0.0
  0
LINE
  5
165
330
1F
100
AcDbEntity
  8
1
  6
Continuous
 62
     3
100
AcDbLine
 10
17.8911257502344
 20
60.0
 30
0.0
 11
-11.5
 21
60.0
 31
0.0
  0
LINE
  5
166
330
1F
100
AcDbEntity
  8
1
  6
Continuous
 62
     3
100
AcDbLine
 10
-15.5
 20
56.0
 30
0.0
 11
-15.0
 21
56.0
 31
0.0
  0
LINE
  5
167
330
1F
100
AcDbEntity
  8
1
  6
Continuous
 62
     3
100
AcDbLine
 10
-22.0
 20
41.0
 30
0.0
 11
-19.0
 21
41.0
 31
0.0
  0
LINE
  5
168
330
1F
100
AcDbEntity
  8
1
  6
Continuous
 62
     3
100
AcDbLine
 10
-19.0
 20
41.0
 30
0.0
 11
-19.0
 21
47.3888888888889
 31
0.0
  0
LINE
  5
169
330
1F
100
AcDbEntity
  8
1
  6
Continuous
 62
     3
100
AcDbLine
 10
25.2046627664261
 20
59.180016399375
 30
0.0
 11
26.75367324406
 21
60.84112676709
 31
0.0
  0
LINE
  5
16A
330
1F
100
AcDbEntity
  8
1
  6
Continuous
 62
     3
100
AcDbLine
 10
148.0
 20
91.0
 30
0.0
 11
51.8910612476015
 21
91.0
 31
0.0
  0
LINE
  5
16B
330
1F
100
AcDbEntity
  8
1
  6
Continuous
 62
     3
100
AcDbLine
 10
28.8087533925424
 20
60.1123720436362
 30
0.0
 11
48.9656464411249
 21
81.72799344025
 31
0.0
  0
LINE
  5
16C
330
1F
100
AcDbEntity
  8
1
  6
Continuous
 62
     3
100
AcDbLine
 10
43.1148168281715
 20
87.18398032075
 30
0.0
 11
25.8806693093523
 21
68.7026197776188
 31
0.0
  0
LINE
  5
16D
330
1F
100
AcDbEntity
  8
1
  6
Continuous
 62
     3
100
AcDbLine
 10
51.8910612476015
 20
83.0
 30
0.0
 11
148.0
 21
83.0
 31
0.0
  0
LINE
  5
16E
330
1F
100
AcDbEntity
  8
1
  6
Continuous
 62
     3
100
AcDbLine
 10
25.8069185625725
 20
65.6909734131519
 30
0.0
 11
22.2792479599494
 21
61.908009839625
 31
0.0
  0
LINE
  5
16F
330
1F
100
AcDbEntity
  8
1
  6
Continuous
 62
     3
100
AcDbLine
 10
-6.35935580463934
 20
135.25
 30
0.0
 11
6.35935580463934
 21
135.25
 31
0.0
  0
LINE
  5
170
330
1F
100
AcDbEntity
  8
1
  6
Continuous
 62
     3
100
AcDbLine
 10
6.35935580463934
 20
144.75
 30
0.0
 11
-6.35935580463934
 21
144.75
 31
0.0
  0
LINE
  5
171
330
1F
100
AcDbEntity
  8
1
  6
Continuous
 62
     3
100
AcDbLine
 10
-32.0
 20
-31.0
 30
0.0
 11
-32.2211849430599
 21
-31.0
 31
0.0
  0
LINE
  5
172
330
1F
100
AcDbEntity
  8
1
  6
Continuous
 62
     3
100
AcDbLine
 10
-32.0
 20
-30.9702426146991
 30
0.0
 11
-32.0
 21
-31.0
 31
0.0
  0
LINE
  5
173
330
1F
100
AcDbEntity
  8
1
  6
Continuous
 62
     3
100
AcDbLine
 10
-54.4792740578363
 20
-30.9702426146991
 30
0.0
 11
-32.0
 21
-30.9702426146991
 31
0.0
  0
LINE
  5
174
330
1F
100
AcDbEntity
  8
1
  6
Continuous
 62
     3
100
AcDbLine
 10
-54.4792740578363
 20
-31.0
 30
0.0
 11
-54.4792740578363
 21
-30.9702426146991
 31
0.0
  0
LINE
  5
175
330
1F
100
AcDbEntity
  8
1
  6
Continuous
 62
     3
100
AcDbLine
 10
-54.4792740578363
 20
-16.661154593445
 30
0.0
 11
-54.4792740578363
 21
-14.3090880212542
 31
0.0
  0
LINE
  5
176
330
1F
100
AcDbEntity
  8
1
  6
Continuous
 62
     3
100
AcDbLine
 10
-32.0
 20
-16.661154593445
 30
0.0
 11
-54.4792740578363
 21
-16.661154593445
 31
0.0
  0
LINE
  5
177
330
1F
100
AcDbEntity
  8
1
  6
Continuous
 62
     3
100
AcDbLine
 10
-32.0
 20
-14.3090880212542
 30
0.0
 11
-32.0
 21
-16.661154593445
 31
0.0
  0
LINE
  5
178
330
1F
100
AcDbEntity
  8
1
  6
Continuous
 62
     3
100
AcDbLine
 10
-54.4792740578363
 20
-14.3090880212542
 30
0.0
 11
-32.0
 21
-14.3090880212542
 31
0.0
  0
LINE
  5
179
330
1F
100
AcDbEntity
  8
1
  6
Continuous
 62
     3
100
AcDbLine
 10
-54.4792740578363
 20
14.3090880212542
 30
0.0
 11
-54.4792740578363
 21
16.661154593445
 31
0.0
  0
LINE
  5
17A
330
1F
100
AcDbEntity
  8
1
  6
Continuous
 62
     3
100
AcDbLine
 10
-32.0
 20
14.3090880212542
 30
0.0
 11
-54.4792740578363
 21
14.3090880212542
 31
0.0
  0
LINE
  5
17B
330
1F
100
AcDbEntity
  8
1
  6
Continuous
 62
     3
100
AcDbLine
 10
-32.0
 20
16.661154593445
 30
0.0
 11
-32.0
 21
14.3090880212542
 31
0.0
  0
LINE
  5
17C
330
1F
100
AcDbEntity
  8
1
  6
Continuous
 62
     3
100
AcDbLine
 10
-54.4792740578363
 20
16.661154593445
 30
0.0
 11
-32.0
 21
16.661154593445
 31
0.0
  0
LINE
  5
17D
330
1F
100
AcDbEntity
  8
1
  6
Continuous
 62
     3
100
AcDbLine
 10
-54.4792740578363
 20
30.9702426146991
 30
0.0
 11
-54.4792740578363
 21
31.0
 31
0.0
  0
LINE
  5
17E
330
1F
100
AcDbEntity
  8
1
  6
Continuous
 62
     3
100
AcDbLine
 10
-32.0
 20
30.9702426146991
 30
0.0
 11
-54.4792740578363
 21
30.9702426146991
 31
0.0
  0
LINE
  5
17F
330
1F
100
AcDbEntity
  8
1
  6
Continuous
 62
     3
100
AcDbLine
 10
-32.0
 20
31.0
 30
0.0
 11
-32.0
 21
30.9702426146991
 31
0.0
  0
LINE
  5
180
330
1F
100
AcDbEntity
  8
1
  6
Continuous
 62
     3
100
AcDbLine
 10
-32.2211849430599
 20
31.0
 30
0.0
 11
-32.0
 21
31.0
 31
0.0
  0
LINE
  5
181
330
1F
100
AcDbEntity
  8
1
  6
Continuous
 62
     3
100
AcDbLine
 10
-27.0
 20
-36.3363363969982
 30
0.0
 11
-27.0
 21
36.3363363969982
 31
0.0
  0
LINE
  5
182
330
1F
100
AcDbEntity
  8
1
  6
Continuous
 62
     3
100
AcDbLine
 10
-56.5
 20
27.5
 30
0.0
 11
-56.5
 21
-27.5
 31
0.0
  0
LINE
  5
183
330
1F
100
AcDbEntity
  8
1
  6
Continuous
 62
     3
100
AcDbLine
 10
-31.851214906362
 20
-31.1636636030018
 30
0.0
 11
-27.148785093638
 21
-36.3363363969982
 31
0.0
  0
LINE
  5
184
330
1F
100
AcDbEntity
  8
1
  6
Continuous
 62
     3
100
AcDbLine
 10
-54.4792740578363
 20
-31.0
 30
0.0
 11
-32.2211849430599
 21
-31.0
 31
0.0
  0
LINE
  5
185
330
1F
100
AcDbEntity
  8
1
  6
Continuous
 62
     3
100
AcDbLine
 10
-32.2211849430599
 20
31.0
 30
0.0
 11
-54.4792740578363
 21
31.0
 31
0.0
  0
LINE
  5
186
330
1F
100
AcDbEntity
  8
1
  6
Continuous
 62
     3
100
AcDbLine
 10
-27.148785093638
 20
36.3363363969982
 30
0.0
 11
-31.851214906362
 21
31.1636636030018
 31
0.0
  0
LINE
  5
187
330
1F
100
AcDbEntity
  8
1
  6
Continuous
 62
     3
100
AcDbLine
 10
-24.5
 20
-36.5
 30
0.0
 11
-26.7788150569401
 21
-36.5
 31
0.0
  0
LINE
  5
188
330
1F
100
AcDbEntity
  8
1
  6
Continuous
 62
     3
100
AcDbLine
 10
-24.5
 20
36.5
 30
0.0
 11
-26.7788150569401
 21
36.5
 31
0.0
  0
LINE
  5
189
330
1F
100
AcDbEntity
  8
1
  6
Continuous
 62
     3
100
AcDbLine
 10
-56.5
 20
-27.5
 30
0.0
 11
-54.4792740578363
 21
-31.0
 31
0.0
  0
LINE
  5
18A
330
1F
100
AcDbEntity
  8
1
  6
Continuous
 62
     3
100
AcDbLine
 10
-54.4792740578363
 20
31.0
 30
0.0
 11
-56.5
 21
27.5
 31
0.0
  0
LINE
  5
18B
330
1F
100
AcDbEntity
  8
1
  6
Continuous
 62
     3
100
AcDbLine
 10
-13.0
 20
34.0141840033777
 30
0.0
 11
-13.0
 21
-35.0
 31
0.0
  0
LINE
  5
18C
330
1F
100
AcDbEntity
  8
1
  6
Continuous
 62
     3
100
AcDbLine
 10
-14.5
 20
36.0476991269508
 30
0.0
 11
-14.5
 21
-36.3535533905933
 31
0.0
  0
LINE
  5
18D
330
1F
100
AcDbEntity
  8
1
  6
Continuous
 62
     3
100
AcDbLine
 10
-14.3387446733322
 20
36.0476991269508
 30
0.0
 11
-13.1724732630412
 21
34.3741192217236
 31
0.0
  0
LINE
  5
18E
330
1F
100
AcDbEntity
  8
1
  6
Continuous
 62
     3
100
AcDbLine
 10
-24.5
 20
36.5
 30
0.0
 11
-17.0
 21
36.5
 31
0.0
  0
LINE
  5
18F
330
1F
100
AcDbEntity
  8
1
  6
Continuous
 62
     3
100
AcDbLine
 10
24.497361866517
 20
34.8292523039342
 30
0.0
 11
24.497361866517
 21
-34.8292523039343
 31
0.0
  0
LINE
  5
190
330
1F
100
AcDbEntity
  8
1
  6
Continuous
 62
     3
100
AcDbLine
 10
28.0
 20
-16.661154593445
 30
0.0
 11
28.0
 21
-14.3090880212542
 31
0.0
  0
LINE
  5
191
330
1F
100
AcDbEntity
  8
1
  6
Continuous
 62
     3
100
AcDbLine
 10
53.4792740578363
 20
-16.661154593445
 30
0.0
 11
28.0
 21
-16.661154593445
 31
0.0
  0
LINE
  5
192
330
1F
100
AcDbEntity
  8
1
  6
Continuous
 62
     3
100
AcDbLine
 10
53.4792740578363
 20
-14.3090880212542
 30
0.0
 11
53.4792740578363
 21
-16.661154593445
 31
0.0
  0
LINE
  5
193
330
1F
100
AcDbEntity
  8
1
  6
Continuous
 62
     3
100
AcDbLine
 10
28.0
 20
-14.3090880212542
 30
0.0
 11
53.4792740578363
 21
-14.3090880212542
 31
0.0
  0
LINE
  5
194
330
1F
100
AcDbEntity
  8
1
  6
Continuous
 62
     3
100
AcDbLine
 10
28.0
 20
14.3090880212542
 30
0.0
 11
28.0
 21
16.661154593445
 31
0.0
  0
LINE
  5
195
330
1F
100
AcDbEntity
  8
1
  6
Continuous
 62
     3
100
AcDbLine
 10
53.4792740578363
 20
14.3090880212542
 30
0.0
 11
28.0
 21
14.3090880212542
 31
0.0
  0
LINE
  5
196
330
1F
100
AcDbEntity
  8
1
  6
Continuous
 62
     3
100
AcDbLine
 10
53.4792740578363
 20
16.661154593445
 30
0.0
 11
53.4792740578363
 21
14.3090880212542
 31
0.0
  0
LINE
  5
197
330
1F
100
AcDbEntity
  8
1
  6
Continuous
 62
     3
100
AcDbLine
 10
28.0
 20
16.661154593445
 30
0.0
 11
53.4792740578363
 21
16.661154593445
 31
0.0
  0
LINE
  5
198
330
1F
100
AcDbEntity
  8
1
  6
Continuous
 62
     3
100
AcDbLine
 10
53.4792740578363
 20
30.9702426146991
 30
0.0
 11
53.4792740578363
 21
31.0
 31
0.0
  0
LINE
  5
199
330
1F
100
AcDbEntity
  8
1
  6
Continuous
 62
     3
100
AcDbLine
 10
28.0
 20
30.9702426146991
 30
0.0
 11
53.4792740578363
 21
30.9702426146991
 31
0.0
  0
LINE
  5
19A
330
1F
100
AcDbEntity
  8
1
  6
Continuous
 62
     3
100
AcDbLine
 10
28.0
 20
30.985636455573
 30
0.0
 11
28.0
 21
30.9702426146991
 31
0.0
  0
LINE
  5
19B
330
1F
100
AcDbEntity
  8
1
  6
Continuous
 62
     3
100
AcDbLine
 10
28.2268841132959
 20
31.0
 30
0.0
 11
28.0
 21
31.0
 31
0.0
  0
LINE
  5
19C
330
1F
100
AcDbEntity
  8
1
  6
Continuous
 62
     3
100
AcDbLine
 10
53.4792740578363
 20
-30.9702426146991
 30
0.0
 11
53.4792740578363
 21
-31.0
 31
0.0
  0
LINE
  5
19D
330
1F
100
AcDbEntity
  8
1
  6
Continuous
 62
     3
100
AcDbLine
 10
28.0
 20
-30.9702426146991
 30
0.0
 11
53.4792740578363
 21
-30.9702426146991
 31
0.0
  0
LINE
  5
19E
330
1F
100
AcDbEntity
  8
1
  6
Continuous
 62
     3
100
AcDbLine
 10
28.0
 20
-31.0
 30
0.0
 11
28.0
 21
-30.9702426146991
 31
0.0
  0
LINE
  5
19F
330
1F
100
AcDbEntity
  8
1
  6
Continuous
 62
     3
100
AcDbLine
 10
28.2268841132959
 20
-31.0
 30
0.0
 11
28.0
 21
-31.0
 31
0.0
  0
LINE
  5
1A0
330
1F
100
AcDbEntity
  8
1
  6
Continuous
 62
     3
100
AcDbLine
 10
-92.5
 20
0.0
 30
0.0
 11
-92.5
 21
-14.3090880212542
 31
0.0
  0
LINE
  5
1A1
330
1F
100
AcDbEntity
  8
1
  6
Continuous
 62
     3
100
AcDbLine
 10
-118.642033731394
 20
-30.9702426146991
 30
0.0
 11
-93.8579662686063
 21
-16.661154593445
 31
0.0
  0
LINE
  5
1A2
330
1F
100
AcDbEntity
  8
1
  6
Continuous
 62
     3
100
AcDbLine
 10
-146.142033731394
 20
-16.6611545934449
 30
0.0
 11
-121.357966268606
 21
-30.9702426146991
 31
0.0
  0
LINE
  5
1A3
330
1F
100
AcDbEntity
  8
1
  6
Continuous
 62
     3
100
AcDbLine
 10
-147.5
 20
14.3090880212542
 30
0.0
 11
-147.5
 21
-14.3090880212542
 31
0.0
  0
LINE
  5
1A4
330
1F
100
AcDbEntity
  8
1
  6
Continuous
 62
     3
100
AcDbLine
 10
-121.357966268606
 20
30.9702426146991
 30
0.0
 11
-146.142033731394
 21
16.661154593445
 31
0.0
  0
LINE
  5
1A5
330
1F
100
AcDbEntity
  8
1
  6
Continuous
 62
     3
100
AcDbLine
 10
-93.8579662686063
 20
16.661154593445
 30
0.0
 11
-118.642033731394
 21
30.9702426146991
 31
0.0
  0
LINE
  5
1A6
330
1F
100
AcDbEntity
  8
1
  6
Continuous
 62
     3
100
AcDbLine
 10
-92.5
 20
14.3090880212542
 30
0.0
 11
-92.5
 21
0.0
 31
0.0
  0
LINE
  5
1A7
330
1F
100
AcDbEntity
  8
1
  6
Continuous
 62
     3
100
AcDbLine
 10
-15.0
 20
54.0
 30
0.0
 11
15.0
 21
54.0
 31
0.0
  0
LINE
  5
1A8
330
1F
100
AcDbEntity
  8
1
  6
Continuous
 62
     3
100
AcDbLine
 10
55.5
 20
27.5
 30
0.0
 11
55.5
 21
-27.5
 31
0.0
  0
LINE
  5
1A9
330
1F
100
AcDbEntity
  8
1
  6
Continuous
 62
     3
100
AcDbLine
 10
-24.5
 20
36.5
 30
0.0
 11
-24.5
 21
-36.5
 31
0.0
  0
LINE
  5
1AA
330
1F
100
AcDbEntity
  8
1
  6
Continuous
 62
     3
100
AcDbLine
 10
17.0
 20
35.0
 30
0.0
 11
24.2731158867041
 21
35.0
 31
0.0
  0
LINE
  5
1AB
330
1F
100
AcDbEntity
  8
1
  6
Continuous
 62
     3
100
AcDbLine
 10
15.0
 20
54.0
 30
0.0
 11
15.0
 21
53.0
 31
0.0
  0
LINE
  5
1AC
330
1F
100
AcDbEntity
  8
1
  6
Continuous
 62
     3
100
AcDbLine
 10
-15.0
 20
38.5
 30
0.0
 11
-15.0
 21
46.0989141968171
 31
0.0
  0
LINE
  5
1AD
330
1F
100
AcDbEntity
  8
1
  6
Continuous
 62
     3
100
AcDbLine
 10
28.2268841132959
 20
-31.0
 30
0.0
 11
53.4792740578363
 21
-31.0
 31
0.0
  0
LINE
  5
1AE
330
1F
100
AcDbEntity
  8
1
  6
Continuous
 62
     3
100
AcDbLine
 10
24.6494042340575
 20
-34.8292523039343
 30
0.0
 11
27.8505957659425
 21
-31.1707476960657
 31
0.0
  0
LINE
  5
1AF
330
1F
100
AcDbEntity
  8
1
  6
Continuous
 62
     3
100
AcDbLine
 10
28.2268841132959
 20
31.0
 30
0.0
 11
53.4792740578363
 21
31.0
 31
0.0
  0
LINE
  5
1B0
330
1F
100
AcDbEntity
  8
1
  6
Continuous
 62
     3
100
AcDbLine
 10
24.6494042340575
 20
34.8292523039343
 30
0.0
 11
27.8505957659425
 21
31.1707476960657
 31
0.0
  0
LINE
  5
1B1
330
1F
100
AcDbEntity
  8
1
  6
Continuous
 62
     3
100
AcDbLine
 10
55.5
 20
-27.5
 30
0.0
 11
53.4792740578363
 21
-31.0
 31
0.0
  0
LINE
  5
1B2
330
1F
100
AcDbEntity
  8
1
  6
Continuous
 62
     3
100
AcDbLine
 10
53.4792740578363
 20
31.0
 30
0.0
 11
55.5
 21
27.5
 31
0.0
  0
LINE
  5
1B3
330
1F
100
AcDbEntity
  8
1
  6
Continuous
 62
     3
100
AcDbLine
 10
24.2731158867041
 20
-35.0
 30
0.0
 11
-12.7928932188135
 21
-35.0
 31
0.0
  0
LINE
  5
1B4
330
1F
100
AcDbEntity
  8
1
  6
Continuous
 62
     3
100
AcDbLine
 10
-14.3535533905933
 20
-36.3535533905933
 30
0.0
 11
-13.1464466094067
 21
-35.1464466094067
 31
0.0
  0
LINE
  5
1B5
330
1F
100
AcDbEntity
  8
1
  6
Continuous
 62
     3
100
AcDbLine
 10
-24.5
 20
-36.5
 30
0.0
 11
-14.7071067811866
 21
-36.5
 31
0.0
  0
LINE
  5
1B6
330
1F
100
AcDbEntity
  8
1
  6
Continuous
 62
     3
100
AcDbLine
 10
-24.5
 20
103.5
 30
0.0
 11
-14.7071067811866
 21
103.5
 31
0.0
  0
LINE
  5
1B7
330
1F
100
AcDbEntity
  8
1
  6
Continuous
 62
     3
100
AcDbLine
 10
-14.3535533905933
 20
103.646446609407
 30
0.0
 11
-13.1464466094067
 21
104.853553390593
 31
0.0
  0
LINE
  5
1B8
330
1F
100
AcDbEntity
  8
1
  6
Continuous
 62
     3
100
AcDbLine
 10
24.2731158867041
 20
105.0
 30
0.0
 11
18.5
 21
105.0
 31
0.0
  0
LINE
  5
1B9
330
1F
100
AcDbEntity
  8
1
  6
Continuous
 62
     3
100
AcDbLine
 10
24.6494042340575
 20
105.170747696066
 30
0.0
 11
30.9130957659425
 21
112.329252303934
 31
0.0
  0
LINE
  5
1BA
330
1F
100
AcDbEntity
  8
1
  6
Continuous
 62
     3
100
AcDbLine
 10
-24.5
 20
176.5
 30
0.0
 11
-24.5
 21
103.5
 31
0.0
  0
LINE
  5
1BB
330
1F
100
AcDbEntity
  8
1
  6
Continuous
 62
     3
100
AcDbLine
 10
30.9130957659425
 20
167.670747696066
 30
0.0
 11
24.6494042340575
 21
174.829252303934
 31
0.0
  0
LINE
  5
1BC
330
1F
100
AcDbEntity
  8
1
  6
Continuous
 62
     3
100
AcDbLine
 10
-12.7928932188135
 20
175.0
 30
0.0
 11
-6.5
 21
175.0
 31
0.0
  0
LINE
  5
1BD
330
1F
100
AcDbEntity
  8
1
  6
Continuous
 62
     3
100
AcDbLine
 10
-13.1464466094067
 20
175.146446609407
 30
0.0
 11
-14.3535533905933
 21
176.353553390593
 31
0.0
  0
LINE
  5
1BE
330
1F
100
AcDbEntity
  8
1
  6
Continuous
 62
     3
100
AcDbLine
 10
-14.7071067811866
 20
176.5
 30
0.0
 11
-24.5
 21
176.5
 31
0.0
  0
LINE
  5
1BF
330
1F
100
AcDbEntity
  8
1
  6
Continuous
 62
     3
100
AcDbLine
 10
31.2893841132959
 20
167.5
 30
0.0
 11
53.4792740578363
 21
167.5
 31
0.0
  0
LINE
  5
1C0
330
1F
100
AcDbEntity
  8
1
  6
Continuous
 62
     3
100
AcDbLine
 10
55.5
 20
167.5
 30
0.0
 11
55.5
 21
154.5
 31
0.0
  0
LINE
  5
1C1
330
1F
100
AcDbEntity
  8
1
  6
Continuous
 62
     3
100
AcDbLine
 10
55.5
 20
112.5
 30
0.0
 11
53.4792740578363
 21
112.5
 31
0.0
  0
LINE
  5
1C2
330
1F
100
AcDbEntity
  8
1
  6
Continuous
 62
     3
100
AcDbLine
 10
53.4792740578363
 20
167.5
 30
0.0
 11
53.4792740578363
 21
166.142033731394
 31
0.0
  0
LINE
  5
1C3
330
1F
100
AcDbEntity
  8
1
  6
Continuous
 62
     3
100
AcDbLine
 10
53.4792740578363
 20
167.5
 30
0.0
 11
55.5
 21
167.5
 31
0.0
  0
LINE
  5
1C4
330
1F
100
AcDbEntity
  8
1
  6
Continuous
 62
     3
100
AcDbLine
 10
53.4792740578363
 20
166.142033731394
 30
0.0
 11
28.0
 21
166.142033731394
 31
0.0
  0
LINE
  5
1C5
330
1F
100
AcDbEntity
  8
1
  6
Continuous
 62
     3
100
AcDbLine
 10
28.0
 20
166.142033731394
 30
0.0
 11
28.0
 21
167.5
 31
0.0
  0
LINE
  5
1C6
330
1F
100
AcDbEntity
  8
1
  6
Continuous
 62
     3
100
AcDbLine
 10
28.0
 20
167.5
 30
0.0
 11
31.2893841132959
 21
167.5
 31
0.0
  0
LINE
  5
1C7
330
1F
100
AcDbEntity
  8
1
  6
Continuous
 62
     3
100
AcDbLine
 10
28.0
 20
112.5
 30
0.0
 11
28.0
 21
113.857966268606
 31
0.0
  0
LINE
  5
1C8
330
1F
100
AcDbEntity
  8
1
  6
Continuous
 62
     3
100
AcDbLine
 10
28.0
 20
113.857966268606
 30
0.0
 11
53.4792740578363
 21
113.857966268606
 31
0.0
  0
LINE
  5
1C9
330
1F
100
AcDbEntity
  8
1
  6
Continuous
 62
     3
100
AcDbLine
 10
53.4792740578363
 20
113.857966268606
 30
0.0
 11
53.4792740578363
 21
112.5
 31
0.0
  0
LINE
  5
1CA
330
1F
100
AcDbEntity
  8
1
  6
Continuous
 62
     3
100
AcDbLine
 10
53.4792740578363
 20
112.5
 30
0.0
 11
31.2893841132959
 21
112.5
 31
0.0
  0
LINE
  5
1CB
330
1F
100
AcDbEntity
  8
1
  6
Continuous
 62
     3
100
AcDbLine
 10
31.2893841132959
 20
112.5
 30
0.0
 11
28.0
 21
112.5
 31
0.0
  0
LINE
  5
1CC
330
1F
100
AcDbEntity
  8
1
  6
Continuous
 62
     3
100
AcDbLine
 10
-14.5
 20
175.5
 30
0.0
 11
-14.5
 21
145.916666666667
 31
0.0
  0
LINE
  5
1CD
330
1F
100
AcDbEntity
  8
1
  6
Continuous
 62
     3
100
AcDbLine
 10
24.5
 20
174.0
 30
0.0
 11
24.5
 21
154.436491673104
 31
0.0
  0
LINE
  5
1CE
330
1F
100
AcDbEntity
  8
1
  6
Continuous
 62
     3
100
AcDbLine
 10
-13.0
 20
106.0
 30
0.0
 11
-13.0
 21
129.560403212207
 31
0.0
  0
LINE
  5
1CF
330
1F
100
AcDbEntity
  8
1
  6
Continuous
 62
     3
100
AcDbLine
 10
-24.0
 20
134.9
 30
0.0
 11
-24.0
 21
132.339099631177
 31
0.0
  0
LINE
  5
1D0
330
1F
100
AcDbEntity
  8
1
  6
Continuous
 62
     3
100
AcDbLine
 10
-14.5
 20
129.82489368327
 30
0.0
 11
-14.5
 21
104.5
 31
0.0
  0
LINE
  5
1D1
330
1F
100
AcDbEntity
  8
1
  6
Continuous
 62
     3
100
AcDbLine
 10
5.0
 20
163.5
 30
0.0
 11
5.0
 21
155.5
 31
0.0
  0
LINE
  5
1D2
330
1F
100
AcDbEntity
  8
1
  6
Continuous
 62
     3
100
AcDbLine
 10
7.66090036882272
 20
164.0
 30
0.0
 11
5.5
 21
164.0
 31
0.0
  0
LINE
  5
1D3
330
1F
100
AcDbEntity
  8
1
  6
Continuous
 62
     3
100
AcDbLine
 10
4.5
 20
155.0
 30
0.0
 11
0.0
 21
155.0
 31
0.0
  0
LINE
  5
1D4
330
1F
100
AcDbEntity
  8
1
  6
Continuous
 62
     3
100
AcDbLine
 10
-5.5
 20
125.379808482787
 30
0.0
 11
-5.5
 21
117.0
 31
0.0
  0
LINE
  5
1D5
330
1F
100
AcDbEntity
  8
1
  6
Continuous
 62
     3
100
AcDbLine
 10
-4.5
 20
116.0
 30
0.0
 11
4.5
 21
116.0
 31
0.0
  0
LINE
  5
1D6
330
1F
100
AcDbEntity
  8
1
  6
Continuous
 62
     3
100
AcDbLine
 10
5.5
 20
117.0
 30
0.0
 11
5.5
 21
125.379808482787
 31
0.0
  0
LINE
  5
1D7
330
1F
100
AcDbEntity
  8
1
  6
Continuous
 62
     3
100
AcDbLine
 10
15.3915347710907
 20
46.587007726909
 30
0.0
 11
23.6084652289093
 21
48.412992273091
 31
0.0
  0
LINE
  5
1D8
330
1F
100
AcDbEntity
  8
1
  6
Continuous
 62
     3
100
AcDbLine
 10
15.0
 20
46.0989141968171
 30
0.0
 11
15.0
 21
37.0
 31
0.0
  0
LINE
  5
1D9
330
1F
100
AcDbEntity
  8
1
  6
Continuous
 62
     3
100
AcDbLine
 10
24.0
 20
48.9010858031829
 30
0.0
 11
24.0
 21
52.0
 31
0.0
  0
LINE
  5
1DA
330
1F
100
AcDbEntity
  8
1
  6
Continuous
 62
     3
100
AcDbLine
 10
23.5
 20
52.5
 30
0.0
 11
15.5
 21
52.5
 31
0.0
  0
LINE
  5
1DB
330
1F
100
AcDbEntity
  8
1
  6
Continuous
 62
     3
100
AcDbLine
 10
-24.0
 20
52.0
 30
0.0
 11
-24.0
 21
48.9010858031829
 31
0.0
  0
LINE
  5
1DC
330
1F
100
AcDbEntity
  8
1
  6
Continuous
 62
     3
100
AcDbLine
 10
10.5277602781473
 20
152.5
 30
0.0
 11
8.64570812183493
 21
163.173648177667
 31
0.0
  0
LINE
  5
1DD
330
1F
100
AcDbEntity
  8
1
  6
Continuous
 62
     3
100
AcDbLine
 10
-13.0
 20
149.866666666667
 30
0.0
 11
-13.0
 21
174.0
 31
0.0
  0
LINE
  5
1DE
330
1F
100
AcDbEntity
  8
1
  6
Continuous
 62
     3
100
AcDbLine
 10
-23.1736481776669
 20
131.354291878165
 30
0.0
 11
-13.0
 21
129.560403212207
 31
0.0
  0
LINE
  5
1DF
330
1F
100
AcDbEntity
  8
1
  6
Continuous
 62
     3
100
AcDbLine
 10
-13.0
 20
129.560403212207
 30
0.0
 11
-12.7668178104162
 21
129.519286900763
 31
0.0
  0
LINE
  5
1E0
330
1F
100
AcDbEntity
  8
1
  6
Continuous
 62
     3
100
AcDbLine
 10
-6.5
 20
175.0
 30
0.0
 11
-6.5
 21
174.186050525403
 31
0.0
  0
LINE
  5
1E1
330
1F
100
AcDbEntity
  8
1
  6
Continuous
 62
     3
100
AcDbLine
 10
-6.5
 20
175.0
 30
0.0
 11
18.5
 21
175.0
 31
0.0
  0
LINE
  5
1E2
330
1F
100
AcDbEntity
  8
1
  6
Continuous
 62
     3
100
AcDbLine
 10
-6.0
 20
173.686050525403
 30
0.0
 11
18.0
 21
173.686050525403
 31
0.0
  0
LINE
  5
1E3
330
1F
100
AcDbEntity
  8
1
  6
Continuous
 62
     3
100
AcDbLine
 10
18.5
 20
174.186050525403
 30
0.0
 11
18.5
 21
175.0
 31
0.0
  0
LINE
  5
1E4
330
1F
100
AcDbEntity
  8
1
  6
Continuous
 62
     3
100
AcDbLine
 10
18.5
 20
175.0
 30
0.0
 11
24.2731158867041
 21
175.0
 31
0.0
  0
LINE
  5
1E5
330
1F
100
AcDbEntity
  8
1
  6
Continuous
 62
     3
100
AcDbLine
 10
18.5
 20
105.0
 30
0.0
 11
18.5
 21
105.813949474597
 31
0.0
  0
LINE
  5
1E6
330
1F
100
AcDbEntity
  8
1
  6
Continuous
 62
     3
100
AcDbLine
 10
18.5
 20
105.0
 30
0.0
 11
-6.5
 21
105.0
 31
0.0
  0
LINE
  5
1E7
330
1F
100
AcDbEntity
  8
1
  6
Continuous
 62
     3
100
AcDbLine
 10
18.0
 20
106.313949474597
 30
0.0
 11
-6.0
 21
106.313949474597
 31
0.0
  0
LINE
  5
1E8
330
1F
100
AcDbEntity
  8
1
  6
Continuous
 62
     3
100
AcDbLine
 10
-6.5
 20
105.813949474597
 30
0.0
 11
-6.5
 21
105.0
 31
0.0
  0
LINE
  5
1E9
330
1F
100
AcDbEntity
  8
1
  6
Continuous
 62
     3
100
AcDbLine
 10
-6.5
 20
105.0
 30
0.0
 11
-12.7928932188135
 21
105.0
 31
0.0
  0
LINE
  5
1EA
330
1F
100
AcDbEntity
  8
1
  6
Continuous
 62
     3
100
AcDbLine
 10
-5.5
 20
9.5
 30
0.0
 11
17.5
 21
9.5
 31
0.0
  0
LINE
  5
1EB
330
1F
100
AcDbEntity
  8
1
  6
Continuous
 62
     3
100
AcDbLine
 10
18.5
 20
8.5
 30
0.0
 11
18.5
 21
-8.5
 31
0.0
  0
LINE
  5
1EC
330
1F
100
AcDbEntity
  8
1
  6
Continuous
 62
     3
100
AcDbLine
 10
17.5
 20
-9.5
 30
0.0
 11
-5.5
 21
-9.5
 31
0.0
  0
LINE
  5
1ED
330
1F
100
AcDbEntity
  8
1
  6
Continuous
 62
     3
100
AcDbLine
 10
-6.5
 20
-8.5
 30
0.0
 11
-6.5
 21
8.5
 31
0.0
  0
LINE
  5
1EE
330
1F
100
AcDbEntity
  8
1
  6
DOT_CENTER
 62
     3
100
AcDbLine
 10
0.0
 20
74.0
 30
0.0
 11
0.0
 21
-36.0
 31
0.0
  0
LINE
  5
1EF
330
1F
100
AcDbEntity
  8
1
  6
DOT_CENTER
 62
     3
100
AcDbLine
 10
0.0
 20
176.0
 30
0.0
 11
0.0
 21
104.0
 31
0.0
  0
LINE
  5
1F0
330
1F
100
AcDbEntity
  8
1
  6
Continuous
 62
     3
100
AcDbLine
 10
24.5
 20
125.563508326896
 30
0.0
 11
24.5
 21
106.0
 31
0.0
  0
LINE
  5
1F1
330
1F
100
AcDbEntity
  8
1
  6
Continuous
 62
     3
100
AcDbLine
 10
55.5
 20
125.5
 30
0.0
 11
55.5
 21
112.5
 31
0.0
  0
LINE
  5
1F2
330
1F
100
AcDbEntity
  8
1
  6
DOT_CENTER
 62
     3
100
AcDbLine
 10
-57.5
 20
140.0
 30
0.0
 11
58.0
 21
140.0
 31
0.0
  0
LINE
  5
1F3
330
1F
100
AcDbEntity
  8
1
  6
DOT_CENTER
 62
     3
100
AcDbLine
 10
120.844621518819
 20
140.0
 30
0.0
 11
153.0
 21
140.0
 31
0.0
  0
LINE
  5
1F4
330
1F
100
AcDbEntity
  8
1
  6
DOT_CENTER
 62
     3
100
AcDbLine
 10
-57.5
 20
0.0
 30
0.0
 11
56.5
 21
0.0
 31
0.0
  0
LINE
  5
1F5
330
1F
100
AcDbEntity
  8
1
  6
Continuous
 62
     3
100
AcDbLine
 10
37.1462417944852
 20
-44.2578495815465
 30
0.0
 11
35.7087417944852
 21
-44.2578495815465
 31
0.0
  0
LINE
  5
1F6
330
1F
100
AcDbEntity
  8
1
  6
Continuous
 62
     3
100
AcDbLine
 10
35.7087417944852
 20
-44.2578495815465
 30
0.0
 11
35.7087417944852
 21
-45.5078495815465
 31
0.0
  0
LINE
  5
1F7
330
1F
100
AcDbEntity
  8
1
  6
Continuous
 62
     3
100
AcDbLine
 10
35.7087417944852
 20
-45.5078495815465
 30
0.0
 11
36.9587417944852
 21
-45.5078495815465
 31
0.0
  0
LINE
  5
1F8
330
1F
100
AcDbEntity
  8
1
  6
Continuous
 62
     3
100
AcDbLine
 10
35.7087417944852
 20
-45.5078495815465
 30
0.0
 11
35.7087417944852
 21
-46.7578495815465
 31
0.0
  0
LINE
  5
1F9
330
1F
100
AcDbEntity
  8
1
  6
Continuous
 62
     3
100
AcDbLine
 10
40.0212417944852
 20
-44.7578495815465
 30
0.0
 11
39.8337417944852
 21
-44.5078495815465
 31
0.0
  0
LINE
  5
1FA
330
1F
100
AcDbEntity
  8
1
  6
Continuous
 62
     3
100
AcDbLine
 10
39.8337417944852
 20
-44.5078495815465
 30
0.0
 11
39.5837417944852
 21
-44.3203495815465
 31
0.0
  0
LINE
  5
1FB
330
1F
100
AcDbEntity
  8
1
  6
Continuous
 62
     3
100
AcDbLine
 10
39.5837417944852
 20
-44.3203495815465
 30
0.0
 11
39.2712417944852
 21
-44.3203495815465
 31
0.0
  0
LINE
  5
1FC
330
1F
100
AcDbEntity
  8
1
  6
Continuous
 62
     3
100
AcDbLine
 10
39.2712417944852
 20
-44.3203495815465
 30
0.0
 11
39.0212417944852
 21
-44.3203495815465
 31
0.0
  0
LINE
  5
1FD
330
1F
100
AcDbEntity
  8
1
  6
Continuous
 62
     3
100
AcDbLine
 10
39.0212417944852
 20
-44.3203495815465
 30
0.0
 11
38.8962417944852
 21
-44.4453495815465
 31
0.0
  0
LINE
  5
1FE
330
1F
100
AcDbEntity
  8
1
  6
Continuous
 62
     3
100
AcDbLine
 10
38.8962417944852
 20
-44.4453495815465
 30
0.0
 11
38.6462417944852
 21
-44.5703495815465
 31
0.0
  0
LINE
  5
1FF
330
1F
100
AcDbEntity
  8
1
  6
Continuous
 62
     3
100
AcDbLine
 10
38.6462417944852
 20
-44.5703495815465
 30
0.0
 11
38.5837417944852
 21
-44.8203495815465
 31
0.0
  0
LINE
  5
200
330
1F
100
AcDbEntity
  8
1
  6
Continuous
 62
     3
100
AcDbLine
 10
38.5837417944852
 20
-44.8203495815465
 30
0.0
 11
38.6462417944852
 21
-45.1953495815465
 31
0.0
  0
LINE
  5
201
330
1F
100
AcDbEntity
  8
1
  6
Continuous
 62
     3
100
AcDbLine
 10
38.6462417944852
 20
-45.1953495815465
 30
0.0
 11
38.8337417944852
 21
-45.3203495815465
 31
0.0
  0
LINE
  5
202
330
1F
100
AcDbEntity
  8
1
  6
Continuous
 62
     3
100
AcDbLine
 10
38.8337417944852
 20
-45.3203495815465
 30
0.0
 11
38.9587417944852
 21
-45.4453495815465
 31
0.0
  0
LINE
  5
203
330
1F
100
AcDbEntity
  8
1
  6
Continuous
 62
     3
100
AcDbLine
 10
38.9587417944852
 20
-45.4453495815465
 30
0.0
 11
39.2712417944852
 21
-45.5078495815465
 31
0.0
  0
LINE
  5
204
330
1F
100
AcDbEntity
  8
1
  6
Continuous
 62
     3
100
AcDbLine
 10
39.2712417944852
 20
-45.5078495815465
 30
0.0
 11
39.5837417944852
 21
-45.5078495815465
 31
0.0
  0
LINE
  5
205
330
1F
100
AcDbEntity
  8
1
  6
Continuous
 62
     3
100
AcDbLine
 10
39.5837417944852
 20
-45.5078495815465
 30
0.0
 11
39.7712417944852
 21
-45.5703495815465
 31
0.0
  0
LINE
  5
206
330
1F
100
AcDbEntity
  8
1
  6
Continuous
 62
     3
100
AcDbLine
 10
39.7712417944852
 20
-45.5703495815465
 30
0.0
 11
40.0212417944852
 21
-45.8203495815465
 31
0.0
  0
LINE
  5
207
330
1F
100
AcDbEntity
  8
1
  6
Continuous
 62
     3
100
AcDbLine
 10
40.0212417944852
 20
-45.8203495815465
 30
0.0
 11
40.0837417944852
 21
-46.1953495815465
 31
0.0
  0
LINE
  5
208
330
1F
100
AcDbEntity
  8
1
  6
Continuous
 62
     3
100
AcDbLine
 10
40.0837417944852
 20
-46.1953495815465
 30
0.0
 11
40.0212417944852
 21
-46.5078495815465
 31
0.0
  0
LINE
  5
209
330
1F
100
AcDbEntity
  8
1
  6
Continuous
 62
     3
100
AcDbLine
 10
40.0212417944852
 20
-46.5078495815465
 30
0.0
 11
39.7712417944852
 21
-46.6953495815465
 31
0.0
  0
LINE
  5
20A
330
1F
100
AcDbEntity
  8
1
  6
Continuous
 62
     3
100
AcDbLine
 10
39.7712417944852
 20
-46.6953495815465
 30
0.0
 11
39.5837417944852
 21
-46.7578495815465
 31
0.0
  0
LINE
  5
20B
330
1F
100
AcDbEntity
  8
1
  6
Continuous
 62
     3
100
AcDbLine
 10
39.5837417944852
 20
-46.7578495815465
 30
0.0
 11
39.2712417944852
 21
-46.7578495815465
 31
0.0
  0
LINE
  5
20C
330
1F
100
AcDbEntity
  8
1
  6
Continuous
 62
     3
100
AcDbLine
 10
39.2712417944852
 20
-46.7578495815465
 30
0.0
 11
38.9587417944852
 21
-46.6953495815465
 31
0.0
  0
LINE
  5
20D
330
1F
100
AcDbEntity
  8
1
  6
Continuous
 62
     3
100
AcDbLine
 10
38.9587417944852
 20
-46.6953495815465
 30
0.0
 11
38.7712417944852
 21
-46.5078495815465
 31
0.0
  0
LINE
  5
20E
330
1F
100
AcDbEntity
  8
1
  6
Continuous
 62
     3
100
AcDbLine
 10
38.7712417944852
 20
-46.5078495815465
 30
0.0
 11
38.5837417944852
 21
-46.1953495815465
 31
0.0
  0
LINE
  5
20F
330
1F
100
AcDbEntity
  8
1
  6
Continuous
 62
     3
100
AcDbLine
 10
41.3962417944852
 20
-44.3203495815465
 30
0.0
 11
42.2087417944852
 21
-44.3203495815465
 31
0.0
  0
LINE
  5
210
330
1F
100
AcDbEntity
  8
1
  6
Continuous
 62
     3
100
AcDbLine
 10
42.2087417944852
 20
-44.3203495815465
 30
0.0
 11
42.2087417944852
 21
-46.7578495815465
 31
0.0
  0
LINE
  5
211
330
1F
100
AcDbEntity
  8
1
  6
Continuous
 62
     3
100
AcDbLine
 10
42.2087417944852
 20
-44.3203495815465
 30
0.0
 11
43.0212417944852
 21
-44.3203495815465
 31
0.0
  0
LINE
  5
212
330
1F
100
AcDbEntity
  8
1
  6
Continuous
 62
     3
100
AcDbLine
 10
44.4587417944852
 20
-45.5078495815465
 30
0.0
 11
45.7712417944852
 21
-45.5078495815465
 31
0.0
  0
LINE
  5
213
330
1F
100
AcDbEntity
  8
1
  6
Continuous
 62
     3
100
AcDbLine
 10
48.0837417944852
 20
-44.2578495815465
 30
0.0
 11
47.6462417944852
 21
-44.4453495815465
 31
0.0
  0
LINE
  5
214
330
1F
100
AcDbEntity
  8
1
  6
Continuous
 62
     3
100
AcDbLine
 10
47.6462417944852
 20
-44.4453495815465
 30
0.0
 11
47.3962417944852
 21
-44.8203495815465
 31
0.0
  0
LINE
  5
215
330
1F
100
AcDbEntity
  8
1
  6
Continuous
 62
     3
100
AcDbLine
 10
47.3962417944852
 20
-44.8203495815465
 30
0.0
 11
47.2712417944852
 21
-45.5078495815465
 31
0.0
  0
LINE
  5
216
330
1F
100
AcDbEntity
  8
1
  6
Continuous
 62
     3
100
AcDbLine
 10
47.2712417944852
 20
-45.5078495815465
 30
0.0
 11
47.3962417944852
 21
-46.1953495815465
 31
0.0
  0
LINE
  5
217
330
1F
100
AcDbEntity
  8
1
  6
Continuous
 62
     3
100
AcDbLine
 10
47.3962417944852
 20
-46.1953495815465
 30
0.0
 11
47.6462417944852
 21
-46.5703495815465
 31
0.0
  0
LINE
  5
218
330
1F
100
AcDbEntity
  8
1
  6
Continuous
 62
     3
100
AcDbLine
 10
47.6462417944852
 20
-46.5703495815465
 30
0.0
 11
48.0837417944852
 21
-46.7578495815465
 31
0.0
  0
LINE
  5
219
330
1F
100
AcDbEntity
  8
1
  6
Continuous
 62
     3
100
AcDbLine
 10
48.0837417944852
 20
-46.7578495815465
 30
0.0
 11
48.5212417944852
 21
-46.5703495815465
 31
0.0
  0
LINE
  5
21A
330
1F
100
AcDbEntity
  8
1
  6
Continuous
 62
     3
100
AcDbLine
 10
48.5212417944852
 20
-46.5703495815465
 30
0.0
 11
48.8337417944852
 21
-46.1953495815465
 31
0.0
  0
LINE
  5
21B
330
1F
100
AcDbEntity
  8
1
  6
Continuous
 62
     3
100
AcDbLine
 10
48.8337417944852
 20
-46.1953495815465
 30
0.0
 11
48.8962417944852
 21
-45.5078495815465
 31
0.0
  0
LINE
  5
21C
330
1F
100
AcDbEntity
  8
1
  6
Continuous
 62
     3
100
AcDbLine
 10
48.8962417944852
 20
-45.5078495815465
 30
0.0
 11
48.8337417944852
 21
-44.8203495815465
 31
0.0
  0
LINE
  5
21D
330
1F
100
AcDbEntity
  8
1
  6
Continuous
 62
     3
100
AcDbLine
 10
48.8337417944852
 20
-44.8203495815465
 30
0.0
 11
48.5212417944852
 21
-44.4453495815465
 31
0.0
  0
LINE
  5
21E
330
1F
100
AcDbEntity
  8
1
  6
Continuous
 62
     3
100
AcDbLine
 10
48.5212417944852
 20
-44.4453495815465
 30
0.0
 11
48.0837417944852
 21
-44.2578495815465
 31
0.0
  0
LINE
  5
21F
330
1F
100
AcDbEntity
  8
1
  6
Continuous
 62
     3
100
AcDbLine
 10
50.7712417944852
 20
-44.5078495815465
 30
0.0
 11
51.1462417944852
 21
-44.2578495815465
 31
0.0
  0
LINE
  5
220
330
1F
100
AcDbEntity
  8
1
  6
Continuous
 62
     3
100
AcDbLine
 10
51.1462417944852
 20
-44.2578495815465
 30
0.0
 11
51.1462417944852
 21
-46.7578495815465
 31
0.0
  0
LINE
  5
221
330
1F
100
AcDbEntity
  8
1
  6
Continuous
 62
     3
100
AcDbLine
 10
53.2712417944852
 20
-45.5078495815465
 30
0.0
 11
54.5837417944852
 21
-45.5078495815465
 31
0.0
  0
LINE
  5
222
330
1F
100
AcDbEntity
  8
1
  6
Continuous
 62
     3
100
AcDbLine
 10
57.3337417944852
 20
-46.7578495815465
 30
0.0
 11
57.3337417944852
 21
-44.2578495815465
 31
0.0
  0
LINE
  5
223
330
1F
100
AcDbEntity
  8
1
  6
Continuous
 62
     3
100
AcDbLine
 10
57.3337417944852
 20
-44.2578495815465
 30
0.0
 11
56.0212417944852
 21
-46.1953495815465
 31
0.0
  0
LINE
  5
224
330
1F
100
AcDbEntity
  8
1
  6
Continuous
 62
     3
100
AcDbLine
 10
56.0212417944852
 20
-46.1953495815465
 30
0.0
 11
57.7712417944852
 21
-46.1953495815465
 31
0.0
  0
LINE
  5
225
330
1F
100
AcDbEntity
  8
1
  6
Continuous
 62
     3
100
AcDbLine
 10
59.8337417944852
 20
-44.2578495815465
 30
0.0
 11
59.3962417944852
 21
-44.4453495815465
 31
0.0
  0
LINE
  5
226
330
1F
100
AcDbEntity
  8
1
  6
Continuous
 62
     3
100
AcDbLine
 10
59.3962417944852
 20
-44.4453495815465
 30
0.0
 11
59.1462417944852
 21
-44.8203495815465
 31
0.0
  0
LINE
  5
227
330
1F
100
AcDbEntity
  8
1
  6
Continuous
 62
     3
100
AcDbLine
 10
59.1462417944852
 20
-44.8203495815465
 30
0.0
 11
59.0212417944852
 21
-45.5078495815465
 31
0.0
  0
LINE
  5
228
330
1F
100
AcDbEntity
  8
1
  6
Continuous
 62
     3
100
AcDbLine
 10
59.0212417944852
 20
-45.5078495815465
 30
0.0
 11
59.1462417944852
 21
-46.1953495815465
 31
0.0
  0
LINE
  5
229
330
1F
100
AcDbEntity
  8
1
  6
Continuous
 62
     3
100
AcDbLine
 10
59.1462417944852
 20
-46.1953495815465
 30
0.0
 11
59.3962417944852
 21
-46.5703495815465
 31
0.0
  0
LINE
  5
22A
330
1F
100
AcDbEntity
  8
1
  6
Continuous
 62
     3
100
AcDbLine
 10
59.3962417944852
 20
-46.5703495815465
 30
0.0
 11
59.8337417944852
 21
-46.7578495815465
 31
0.0
  0
LINE
  5
22B
330
1F
100
AcDbEntity
  8
1
  6
Continuous
 62
     3
100
AcDbLine
 10
59.8337417944852
 20
-46.7578495815465
 30
0.0
 11
60.2712417944852
 21
-46.5703495815465
 31
0.0
  0
LINE
  5
22C
330
1F
100
AcDbEntity
  8
1
  6
Continuous
 62
     3
100
AcDbLine
 10
60.2712417944852
 20
-46.5703495815465
 30
0.0
 11
60.5837417944852
 21
-46.1953495815465
 31
0.0
  0
LINE
  5
22D
330
1F
100
AcDbEntity
  8
1
  6
Continuous
 62
     3
100
AcDbLine
 10
60.5837417944852
 20
-46.1953495815465
 30
0.0
 11
60.6462417944852
 21
-45.5078495815465
 31
0.0
  0
LINE
  5
22E
330
1F
100
AcDbEntity
  8
1
  6
Continuous
 62
     3
100
AcDbLine
 10
60.6462417944852
 20
-45.5078495815465
 30
0.0
 11
60.5837417944852
 21
-44.8203495815465
 31
0.0
  0
LINE
  5
22F
330
1F
100
AcDbEntity
  8
1
  6
Continuous
 62
     3
100
AcDbLine
 10
60.5837417944852
 20
-44.8203495815465
 30
0.0
 11
60.2712417944852
 21
-44.4453495815465
 31
0.0
  0
LINE
  5
230
330
1F
100
AcDbEntity
  8
1
  6
Continuous
 62
     3
100
AcDbLine
 10
60.2712417944852
 20
-44.4453495815465
 30
0.0
 11
59.8337417944852
 21
-44.2578495815465
 31
0.0
  0
ARC
  5
231
330
1F
100
AcDbEntity
  8
1
  6
Continuous
 62
     3
100
AcDbCircle
 10
0.0
 20
140.0
 30
0.0
 40
12.75
100
AcDbArc
 50
70.25007720435744
 51
109.7499227956425
  0
ARC
  5
232
330
1F
100
AcDbEntity
  8
1
  6
Continuous
 62
     3
100
AcDbCircle
 10
0.0
 20
140.0
 30
0.0
 40
12.74999999999994
100
AcDbArc
 50
10.25007720435663
 51
49.74992279564306
  0
ARC
  5
233
330
1F
100
AcDbEntity
  8
1
  6
Continuous
 62
     3
100
AcDbCircle
 10
0.0
 20
140.0
 30
0.0
 40
12.75000000000015
100
AcDbArc
 50
310.2500772043569
 51
349.7499227956434
  0
ARC
  5
234
330
1F
100
AcDbEntity
  8
1
  6
Continuous
 62
     3
100
AcDbCircle
 10
0.0
 20
140.0
 30
0.0
 40
12.75
100
AcDbArc
 50
250.2500772043574
 51
289.7499227956425
  0
ARC
  5
235
330
1F
100
AcDbEntity
  8
1
  6
Continuous
 62
     3
100
AcDbCircle
 10
0.0
 20
140.0
 30
0.0
 40
12.74999999999994
100
AcDbArc
 50
190.2500772043566
 51
229.749922795643
  0
ARC
  5
236
330
1F
100
AcDbEntity
  8
1
  6
Continuous
 62
     3
100
AcDbCircle
 10
0.0
 20
140.0
 30
0.0
 40
12.75000000000015
100
AcDbArc
 50
130.2500772043569
 51
169.7499227956434
  0
ARC
  5
237
330
1F
100
AcDbEntity
  8
1
  6
Continuous
 62
     3
100
AcDbCircle
 10
133.5
 20
140.0
 30
0.0
 40
18.4999999999997
100
AcDbArc
 50
315.2750868450677
 51
44.72491315493451
  0
ARC
  5
238
330
1F
100
AcDbEntity
  8
1
  6
Continuous
 62
     3
100
AcDbCircle
 10
25.0
 20
152.5
 30
0.0
 40
2.0
100
AcDbArc
 50
90.0
 51
180.0
  0
ARC
  5
239
330
1F
100
AcDbEntity
  8
1
  6
Continuous
 62
     3
100
AcDbCircle
 10
25.0
 20
127.5
 30
0.0
 40
2.0
100
AcDbArc
 50
180.0
 51
270.0
  0
ARC
  5
23A
102
{ACAD_REACTORS
330
315
102
}
330
1F
100
AcDbEntity
  8
1
  6
Continuous
 62
     3
100
AcDbCircle
 10
51.2916224280438
 20
140.0
 30
0.0
 40
14.5240046706953
100
AcDbArc
 50
0.0
 51
30.80958048222459
  0
ARC
  5
23B
102
{ACAD_REACTORS
330
315
102
}
330
1F
100
AcDbEntity
  8
1
  6
Continuous
 62
     3
100
AcDbCircle
 10
51.0180754795882
 20
140.0
 30
0.0
 40
14.5240046706951
100
AcDbArc
 50
0.0
 51
19.23065317145903
  0
ARC
  5
23C
102
{ACAD_REACTORS
330
315
102
}
330
1F
100
AcDbEntity
  8
1
  6
Continuous
 62
     3
100
AcDbCircle
 10
51.2916224280438
 20
140.0
 30
0.0
 40
14.52400467069537
100
AcDbArc
 50
329.1904195177752
 51
0.0
  0
ARC
  5
23D
102
{ACAD_REACTORS
330
315
102
}
330
1F
100
AcDbEntity
  8
1
  6
Continuous
 62
     3
100
AcDbCircle
 10
51.0180754795882
 20
140.0
 30
0.0
 40
14.52400467069508
100
AcDbArc
 50
340.7693468285412
 51
0.0
  0
ARC
  5
23E
330
1F
100
AcDbEntity
  8
1
  6
Continuous
 62
     3
100
AcDbCircle
 10
-17.4927724378755
 20
153.75
 30
0.0
 40
39.00722756212456
100
AcDbArc
 50
161.476983796895
 51
198.523016203105
  0
ARC
  5
23F
330
1F
100
AcDbEntity
  8
1
  6
Continuous
 62
     3
100
AcDbCircle
 10
-17.4927724378772
 20
126.25
 30
0.0
 40
39.00722756212294
100
AcDbArc
 50
161.4769837968942
 51
198.5230162031058
  0
ARC
  5
240
330
1F
100
AcDbEntity
  8
1
  6
Continuous
 62
     3
100
AcDbCircle
 10
-9.45965909090922
 20
126.25
 30
0.0
 40
25.72215909090911
100
AcDbArc
 50
151.1992651749466
 51
208.8007348250534
  0
ARC
  5
241
330
1F
100
AcDbEntity
  8
1
  6
Continuous
 62
     3
100
AcDbCircle
 10
-9.45965909090808
 20
153.75
 30
0.0
 40
25.72215909091011
100
AcDbArc
 50
151.1992651749478
 51
208.8007348250522
  0
ARC
  5
242
330
1F
100
AcDbEntity
  8
1
  6
Continuous
 62
     3
100
AcDbCircle
 10
-114.0
 20
80.3301270189234
 30
0.0
 40
17.33012701892332
100
AcDbArc
 50
249.743841999585
 51
290.256158000415
  0
ARC
  5
243
330
1F
100
AcDbEntity
  8
1
  6
Continuous
 62
     3
100
AcDbCircle
 10
-126.0
 20
80.3301270189234
 30
0.0
 40
17.33012701892332
100
AcDbArc
 50
249.743841999585
 51
290.256158000415
  0
ARC
  5
244
330
1F
100
AcDbEntity
  8
1
  6
Continuous
 62
     3
100
AcDbCircle
 10
-126.0
 20
55.6698729810783
 30
0.0
 40
17.33012701892172
100
AcDbArc
 50
69.74384199958307
 51
110.2561580004169
  0
ARC
  5
245
330
1F
100
AcDbEntity
  8
1
  6
Continuous
 62
     3
100
AcDbCircle
 10
-114.0
 20
55.6698729810783
 30
0.0
 40
17.33012701892172
100
AcDbArc
 50
69.74384199958307
 51
110.2561580004169
  0
ARC
  5
246
330
1F
100
AcDbEntity
  8
1
  6
Continuous
 62
     3
100
AcDbCircle
 10
-14.5
 20
59.5
 30
0.0
 40
0.5
100
AcDbArc
 50
90.0
 51
180.0
  0
ARC
  5
247
330
1F
100
AcDbEntity
  8
1
  6
Continuous
 62
     3
100
AcDbCircle
 10
-11.5
 20
59.5
 30
0.0
 40
0.5
100
AcDbArc
 50
90.0
 51
180.0
  0
ARC
  5
248
330
1F
100
AcDbEntity
  8
1
  6
Continuous
 62
     3
100
AcDbCircle
 10
-115.4
 20
26.9134728785611
 30
0.0
 40
19.586527121439
100
AcDbArc
 50
73.15722281472591
 51
88.5736285367143
  0
ARC
  5
249
330
1F
100
AcDbEntity
  8
1
  6
Continuous
 62
     3
100
AcDbCircle
 10
0.0
 20
-19.0602670940172
 30
0.0
 40
65.5602670940172
100
AcDbArc
 50
85.6592192997303
 51
94.3407807002697
  0
ARC
  5
24A
330
1F
100
AcDbEntity
  8
1
  6
Continuous
 62
     3
100
AcDbCircle
 10
-12.0
 20
75.5358983848623
 30
0.0
 40
12.53589838486231
100
AcDbArc
 50
270.0
 51
293.8649254160498
  0
ARC
  5
24B
330
1F
100
AcDbEntity
  8
1
  6
Continuous
 62
     3
100
AcDbCircle
 10
0.0
 20
85.9282032302756
 30
0.0
 40
22.92820323027559
100
AcDbArc
 50
252.4120462260063
 51
287.5879537739937
  0
ARC
  5
24C
330
1F
100
AcDbEntity
  8
1
  6
Continuous
 62
     3
100
AcDbCircle
 10
12.0
 20
75.5358983848623
 30
0.0
 40
12.53589838486229
100
AcDbArc
 50
246.1350745839501
 51
270.0
  0
ARC
  5
24D
330
1F
100
AcDbEntity
  8
1
  6
Continuous
 62
     3
100
AcDbCircle
 10
-12.0
 20
60.4641016151377
 30
0.0
 40
12.53589838486229
100
AcDbArc
 50
66.13507458395017
 51
90.0
  0
ARC
  5
24E
330
1F
100
AcDbEntity
  8
1
  6
Continuous
 62
     3
100
AcDbCircle
 10
0.0
 20
50.0717967697244
 30
0.0
 40
22.92820323027559
100
AcDbArc
 50
72.4120462260063
 51
107.5879537739937
  0
ARC
  5
24F
330
1F
100
AcDbEntity
  8
1
  6
Continuous
 62
     3
100
AcDbCircle
 10
12.0
 20
60.4641016151377
 30
0.0
 40
12.5358983848623
100
AcDbArc
 50
90.0
 51
113.8649254160498
  0
ARC
  5
250
330
1F
100
AcDbEntity
  8
1
  6
Continuous
 62
     3
100
AcDbCircle
 10
-15.5
 20
52.5
 30
0.0
 40
3.5
100
AcDbArc
 50
90.0
 51
180.0
  0
ARC
  5
251
330
1F
100
AcDbEntity
  8
1
  6
Continuous
 62
     3
100
AcDbCircle
 10
148.0
 20
87.0
 30
0.0
 40
4.0
100
AcDbArc
 50
270.0
 51
90.0
  0
ARC
  5
252
330
1F
100
AcDbEntity
  8
1
  6
Continuous
 62
     3
100
AcDbCircle
 10
6.80117833606255
 20
59.4634668140048
 30
0.0
 40
19.99999999999997
100
AcDbArc
 50
3.94983282748338
 51
20.97506647290497
  0
ARC
  5
253
330
1F
100
AcDbEntity
  8
1
  6
Continuous
 62
     3
100
AcDbCircle
 10
27.9394594598689
 20
60.9230017501422
 30
0.0
 40
1.188609465910561
100
AcDbArc
 50
183.9498328274856
 51
316.9999999999991
  0
ARC
  5
254
330
1F
100
AcDbEntity
  8
1
  6
Continuous
 62
     3
100
AcDbCircle
 10
51.8910612476015
 20
79.0
 30
0.0
 40
12.0
100
AcDbArc
 50
90.0
 51
136.9999999999998
  0
ARC
  5
255
330
1F
100
AcDbEntity
  8
1
  6
Continuous
 62
     3
100
AcDbCircle
 10
51.8910612476015
 20
79.0
 30
0.0
 40
4.0
100
AcDbArc
 50
90.0
 51
136.9999999999991
  0
ARC
  5
256
330
1F
100
AcDbEntity
  8
1
  6
Continuous
 62
     3
100
AcDbCircle
 10
-25.5471590909089
 20
-23.8156986040721
 30
0.0
 40
9.634659090909224
100
AcDbArc
 50
132.0479967113171
 51
227.9520032886825
  0
ARC
  5
257
330
1F
100
AcDbEntity
  8
1
  6
Continuous
 62
     3
100
AcDbCircle
 10
-42.8240154985707
 20
-23.8156986040721
 30
0.0
 40
13.67598450142929
100
AcDbArc
 50
148.4564469740358
 51
211.5435530259638
  0
ARC
  5
258
330
1F
100
AcDbEntity
  8
1
  6
Continuous
 62
     3
100
AcDbCircle
 10
-4.82715090752857
 20
0.0
 30
0.0
 40
51.67284909247143
100
AcDbArc
 50
163.9237152106863
 51
196.0762847893137
  0
ARC
  5
259
330
1F
100
AcDbEntity
  8
1
  6
Continuous
 62
     3
100
AcDbCircle
 10
-1.41590909090831
 20
0.0
 30
0.0
 40
33.7659090909098
100
AcDbArc
 50
154.9269630854286
 51
205.0730369145714
  0
ARC
  5
25A
330
1F
100
AcDbEntity
  8
1
  6
Continuous
 62
     3
100
AcDbCircle
 10
-42.8240154985707
 20
23.8156986040721
 30
0.0
 40
13.67598450142923
100
AcDbArc
 50
148.4564469740362
 51
211.5435530259641
  0
ARC
  5
25B
330
1F
100
AcDbEntity
  8
1
  6
Continuous
 62
     3
100
AcDbCircle
 10
-25.5471590909089
 20
23.8156986040721
 30
0.0
 40
9.63465909090915
100
AcDbArc
 50
132.0479967113175
 51
227.9520032886829
  0
ARC
  5
25C
330
1F
100
AcDbEntity
  8
1
  6
Continuous
 62
     3
100
AcDbCircle
 10
0.0
 20
69.7753662639497
 30
0.0
 40
36.50000000000003
100
AcDbArc
 50
245.7349140973167
 51
246.1561883558176
  0
ARC
  5
25D
330
1F
100
AcDbEntity
  8
1
  6
Continuous
 62
     3
100
AcDbCircle
 10
0.0
 20
66.6227766016838
 30
0.0
 40
35.00000000000001
100
AcDbArc
 50
248.6972945585166
 51
295.3769335251523
  0
ARC
  5
25E
330
1F
100
AcDbEntity
  8
1
  6
Continuous
 62
     3
100
AcDbCircle
 10
21.1741071428574
 20
-23.8156986040721
 30
0.0
 40
9.888392857142613
100
AcDbArc
 50
313.65334276279
 51
46.3466572372104
  0
ARC
  5
25F
330
1F
100
AcDbEntity
  8
1
  6
Continuous
 62
     3
100
AcDbCircle
 10
-3.89732142857042
 20
0.0
 30
0.0
 40
34.95982142857051
100
AcDbArc
 50
335.8390710454868
 51
24.16092895451319
  0
ARC
  5
260
330
1F
100
AcDbEntity
  8
1
  6
Continuous
 62
     3
100
AcDbCircle
 10
21.1741071428574
 20
23.8156986040721
 30
0.0
 40
9.888392857142684
100
AcDbArc
 50
313.6533427627896
 51
46.34665723721001
  0
ARC
  5
261
330
1F
100
AcDbEntity
  8
1
  6
Continuous
 62
     3
100
AcDbCircle
 10
41.8240154985707
 20
-23.8156986040721
 30
0.0
 40
13.67598450142923
100
AcDbArc
 50
328.4564469740362
 51
31.54355302596419
  0
ARC
  5
262
330
1F
100
AcDbEntity
  8
1
  6
Continuous
 62
     3
100
AcDbCircle
 10
41.8240154985707
 20
23.8156986040721
 30
0.0
 40
13.67598450142929
100
AcDbArc
 50
328.4564469740358
 51
31.54355302596383
  0
ARC
  5
263
330
1F
100
AcDbEntity
  8
1
  6
Continuous
 62
     3
100
AcDbCircle
 10
3.82715090752857
 20
0.0
 30
0.0
 40
51.67284909247143
100
AcDbArc
 50
343.9237152106862
 51
16.07628478931375
  0
ARC
  5
264
330
1F
100
AcDbEntity
  8
1
  6
Continuous
 62
     3
100
AcDbCircle
 10
-120.0
 20
0.0
 30
0.0
 40
30.99999999999993
100
AcDbArc
 50
267.4893341573143
 51
272.5106658426857
  0
ARC
  5
265
330
1F
100
AcDbEntity
  8
1
  6
Continuous
 62
     3
100
AcDbCircle
 10
-120.0
 20
0.0
 30
0.0
 40
31.00000000000001
100
AcDbArc
 50
207.4893341573139
 51
212.5106658426858
  0
ARC
  5
266
330
1F
100
AcDbEntity
  8
1
  6
Continuous
 62
     3
100
AcDbCircle
 10
-120.0
 20
0.0
 30
0.0
 40
31.00000000000025
100
AcDbArc
 50
147.4893341573141
 51
152.5106658426861
  0
ARC
  5
267
330
1F
100
AcDbEntity
  8
1
  6
Continuous
 62
     3
100
AcDbCircle
 10
-120.0
 20
0.0
 30
0.0
 40
30.99999999999993
100
AcDbArc
 50
87.48933415731433
 51
92.51066584268568
  0
ARC
  5
268
330
1F
100
AcDbEntity
  8
1
  6
Continuous
 62
     3
100
AcDbCircle
 10
-120.0
 20
0.0
 30
0.0
 40
31.00000000000001
100
AcDbArc
 50
27.48933415731386
 51
32.51066584268626
  0
ARC
  5
269
330
1F
100
AcDbEntity
  8
1
  6
Continuous
 62
     3
100
AcDbCircle
 10
-120.0
 20
0.0
 30
0.0
 40
30.99999999999999
100
AcDbArc
 50
327.4893341573137
 51
332.5106658426861
  0
ARC
  5
26A
330
1F
100
AcDbEntity
  8
1
  6
Continuous
 62
     3
100
AcDbCircle
 10
16.4927724378779
 20
153.75
 30
0.0
 40
39.00722756212219
100
AcDbArc
 50
1.10170564375387
 51
18.52301620310617
  0
ARC
  5
26B
330
1F
100
AcDbEntity
  8
1
  6
Continuous
 62
     3
100
AcDbCircle
 10
4.45982142857136
 20
153.75
 30
0.0
 40
26.60267857142859
100
AcDbArc
 50
1.61553390478201
 51
27.76324067222896
  0
ARC
  5
26C
330
1F
100
AcDbEntity
  8
1
  6
Continuous
 62
     3
100
AcDbCircle
 10
0.0
 20
140.0
 30
0.0
 40
15.00000000000001
100
AcDbArc
 50
236.4426902380792
 51
246.0305176822409
  0
ARC
  5
26D
330
1F
100
AcDbEntity
  8
1
  6
Continuous
 62
     3
100
AcDbCircle
 10
0.0
 20
140.0
 30
0.0
 40
15.00000000000036
100
AcDbArc
 50
246.0305176822409
 51
293.9694823177591
  0
ARC
  5
26E
330
1F
100
AcDbEntity
  8
1
  6
Continuous
 62
     3
100
AcDbCircle
 10
0.0
 20
140.0
 30
0.0
 40
15.0
100
AcDbArc
 50
56.44269023807928
 51
123.5573097619207
  0
ARC
  5
26F
330
1F
100
AcDbEntity
  8
1
  6
Continuous
 62
     3
100
AcDbCircle
 10
0.0
 20
140.0
 30
0.0
 40
15.00000000000036
100
AcDbArc
 50
293.9694823177591
 51
303.5573097619207
  0
ARC
  5
270
330
1F
100
AcDbEntity
  8
1
  6
Continuous
 62
     3
100
AcDbCircle
 10
4.45982142857255
 20
126.25
 30
0.0
 40
26.6026785714277
100
AcDbArc
 50
332.2367593277698
 51
358.3844660952179
  0
ARC
  5
271
330
1F
100
AcDbEntity
  8
1
  6
Continuous
 62
     3
100
AcDbCircle
 10
16.492772437876
 20
126.25
 30
0.0
 40
39.00722756212408
100
AcDbArc
 50
341.4769837968947
 51
358.8982943562462
  0
ARC
  5
272
330
1F
100
AcDbEntity
  8
1
  6
Continuous
 62
     3
100
AcDbCircle
 10
-11.3100704081862
 20
151.5
 30
0.0
 40
1.0
100
AcDbArc
 50
90.0
 51
159.2058850444744
  0
ARC
  5
273
330
1F
100
AcDbEntity
  8
1
  6
Continuous
 62
     3
100
AcDbCircle
 10
-11.3100704081862
 20
128.5
 30
0.0
 40
1.000000000000154
100
AcDbArc
 50
200.7941149555256
 51
270.0
  0
ARC
  5
274
330
1F
100
AcDbEntity
  8
1
  6
Continuous
 62
     3
100
AcDbCircle
 10
-15.6899295918138
 20
134.4
 30
0.0
 40
1.000000000000154
100
AcDbArc
 50
20.79411495552563
 51
90.0
  0
ARC
  5
275
330
1F
100
AcDbEntity
  8
1
  6
Continuous
 62
     3
100
AcDbCircle
 10
-15.6899295918138
 20
145.6
 30
0.0
 40
1.0
100
AcDbArc
 50
270.0
 51
339.2058850444743
  0
ARC
  5
276
330
1F
100
AcDbEntity
  8
1
  6
Continuous
 62
     3
100
AcDbCircle
 10
143.091663046626
 20
149.5
 30
0.0
 40
5.000000000000004
100
AcDbArc
 50
44.72491315494121
 51
90.0
  0
ARC
  5
277
330
1F
100
AcDbEntity
  8
1
  6
Continuous
 62
     3
100
AcDbCircle
 10
143.091663046626
 20
130.5
 30
0.0
 40
5.0
100
AcDbArc
 50
270.0
 51
315.2750868450669
  0
ARC
  5
278
330
1F
100
AcDbEntity
  8
1
  6
Continuous
 62
     3
100
AcDbCircle
 10
48.6733127480703
 20
150.5
 30
0.0
 40
2.0
100
AcDbArc
 50
90.0
 51
180.0
  0
ARC
  5
279
330
1F
100
AcDbEntity
  8
1
  6
Continuous
 62
     3
100
AcDbCircle
 10
48.6733127480703
 20
129.5
 30
0.0
 40
2.0
100
AcDbArc
 50
180.0
 51
270.0
  0
ARC
  5
27A
102
{ACAD_REACTORS
330
314
102
}
330
1F
100
AcDbEntity
  8
1
  6
Continuous
 62
     3
100
AcDbCircle
 10
58.5002001343192
 20
146.440076729361
 30
0.0
 40
0.5002001343199822
100
AcDbArc
 50
90.0
 51
180.0
  0
ARC
  5
27B
102
{ACAD_REACTORS
330
314
102
}
330
1F
100
AcDbEntity
  8
1
  6
Continuous
 62
     3
100
AcDbCircle
 10
58.5002001343192
 20
145.564726494302
 30
0.0
 40
0.5002001343192006
100
AcDbArc
 50
180.0
 51
270.0
  0
ARC
  5
27C
102
{ACAD_REACTORS
330
314
102
}
330
1F
100
AcDbEntity
  8
1
  6
Continuous
 62
     3
100
AcDbCircle
 10
62.376751175294
 20
145.564726494302
 30
0.0
 40
0.5002001343189875
100
AcDbArc
 50
270.0
 51
0.0
  0
ARC
  5
27D
102
{ACAD_REACTORS
330
314
102
}
330
1F
100
AcDbEntity
  8
1
  6
Continuous
 62
     3
100
AcDbCircle
 10
62.376751175294
 20
146.440076729361
 30
0.0
 40
0.5002001343194067
100
AcDbArc
 50
0.0
 51
90.0
  0
ARC
  5
27E
102
{ACAD_REACTORS
330
316
102
}
330
1F
100
AcDbEntity
  8
1
  6
Continuous
 62
     3
100
AcDbCircle
 10
62.376751175294
 20
134.435273505698
 30
0.0
 40
0.5002001343194067
100
AcDbArc
 50
0.0
 51
90.0
  0
ARC
  5
27F
102
{ACAD_REACTORS
330
316
102
}
330
1F
100
AcDbEntity
  8
1
  6
Continuous
 62
     3
100
AcDbCircle
 10
62.376751175294
 20
133.559923270639
 30
0.0
 40
0.5002001343189875
100
AcDbArc
 50
270.0
 51
0.0
  0
ARC
  5
280
102
{ACAD_REACTORS
330
316
102
}
330
1F
100
AcDbEntity
  8
1
  6
Continuous
 62
     3
100
AcDbCircle
 10
58.5002001343192
 20
133.559923270639
 30
0.0
 40
0.5002001343192006
100
AcDbArc
 50
180.0
 51
270.0
  0
ARC
  5
281
102
{ACAD_REACTORS
330
316
102
}
330
1F
100
AcDbEntity
  8
1
  6
Continuous
 62
     3
100
AcDbCircle
 10
58.5002001343192
 20
134.435273505698
 30
0.0
 40
0.5002001343189875
100
AcDbArc
 50
90.0
 51
180.0
  0
ARC
  5
282
102
{ACAD_REACTORS
330
315
102
}
330
1F
100
AcDbEntity
  8
1
  6
Continuous
 62
     3
100
AcDbCircle
 10
63.658514019487
 20
147.37494996642
 30
0.0
 40
0.1250500335800694
100
AcDbArc
 50
30.80958048224978
 51
180.0
  0
ARC
  5
283
102
{ACAD_REACTORS
330
315
102
}
330
1F
100
AcDbEntity
  8
1
  6
Continuous
 62
     3
100
AcDbCircle
 10
64.5840545806441
 20
144.732313190756
 30
0.0
 40
0.1563125419746772
100
AcDbArc
 50
19.23065317146708
 51
103.3924977536826
  0
ARC
  5
284
102
{ACAD_REACTORS
330
315
102
}
330
1F
100
AcDbEntity
  8
1
  6
Continuous
 62
     3
100
AcDbCircle
 10
63.658514019487
 20
132.62505003358
 30
0.0
 40
0.1250500335798037
100
AcDbArc
 50
180.0
 51
329.1904195177269
  0
ARC
  5
285
102
{ACAD_REACTORS
330
315
102
}
330
1F
100
AcDbEntity
  8
1
  6
Continuous
 62
     3
100
AcDbCircle
 10
64.5840545806441
 20
135.267686809244
 30
0.0
 40
0.1563125419754137
100
AcDbArc
 50
256.6075022463174
 51
340.7693468285569
  0
ARC
  5
286
102
{ACAD_REACTORS
330
314
102
}
330
1F
100
AcDbEntity
  8
1
  6
Continuous
 62
     3
100
AcDbCircle
 10
62.0406792100481
 20
146.104004764115
 30
0.0
 40
0.4689376259244042
100
AcDbArc
 50
0.0
 51
90.0
  0
ARC
  5
287
102
{ACAD_REACTORS
330
314
102
}
330
1F
100
AcDbEntity
  8
1
  6
Continuous
 62
     3
100
AcDbCircle
 10
62.0406792100481
 20
145.900798459548
 30
0.0
 40
0.4689376259240134
100
AcDbArc
 50
270.0
 51
0.0
  0
ARC
  5
288
102
{ACAD_REACTORS
330
314
102
}
330
1F
100
AcDbEntity
  8
1
  6
Continuous
 62
     3
100
AcDbCircle
 10
58.8362720995652
 20
146.104004764115
 30
0.0
 40
0.4689376259250082
100
AcDbArc
 50
90.0
 51
180.0
  0
ARC
  5
289
102
{ACAD_REACTORS
330
314
102
}
330
1F
100
AcDbEntity
  8
1
  6
Continuous
 62
     3
100
AcDbCircle
 10
58.8362720995652
 20
145.900798459548
 30
0.0
 40
0.4689376259242977
100
AcDbArc
 50
180.0
 51
270.0
  0
ARC
  5
28A
102
{ACAD_REACTORS
330
316
102
}
330
1F
100
AcDbEntity
  8
1
  6
Continuous
 62
     3
100
AcDbCircle
 10
62.0406792100481
 20
134.099201540452
 30
0.0
 40
0.4689376259244042
100
AcDbArc
 50
0.0
 51
90.0
  0
ARC
  5
28B
102
{ACAD_REACTORS
330
316
102
}
330
1F
100
AcDbEntity
  8
1
  6
Continuous
 62
     3
100
AcDbCircle
 10
62.0406792100481
 20
133.895995235885
 30
0.0
 40
0.4689376259240134
100
AcDbArc
 50
270.0
 51
0.0
  0
ARC
  5
28C
102
{ACAD_REACTORS
330
316
102
}
330
1F
100
AcDbEntity
  8
1
  6
Continuous
 62
     3
100
AcDbCircle
 10
58.8362720995652
 20
134.099201540452
 30
0.0
 40
0.4689376259240134
100
AcDbArc
 50
90.0
 51
180.0
  0
ARC
  5
28D
102
{ACAD_REACTORS
330
316
102
}
330
1F
100
AcDbEntity
  8
1
  6
Continuous
 62
     3
100
AcDbCircle
 10
58.8362720995652
 20
133.895995235885
 30
0.0
 40
0.4689376259242977
100
AcDbArc
 50
180.0
 51
270.0
  0
ARC
  5
28E
102
{ACAD_REACTORS
330
316
102
}
330
1F
100
AcDbEntity
  8
1
  6
Continuous
 62
     3
100
AcDbCircle
 10
60.9769594490706
 20
134.333670353414
 30
0.0
 40
0.2344688129630015
100
AcDbArc
 50
90.0
 51
147.2647737278576
  0
ARC
  5
28F
102
{ACAD_REACTORS
330
316
102
}
330
1F
100
AcDbEntity
  8
1
  6
Continuous
 62
     3
100
AcDbCircle
 10
59.5508193675667
 20
133.661526422923
 30
0.0
 40
0.2344688129620067
100
AcDbArc
 50
270.0
 51
327.2196945237365
  0
ARC
  5
290
102
{ACAD_REACTORS
330
316
102
}
330
1F
100
AcDbEntity
  8
1
  6
Continuous
 62
     3
100
AcDbCircle
 10
60.8035489102706
 20
134.654111064463
 30
0.0
 40
0.2813625755539988
100
AcDbArc
 50
90.0
 51
147.2196945238853
  0
ARC
  5
291
102
{ACAD_REACTORS
330
316
102
}
330
1F
100
AcDbEntity
  8
1
  6
Continuous
 62
     3
100
AcDbCircle
 10
59.7256446576645
 20
133.341085711874
 30
0.0
 40
0.2813625755539988
100
AcDbArc
 50
270.0
 51
327.2647737279898
  0
ARC
  5
292
330
1F
100
AcDbEntity
  8
1
  6
Continuous
 62
     3
100
AcDbCircle
 10
-26.7788150569401
 20
176.0
 30
0.0
 40
0.5
100
AcDbArc
 50
90.0
 51
137.7263109939211
  0
ARC
  5
293
330
1F
100
AcDbEntity
  8
1
  6
Continuous
 62
     3
100
AcDbCircle
 10
-26.7788150569401
 20
104.0
 30
0.0
 40
0.4999999999999202
100
AcDbArc
 50
222.2736890060789
 51
270.0
  0
ARC
  5
294
330
1F
100
AcDbEntity
  8
1
  6
Continuous
 62
     3
100
AcDbCircle
 10
-35.4030031248781
 20
112.0
 30
0.0
 40
0.4999999999999202
100
AcDbArc
 50
42.27368900607895
 51
90.0
  0
ARC
  5
295
330
1F
100
AcDbEntity
  8
1
  6
Continuous
 62
     3
100
AcDbCircle
 10
-35.4030031248781
 20
168.0
 30
0.0
 40
0.5
100
AcDbArc
 50
270.0
 51
317.7263109939211
  0
ARC
  5
296
330
1F
100
AcDbEntity
  8
1
  6
Continuous
 62
     3
100
AcDbCircle
 10
-130.5
 20
87.0
 30
0.0
 40
4.0
100
AcDbArc
 50
90.0
 51
180.0
  0
ARC
  5
297
330
1F
100
AcDbEntity
  8
1
  6
Continuous
 62
     3
100
AcDbCircle
 10
-109.5
 20
87.0
 30
0.0
 40
4.0
100
AcDbArc
 50
0.0
 51
90.0
  0
ARC
  5
298
330
1F
100
AcDbEntity
  8
1
  6
Continuous
 62
     3
100
AcDbCircle
 10
-109.5
 20
63.6909734131519
 30
0.0
 40
2.0
100
AcDbArc
 50
0.0
 51
41.40962210927081
  0
ARC
  5
299
330
1F
100
AcDbEntity
  8
1
  6
Continuous
 62
     3
100
AcDbCircle
 10
-130.5
 20
63.6909734131519
 30
0.0
 40
1.999999999999998
100
AcDbArc
 50
138.5903778907292
 51
180.0
  0
ARC
  5
29A
330
1F
100
AcDbEntity
  8
1
  6
Continuous
 62
     3
100
AcDbCircle
 10
-108.0
 20
59.5
 30
0.0
 40
0.5
100
AcDbArc
 50
0.0
 51
27.95542913214724
  0
ARC
  5
29B
330
1F
100
AcDbEntity
  8
1
  6
Continuous
 62
     3
100
AcDbCircle
 10
-107.5
 20
61.7343922842313
 30
0.0
 40
2.0
100
AcDbArc
 50
270.0
 51
0.0
  0
ARC
  5
29C
330
1F
100
AcDbEntity
  8
1
  6
Continuous
 62
     3
100
AcDbCircle
 10
-132.0
 20
59.5
 30
0.0
 40
0.5
100
AcDbArc
 50
90.0
 51
152.0445708678535
  0
ARC
  5
29D
330
1F
100
AcDbEntity
  8
1
  6
Continuous
 62
     3
100
AcDbCircle
 10
-132.5
 20
61.7343922842313
 30
0.0
 40
2.0
100
AcDbArc
 50
180.0
 51
270.0
  0
ARC
  5
29E
330
1F
100
AcDbEntity
  8
1
  6
Continuous
 62
     3
100
AcDbCircle
 10
-132.5
 20
60.25
 30
0.0
 40
0.25
100
AcDbArc
 50
180.0
 51
270.0
  0
ARC
  5
29F
330
1F
100
AcDbEntity
  8
1
  6
Continuous
 62
     3
100
AcDbCircle
 10
-132.5
 20
62.75
 30
0.0
 40
0.25
100
AcDbArc
 50
90.0
 51
180.0
  0
ARC
  5
2A0
330
1F
100
AcDbEntity
  8
1
  6
Continuous
 62
     3
100
AcDbCircle
 10
-107.5
 20
62.75
 30
0.0
 40
0.25
100
AcDbArc
 50
0.0
 51
90.0
  0
ARC
  5
2A1
330
1F
100
AcDbEntity
  8
1
  6
Continuous
 62
     3
100
AcDbCircle
 10
-107.5
 20
60.25
 30
0.0
 40
0.25
100
AcDbArc
 50
270.0
 51
0.0
  0
ARC
  5
2A2
330
1F
100
AcDbEntity
  8
1
  6
Continuous
 62
     3
100
AcDbCircle
 10
-132.0
 20
59.5
 30
0.0
 40
0.5000000000001937
100
AcDbArc
 50
152.0445708678535
 51
180.0
  0
ARC
  5
2A3
330
1F
100
AcDbEntity
  8
1
  6
Continuous
 62
     3
100
AcDbCircle
 10
-108.0
 20
59.5
 30
0.0
 40
0.5000000000001812
100
AcDbArc
 50
27.95542913214724
 51
90.0
  0
ARC
  5
2A4
330
1F
100
AcDbEntity
  8
1
  6
Continuous
 62
     3
100
AcDbCircle
 10
-114.4
 20
55.0
 30
0.0
 40
1.0
100
AcDbArc
 50
90.0
 51
180.0
  0
ARC
  5
2A5
330
1F
100
AcDbEntity
  8
1
  6
Continuous
 62
     3
100
AcDbCircle
 10
-114.4
 20
59.0
 30
0.0
 40
1.0
100
AcDbArc
 50
90.0
 51
180.0
  0
ARC
  5
2A6
330
1F
100
AcDbEntity
  8
1
  6
Continuous
 62
     3
100
AcDbCircle
 10
-125.6
 20
59.0
 30
0.0
 40
1.0
100
AcDbArc
 50
0.0
 51
90.0
  0
ARC
  5
2A7
330
1F
100
AcDbEntity
  8
1
  6
Continuous
 62
     3
100
AcDbCircle
 10
-125.6
 20
55.0
 30
0.0
 40
1.0
100
AcDbArc
 50
0.0
 51
90.0
  0
ARC
  5
2A8
330
1F
100
AcDbEntity
  8
1
  6
Continuous
 62
     3
100
AcDbCircle
 10
-116.4
 20
42.0
 30
0.0
 40
1.0
100
AcDbArc
 50
270.0
 51
0.0
  0
ARC
  5
2A9
330
1F
100
AcDbEntity
  8
1
  6
Continuous
 62
     3
100
AcDbCircle
 10
-123.6
 20
42.0
 30
0.0
 40
1.0
100
AcDbArc
 50
180.0
 51
270.0
  0
ARC
  5
2AA
330
1F
100
AcDbEntity
  8
1
  6
Continuous
 62
     3
100
AcDbCircle
 10
-109.58
 20
46.1383570602747
 30
0.0
 40
0.4999999999999291
100
AcDbArc
 50
253.1572228147744
 51
0.0
  0
ARC
  5
2AB
330
1F
100
AcDbEntity
  8
1
  6
Continuous
 62
     3
100
AcDbCircle
 10
-114.9
 20
46.9937759589506
 30
0.0
 40
0.5
100
AcDbArc
 50
180.0
 51
268.5736285367381
  0
ARC
  5
2AC
330
1F
100
AcDbEntity
  8
1
  6
Continuous
 62
     3
100
AcDbCircle
 10
-109.58
 20
52.0
 30
0.0
 40
0.5
100
AcDbArc
 50
0.0
 51
90.0
  0
ARC
  5
2AD
330
1F
100
AcDbEntity
  8
1
  6
Continuous
 62
     3
100
AcDbCircle
 10
-112.0
 20
52.0
 30
0.0
 40
0.5
100
AcDbArc
 50
0.0
 51
90.0
  0
ARC
  5
2AE
330
1F
100
AcDbEntity
  8
1
  6
Continuous
 62
     3
100
AcDbCircle
 10
-112.0
 20
49.0
 30
0.0
 40
0.5
100
AcDbArc
 50
270.0
 51
0.0
  0
ARC
  5
2AF
330
1F
100
AcDbEntity
  8
1
  6
Continuous
 62
     3
100
AcDbCircle
 10
-114.9
 20
49.0
 30
0.0
 40
0.5
100
AcDbArc
 50
180.0
 51
270.0
  0
ARC
  5
2B0
330
1F
100
AcDbEntity
  8
1
  6
Continuous
 62
     3
100
AcDbCircle
 10
-114.9
 20
52.0
 30
0.0
 40
0.5
100
AcDbArc
 50
90.0
 51
180.0
  0
ARC
  5
2B1
330
1F
100
AcDbEntity
  8
1
  6
Continuous
 62
     3
100
AcDbCircle
 10
-135.5
 20
53.0
 30
0.0
 40
0.5
100
AcDbArc
 50
270.0
 51
0.0
  0
ARC
  5
2B2
330
1F
100
AcDbEntity
  8
1
  6
Continuous
 62
     3
100
AcDbCircle
 10
-143.5
 20
52.0
 30
0.0
 40
0.5
100
AcDbArc
 50
90.0
 51
180.0
  0
ARC
  5
2B3
330
1F
100
AcDbEntity
  8
1
  6
Continuous
 62
     3
100
AcDbCircle
 10
-143.5
 20
48.9010858031829
 30
0.0
 40
0.5
100
AcDbArc
 50
180.0
 51
257.471192290882
  0
ARC
  5
2B4
330
1F
100
AcDbEntity
  8
1
  6
Continuous
 62
     3
100
AcDbCircle
 10
-135.5
 20
46.0989141968171
 30
0.0
 40
0.5
100
AcDbArc
 50
0.0
 51
77.47119229088206
  0
ARC
  5
2B5
330
1F
100
AcDbEntity
  8
1
  6
Continuous
 62
     3
100
AcDbCircle
 10
-104.5
 20
46.0989141968171
 30
0.0
 40
0.4999999999998557
100
AcDbArc
 50
102.5288077091164
 51
180.0
  0
ARC
  5
2B6
330
1F
100
AcDbEntity
  8
1
  6
Continuous
 62
     3
100
AcDbCircle
 10
-96.5
 20
48.9010858031829
 30
0.0
 40
0.4999999999999204
100
AcDbArc
 50
282.5288077091498
 51
0.0
  0
ARC
  5
2B7
330
1F
100
AcDbEntity
  8
1
  6
Continuous
 62
     3
100
AcDbCircle
 10
-96.5
 20
52.0
 30
0.0
 40
0.5
100
AcDbArc
 50
0.0
 51
90.0
  0
ARC
  5
2B8
330
1F
100
AcDbEntity
  8
1
  6
Continuous
 62
     3
100
AcDbCircle
 10
-104.5
 20
53.0
 30
0.0
 40
0.5
100
AcDbArc
 50
180.0
 51
270.0
  0
ARC
  5
2B9
330
1F
100
AcDbEntity
  8
1
  6
Continuous
 62
     3
100
AcDbCircle
 10
-105.54
 20
52.0
 30
0.0
 40
0.5
100
AcDbArc
 50
90.0
 51
180.0
  0
ARC
  5
2BA
330
1F
100
AcDbEntity
  8
1
  6
Continuous
 62
     3
100
AcDbCircle
 10
-105.54
 20
46.892196914294
 30
0.0
 40
0.5
100
AcDbArc
 50
180.0
 51
282.5288077091182
  0
ARC
  5
2BB
330
1F
100
AcDbEntity
  8
1
  6
Continuous
 62
     3
100
AcDbCircle
 10
-10.7855361329586
 20
46.0756493882849
 30
0.0
 40
0.5000000000000402
100
AcDbArc
 50
257.471192290841
 51
0.0
  0
ARC
  5
2BC
330
1F
100
AcDbEntity
  8
1
  6
Continuous
 62
     3
100
AcDbCircle
 10
-10.7855361329586
 20
52.0
 30
0.0
 40
0.5
100
AcDbArc
 50
0.0
 51
90.0
  0
ARC
  5
2BD
330
1F
100
AcDbEntity
  8
1
  6
Continuous
 62
     3
100
AcDbCircle
 10
-5.0
 20
46.8105070667052
 30
0.0
 40
0.5
100
AcDbArc
 50
180.0
 51
274.3407807002723
  0
ARC
  5
2BE
330
1F
100
AcDbEntity
  8
1
  6
Continuous
 62
     3
100
AcDbCircle
 10
5.0
 20
46.8105070667052
 30
0.0
 40
0.5000000000000013
100
AcDbArc
 50
265.659219299731
 51
0.0
  0
ARC
  5
2BF
330
1F
100
AcDbEntity
  8
1
  6
Continuous
 62
     3
100
AcDbCircle
 10
-5.0
 20
49.0
 30
0.0
 40
0.5
100
AcDbArc
 50
180.0
 51
270.0
  0
ARC
  5
2C0
330
1F
100
AcDbEntity
  8
1
  6
Continuous
 62
     3
100
AcDbCircle
 10
-5.0
 20
52.0
 30
0.0
 40
0.5
100
AcDbArc
 50
90.0
 51
180.0
  0
ARC
  5
2C1
330
1F
100
AcDbEntity
  8
1
  6
Continuous
 62
     3
100
AcDbCircle
 10
5.0
 20
52.0
 30
0.0
 40
0.5
100
AcDbArc
 50
0.0
 51
90.0
  0
ARC
  5
2C2
330
1F
100
AcDbEntity
  8
1
  6
Continuous
 62
     3
100
AcDbCircle
 10
5.0
 20
49.0
 30
0.0
 40
0.5
100
AcDbArc
 50
270.0
 51
0.0
  0
ARC
  5
2C3
330
1F
100
AcDbEntity
  8
1
  6
Continuous
 62
     3
100
AcDbCircle
 10
14.46
 20
46.892196914294
 30
0.0
 40
0.5
100
AcDbArc
 50
180.0
 51
282.5288077091503
  0
ARC
  5
2C4
330
1F
100
AcDbEntity
  8
1
  6
Continuous
 62
     3
100
AcDbCircle
 10
14.46
 20
52.0
 30
0.0
 40
0.5
100
AcDbArc
 50
90.0
 51
180.0
  0
ARC
  5
2C5
330
1F
100
AcDbEntity
  8
1
  6
Continuous
 62
     3
100
AcDbCircle
 10
-12.5
 20
62.75
 30
0.0
 40
0.25
100
AcDbArc
 50
90.0
 51
180.0
  0
ARC
  5
2C6
330
1F
100
AcDbEntity
  8
1
  6
Continuous
 62
     3
100
AcDbCircle
 10
-12.5
 20
60.25
 30
0.0
 40
0.25
100
AcDbArc
 50
180.0
 51
270.0
  0
ARC
  5
2C7
330
1F
100
AcDbEntity
  8
1
  6
Continuous
 62
     3
100
AcDbCircle
 10
12.5
 20
60.25
 30
0.0
 40
0.25
100
AcDbArc
 50
270.0
 51
0.0
  0
ARC
  5
2C8
330
1F
100
AcDbEntity
  8
1
  6
Continuous
 62
     3
100
AcDbCircle
 10
12.5
 20
62.75
 30
0.0
 40
0.25
100
AcDbArc
 50
0.0
 51
90.0
  0
ARC
  5
2C9
330
1F
100
AcDbEntity
  8
1
  6
Continuous
 62
     3
100
AcDbCircle
 10
-15.5
 20
52.5
 30
0.0
 40
7.5
100
AcDbArc
 50
90.0
 51
180.0
  0
ARC
  5
2CA
330
1F
100
AcDbEntity
  8
1
  6
Continuous
 62
     3
100
AcDbCircle
 10
17.8911257502344
 20
66.0
 30
0.0
 40
10.0
100
AcDbArc
 50
270.0
 51
316.9999999999999
  0
ARC
  5
2CB
330
1F
100
AcDbEntity
  8
1
  6
Continuous
 62
     3
100
AcDbCircle
 10
17.8911257502344
 20
66.0
 30
0.0
 40
6.0
100
AcDbArc
 50
270.0
 51
316.9999999999998
  0
ARC
  5
2CC
330
1F
100
AcDbEntity
  8
1
  6
Continuous
 62
     3
100
AcDbCircle
 10
-22.0
 20
42.0
 30
0.0
 40
1.0
100
AcDbArc
 50
180.0
 51
270.0
  0
ARC
  5
2CD
330
1F
100
AcDbEntity
  8
1
  6
Continuous
 62
     3
100
AcDbCircle
 10
27.3433767125907
 20
67.3386230574938
 30
0.0
 40
2.000000000000047
100
AcDbArc
 50
137.0000000000011
 51
200.9750664729038
  0
ARC
  5
2CE
330
1F
100
AcDbEntity
  8
1
  6
Continuous
 62
     3
100
AcDbCircle
 10
-26.7788150569401
 20
-36.0
 30
0.0
 40
0.4999999999999757
100
AcDbArc
 50
222.2736890061028
 51
270.0
  0
ARC
  5
2CF
330
1F
100
AcDbEntity
  8
1
  6
Continuous
 62
     3
100
AcDbCircle
 10
-32.2211849430599
 20
-31.5
 30
0.0
 40
0.4999999999999783
100
AcDbArc
 50
42.27368900610261
 51
90.0
  0
ARC
  5
2D0
330
1F
100
AcDbEntity
  8
1
  6
Continuous
 62
     3
100
AcDbCircle
 10
-32.2211849430599
 20
31.5
 30
0.0
 40
0.5
100
AcDbArc
 50
270.0
 51
317.7263109938974
  0
ARC
  5
2D1
330
1F
100
AcDbEntity
  8
1
  6
Continuous
 62
     3
100
AcDbCircle
 10
-26.7788150569401
 20
36.0
 30
0.0
 40
0.5
100
AcDbArc
 50
90.0
 51
137.7263109938971
  0
ARC
  5
2D2
330
1F
100
AcDbEntity
  8
1
  6
Continuous
 62
     3
100
AcDbCircle
 10
-15.1591803384907
 20
35.4759602710594
 30
0.0
 40
1.00000000000004
100
AcDbArc
 50
34.8715706879664
 51
66.15618835581922
  0
ARC
  5
2D3
330
1F
100
AcDbEntity
  8
1
  6
Continuous
 62
     3
100
AcDbCircle
 10
-12.3520375978827
 20
34.945858077615
 30
0.0
 40
1.000000000000036
100
AcDbArc
 50
214.8715706879661
 51
248.6972945585131
  0
ARC
  5
2D4
330
1F
100
AcDbEntity
  8
1
  6
Continuous
 62
     3
100
AcDbCircle
 10
-17.0
 20
38.5
 30
0.0
 40
2.0
100
AcDbArc
 50
270.0
 51
0.0
  0
ARC
  5
2D5
330
1F
100
AcDbEntity
  8
1
  6
Continuous
 62
     3
100
AcDbCircle
 10
17.0
 20
37.0
 30
0.0
 40
2.0
100
AcDbArc
 50
180.0
 51
270.0
  0
ARC
  5
2D6
330
1F
100
AcDbEntity
  8
1
  6
Continuous
 62
     3
100
AcDbCircle
 10
24.2731158867041
 20
34.5
 30
0.0
 40
0.4999999999999942
100
AcDbArc
 50
41.18592516571596
 51
90.0
  0
ARC
  5
2D7
330
1F
100
AcDbEntity
  8
1
  6
Continuous
 62
     3
100
AcDbCircle
 10
28.2268841132959
 20
31.5
 30
0.0
 40
0.4999999999999965
100
AcDbArc
 50
221.1859251657163
 51
270.0
  0
ARC
  5
2D8
330
1F
100
AcDbEntity
  8
1
  6
Continuous
 62
     3
100
AcDbCircle
 10
-14.7071067811866
 20
-36.0
 30
0.0
 40
0.5
100
AcDbArc
 50
270.0
 51
315.0000000000002
  0
ARC
  5
2D9
330
1F
100
AcDbEntity
  8
1
  6
Continuous
 62
     3
100
AcDbCircle
 10
-12.7928932188135
 20
-35.5
 30
0.0
 40
0.5
100
AcDbArc
 50
90.0
 51
134.9999999999921
  0
ARC
  5
2DA
330
1F
100
AcDbEntity
  8
1
  6
Continuous
 62
     3
100
AcDbCircle
 10
24.2731158867041
 20
-34.5
 30
0.0
 40
0.5
100
AcDbArc
 50
270.0
 51
318.814074834284
  0
ARC
  5
2DB
330
1F
100
AcDbEntity
  8
1
  6
Continuous
 62
     3
100
AcDbCircle
 10
28.2268841132959
 20
-31.5
 30
0.0
 40
0.5
100
AcDbArc
 50
90.0
 51
138.8140748342837
  0
ARC
  5
2DC
330
1F
100
AcDbEntity
  8
1
  6
Continuous
 62
     3
100
AcDbCircle
 10
-14.7071067811866
 20
104.0
 30
0.0
 40
0.5
100
AcDbArc
 50
270.0
 51
315.0000000000238
  0
ARC
  5
2DD
330
1F
100
AcDbEntity
  8
1
  6
Continuous
 62
     3
100
AcDbCircle
 10
-12.7928932188135
 20
104.5
 30
0.0
 40
0.5
100
AcDbArc
 50
90.0
 51
135.0000000000157
  0
ARC
  5
2DE
330
1F
100
AcDbEntity
  8
1
  6
Continuous
 62
     3
100
AcDbCircle
 10
24.2731158867041
 20
105.5
 30
0.0
 40
0.5
100
AcDbArc
 50
270.0
 51
318.8140748343097
  0
ARC
  5
2DF
330
1F
100
AcDbEntity
  8
1
  6
Continuous
 62
     3
100
AcDbCircle
 10
31.2893841132959
 20
112.0
 30
0.0
 40
0.5
100
AcDbArc
 50
90.0
 51
138.8140748343098
  0
ARC
  5
2E0
330
1F
100
AcDbEntity
  8
1
  6
Continuous
 62
     3
100
AcDbCircle
 10
-14.7071067811866
 20
176.0
 30
0.0
 40
0.4999999999998194
100
AcDbArc
 50
44.9999999999751
 51
90.0
  0
ARC
  5
2E1
330
1F
100
AcDbEntity
  8
1
  6
Continuous
 62
     3
100
AcDbCircle
 10
-12.7928932188135
 20
175.5
 30
0.0
 40
0.499999999999749
100
AcDbArc
 50
224.9999999999832
 51
270.0
  0
ARC
  5
2E2
330
1F
100
AcDbEntity
  8
1
  6
Continuous
 62
     3
100
AcDbCircle
 10
24.2731158867041
 20
174.5
 30
0.0
 40
0.4999999999997977
100
AcDbArc
 50
41.18592516569023
 51
90.0
  0
ARC
  5
2E3
330
1F
100
AcDbEntity
  8
1
  6
Continuous
 62
     3
100
AcDbCircle
 10
31.2893841132959
 20
168.0
 30
0.0
 40
0.4999999999997977
100
AcDbArc
 50
221.1859251656902
 51
270.0
  0
ARC
  5
2E4
330
1F
100
AcDbEntity
  8
1
  6
Continuous
 62
     3
100
AcDbCircle
 10
7.66090036882272
 20
163.0
 30
0.0
 40
1.000000000000013
100
AcDbArc
 50
10.00000000000337
 51
90.0
  0
ARC
  5
2E5
330
1F
100
AcDbEntity
  8
1
  6
Continuous
 62
     3
100
AcDbCircle
 10
-23.0
 20
132.339099631177
 30
0.0
 40
1.0
100
AcDbArc
 50
180.0
 51
259.9999999999996
  0
ARC
  5
2E6
330
1F
100
AcDbEntity
  8
1
  6
Continuous
 62
     3
100
AcDbCircle
 10
-4.5
 20
117.0
 30
0.0
 40
1.0
100
AcDbArc
 50
180.0
 51
270.0
  0
ARC
  5
2E7
330
1F
100
AcDbEntity
  8
1
  6
Continuous
 62
     3
100
AcDbCircle
 10
4.5
 20
117.0
 30
0.0
 40
1.0
100
AcDbArc
 50
270.0
 51
0.0
  0
ARC
  5
2E8
330
1F
100
AcDbEntity
  8
1
  6
Continuous
 62
     3
100
AcDbCircle
 10
6.5
 20
125.379808482787
 30
0.0
 40
0.9999999999992313
100
AcDbArc
 50
113.9694823177786
 51
180.0
  0
ARC
  5
2E9
330
1F
100
AcDbEntity
  8
1
  6
Continuous
 62
     3
100
AcDbCircle
 10
-6.5
 20
125.379808482787
 30
0.0
 40
1.0
100
AcDbArc
 50
0.0
 51
66.03051768222136
  0
ARC
  5
2EA
330
1F
100
AcDbEntity
  8
1
  6
Continuous
 62
     3
100
AcDbCircle
 10
5.5
 20
163.5
 30
0.0
 40
0.5
100
AcDbArc
 50
90.0
 51
180.0
  0
ARC
  5
2EB
330
1F
100
AcDbEntity
  8
1
  6
Continuous
 62
     3
100
AcDbCircle
 10
4.5
 20
155.5
 30
0.0
 40
0.5
100
AcDbArc
 50
270.0
 51
0.0
  0
ARC
  5
2EC
330
1F
100
AcDbEntity
  8
1
  6
Continuous
 62
     3
100
AcDbCircle
 10
-23.5
 20
134.9
 30
0.0
 40
0.5
100
AcDbArc
 50
90.0
 51
180.0
  0
ARC
  5
2ED
330
1F
100
AcDbEntity
  8
1
  6
Continuous
 62
     3
100
AcDbCircle
 10
15.5
 20
53.0
 30
0.0
 40
0.5
100
AcDbArc
 50
180.0
 51
270.0
  0
ARC
  5
2EE
330
1F
100
AcDbEntity
  8
1
  6
Continuous
 62
     3
100
AcDbCircle
 10
23.5
 20
52.0
 30
0.0
 40
0.5
100
AcDbArc
 50
0.0
 51
90.0
  0
ARC
  5
2EF
330
1F
100
AcDbEntity
  8
1
  6
Continuous
 62
     3
100
AcDbCircle
 10
23.5
 20
48.9010858031829
 30
0.0
 40
0.4999999999999212
100
AcDbArc
 50
282.5288077091502
 51
0.0
  0
ARC
  5
2F0
330
1F
100
AcDbEntity
  8
1
  6
Continuous
 62
     3
100
AcDbCircle
 10
15.5
 20
46.0989141968171
 30
0.0
 40
0.4999999999999212
100
AcDbArc
 50
102.5288077091501
 51
180.0
  0
ARC
  5
2F1
330
1F
100
AcDbEntity
  8
1
  6
Continuous
 62
     3
100
AcDbCircle
 10
-15.5
 20
46.0989141968171
 30
0.0
 40
0.5
100
AcDbArc
 50
0.0
 51
77.47119229084987
  0
ARC
  5
2F2
330
1F
100
AcDbEntity
  8
1
  6
Continuous
 62
     3
100
AcDbCircle
 10
-23.5
 20
48.9010858031829
 30
0.0
 40
0.5
100
AcDbArc
 50
180.0
 51
257.4711922908498
  0
ARC
  5
2F3
330
1F
100
AcDbEntity
  8
1
  6
Continuous
 62
     3
100
AcDbCircle
 10
-23.5
 20
52.0
 30
0.0
 40
0.5
100
AcDbArc
 50
90.0
 51
180.0
  0
ARC
  5
2F4
330
1F
100
AcDbEntity
  8
1
  6
Continuous
 62
     3
100
AcDbCircle
 10
-15.5
 20
53.0
 30
0.0
 40
0.5
100
AcDbArc
 50
270.0
 51
0.0
  0
ARC
  5
2F5
330
1F
100
AcDbEntity
  8
1
  6
Continuous
 62
     3
100
AcDbCircle
 10
-6.0
 20
174.186050525403
 30
0.0
 40
0.5
100
AcDbArc
 50
180.0
 51
270.0
  0
ARC
  5
2F6
330
1F
100
AcDbEntity
  8
1
  6
Continuous
 62
     3
100
AcDbCircle
 10
18.0
 20
174.186050525403
 30
0.0
 40
0.5
100
AcDbArc
 50
270.0
 51
0.0
  0
ARC
  5
2F7
330
1F
100
AcDbEntity
  8
1
  6
Continuous
 62
     3
100
AcDbCircle
 10
18.0
 20
105.813949474597
 30
0.0
 40
0.5
100
AcDbArc
 50
0.0
 51
90.0
  0
ARC
  5
2F8
330
1F
100
AcDbEntity
  8
1
  6
Continuous
 62
     3
100
AcDbCircle
 10
-6.0
 20
105.813949474597
 30
0.0
 40
0.5
100
AcDbArc
 50
90.0
 51
180.0
  0
ARC
  5
2F9
330
1F
100
AcDbEntity
  8
1
  6
Continuous
 62
     3
100
AcDbCircle
 10
-5.5
 20
-8.5
 30
0.0
 40
1.0
100
AcDbArc
 50
180.0
 51
270.0
  0
ARC
  5
2FA
330
1F
100
AcDbEntity
  8
1
  6
Continuous
 62
     3
100
AcDbCircle
 10
-5.5
 20
8.5
 30
0.0
 40
1.0
100
AcDbArc
 50
90.0
 51
180.0
  0
ARC
  5
2FB
330
1F
100
AcDbEntity
  8
1
  6
Continuous
 62
     3
100
AcDbCircle
 10
17.5
 20
8.5
 30
0.0
 40
1.0
100
AcDbArc
 50
0.0
 51
90.0
  0
ARC
  5
2FC
330
1F
100
AcDbEntity
  8
1
  6
Continuous
 62
     3
100
AcDbCircle
 10
17.5
 20
-8.5
 30
0.0
 40
1.0
100
AcDbArc
 50
270.0
 51
0.0
  0
CIRCLE
  5
2FD
330
1F
100
AcDbEntity
  8
1
  6
Continuous
 62
     3
100
AcDbCircle
 10
0.0
 20
140.0
 30
0.0
 40
12.0
  0
CIRCLE
  5
2FE
330
1F
100
AcDbEntity
  8
1
  6
Continuous
 62
     3
100
AcDbCircle
 10
0.0
 20
140.0
 30
0.0
 40
8.75
  0
CIRCLE
  5
2FF
330
1F
100
AcDbEntity
  8
1
  6
Continuous
 62
     3
100
AcDbCircle
 10
0.0
 20
140.0
 30
0.0
 40
8.0
  0
CIRCLE
  5
300
330
1F
100
AcDbEntity
  8
1
  6
Continuous
 62
     3
100
AcDbCircle
 10
0.0
 20
140.0
 30
0.0
 40
6.9175
  0
CIRCLE
  5
301
102
{ACAD_REACTORS
330
317
102
}
330
1F
100
AcDbEntity
  8
1
  6
Continuous
 62
     3
100
AcDbCircle
 10
118.779437057601
 20
143.15094782981
 30
0.0
 40
1.066716788552995
  0
CIRCLE
  5
302
330
1F
100
AcDbEntity
  8
1
  6
Continuous
 62
     3
100
AcDbCircle
 10
-120.0
 20
0.0
 30
0.0
 40
36.5
  0
CIRCLE
  5
303
330
1F
100
AcDbEntity
  8
1
  6
Continuous
 62
     3
100
AcDbCircle
 10
-120.0
 20
0.0
 30
0.0
 40
19.0
  0
CIRCLE
  5
304
330
1F
100
AcDbEntity
  8
1
  6
Continuous
 62
     3
100
AcDbCircle
 10
-120.0
 20
0.0
 30
0.0
 40
22.34741935483871
  0
CIRCLE
  5
305
330
1F
100
AcDbEntity
  8
1
  6
Continuous
 62
     3
100
AcDbCircle
 10
-120.0
 20
0.0
 30
0.0
 40
23.8741290322581
  0
CIRCLE
  5
306
330
1F
100
AcDbEntity
  8
1
  6
Continuous
 62
     3
100
AcDbCircle
 10
-120.0
 20
0.0
 30
0.0
 40
24.75
  0
CIRCLE
  5
307
330
1F
100
AcDbEntity
  8
1
  6
Continuous
 62
     3
100
AcDbCircle
 10
-120.0
 20
0.0
 30
0.0
 40
27.5
  0
SPLINE
  5
308
330
1F
100
AcDbEntity
  8
1
  6
Continuous
 62
     3
100
AcDbSpline
210
0.0
220
0.0
230
1.0
 70
     8
 71
     3
 72
    39
 73
    35
 74
    33
 42
0.000000001
 43
0.0000000001
 44
0.00000001
 40
0.0
 40
0.0
 40
0.0
 40
0.0
 40
0.0920847510676527
 40
0.1841689390934175
 40
0.2352545870426186
 40
0.2863358263094393
 40
0.337297224248323
 40
0.3882616018212007
 40
0.4461168207142769
 40
0.5039756267053731
 40
0.5617514224471705
 40
0.6195255036525524
 40
0.6847812450505145
 40
0.7500413653158579
 40
0.8152509179983101
 40
0.8804583097209023
 40
0.9527930308773177
 40
1.025130965626265
 40
1.097438887223171
 40
1.169745208192257
 40
1.248166031055973
 40
1.32658894194406
 40
1.404994299041169
 40
1.483398550000684
 40
1.566457169052346
 40
1.649517185153256
 40
1.732567494187571
 40
1.815616845811329
 40
1.901568807645925
 40
1.987522264399953
 40
2.073472064316029
 40
2.159419217098724
 40
2.246353212552436
 40
2.33328721577091
 40
2.33328721577091
 40
2.33328721577091
 40
2.33328721577091
 10
24.9920397228338
 20
151.588025877628
 30
0.0
 10
24.98522041265247
 20
151.6180324578981
 30
0.0
 10
24.97158182069166
 20
151.6780454307179
 30
0.0
 10
24.93804384849235
 20
151.7495254340931
 30
0.0
 10
24.90521311202508
 20
151.8053319841496
 30
0.0
 10
24.87617041735558
 20
151.847371914297
 30
0.0
 10
24.84453062893419
 20
151.8874099994911
 30
0.0
 10
24.80908128397224
 20
151.9271974545664
 30
0.0
 10
24.76980737449533
 20
151.9665401003895
 30
0.0
 10
24.72676479261127
 20
152.0051996676354
 30
0.0
 10
24.68191666833901
 20
152.0416996251355
 30
0.0
 10
24.63349336832124
 20
152.0776121158395
 30
0.0
 10
24.58146345951979
 20
152.1127518073922
 30
0.0
 10
24.52588892717554
 20
152.1469597515109
 30
0.0
 10
24.46907921578879
 20
152.1790367393199
 30
0.0
 10
24.4090745320749
 20
152.2101623216806
 30
0.0
 10
24.34586599746564
 20
152.240181951532
 30
0.0
 10
24.27951050172304
 20
152.2689899225699
 30
0.0
 10
24.21231235568254
 20
152.2957438110863
 30
0.0
 10
24.14245473283422
 20
152.3212113060125
 30
0.0
 10
24.06994948580537
 20
152.345275954823
 30
0.0
 10
23.99484832894501
 20
152.3678687868739
 30
0.0
 10
23.91918734679367
 20
152.3884850135362
 30
0.0
 10
23.84152715396379
 20
152.4075426242163
 30
0.0
 10
23.76189319150114
 20
152.4249602972911
 30
0.0
 10
23.68033322448385
 20
152.440696854014
 30
0.0
 10
23.5984305157674
 20
152.4545178149337
 30
0.0
 10
23.51527720937795
 20
152.4665861105256
 30
0.0
 10
23.43090670126337
 20
152.476850679835
 30
0.0
 10
23.34536355403275
 20
152.4852916348798
 30
0.0
 10
23.25965781301701
 20
152.4918659869782
 30
0.0
 10
23.17350213256289
 20
152.4965416949689
 30
0.0
 10
23.08693559909193
 20
152.4994532315298
 30
0.0
 10
23.02897853391233
 20
152.4998177450628
 30
0.0
 10
23.0
 20
152.5
 30
0.0
 11
24.9920397228338
 21
151.588025877628
 31
0.0
 11
24.96842761555535
 21
151.6770318953515
 31
0.0
 11
24.93063243463171
 21
151.7610022618053
 31
0.0
 11
24.90468485957624
 21
151.8050075646638
 31
0.0
 11
24.87570980705424
 21
151.8470758338337
 31
0.0
 11
24.84414711076153
 21
151.8870865853347
 31
0.0
 11
24.81028154513912
 21
151.9251719002309
 31
0.0
 11
24.76944744351432
 21
151.9661572935061
 31
0.0
 11
24.72643939623551
 21
152.0048606431248
 31
0.0
 11
24.68165064706911
 21
152.0413573621404
 31
0.0
 11
24.63526624169507
 21
152.0758005236991
 31
0.0
 11
24.58121628321115
 21
152.112364354908
 31
0.0
 11
24.52566621709795
 21
152.1466145145352
 31
0.0
 11
24.46889508198718
 21
152.1786975936385
 31
0.0
 11
24.41102269780764
 21
152.2087440754987
 31
0.0
 11
24.34569885248415
 21
152.2398102484782
 31
0.0
 11
24.27935935434533
 21
152.268652019904
 31
0.0
 11
24.21218615946972
 21
152.2954138846789
 31
0.0
 11
24.14425901569566
 21
152.3201950707391
 31
0.0
 11
24.06983911220436
 21
152.344923665818
 31
0.0
 11
23.99474850414376
 21
152.3675412148933
 31
0.0
 11
23.91910392883232
 21
152.3881639751793
 31
0.0
 11
23.84296137555223
 21
152.4068599144182
 31
0.0
 11
23.7618248154127
 21
152.4246248462668
 31
0.0
 11
23.68027239993822
 21
152.4403782523226
 31
0.0
 11
23.59838077132495
 21
152.4542026869532
 31
0.0
 11
23.51619325875335
 21
152.4661361518013
 31
0.0
 11
23.43087171749946
 21
152.4765272222121
 31
0.0
 11
23.34533496447364
 21
152.4849806603223
 31
0.0
 11
23.25963633084397
 21
152.4915466568756
 31
0.0
 11
23.17381691721322
 21
152.4962308143638
 31
0.0
 11
23.08692888160135
 21
152.499057262688
 31
0.0
 11
23.0
 21
152.5
 31
0.0
  0
SPLINE
  5
309
330
1F
100
AcDbEntity
  8
1
  6
Continuous
 62
     3
100
AcDbSpline
210
0.0
220
0.0
230
1.0
 70
     8
 71
     3
 72
     9
 73
     5
 74
     3
 42
0.000000001
 43
0.0000000001
 44
0.00000001
 40
0.0
 40
0.0
 40
0.0
 40
0.0
 40
0.0442366005218327
 40
0.0884739199234399
 40
0.0884739199234399
 40
0.0884739199234399
 40
0.0884739199234399
 10
25.0
 20
151.5
 30
0.0
 10
24.99966027224964
 20
151.5147601130626
 30
0.0
 10
24.99898079130903
 20
151.5442805776995
 30
0.0
 10
24.99435343147134
 20
151.5734440327454
 30
0.0
 10
24.9920397228338
 20
151.588025877628
 30
0.0
 11
25.0
 21
151.5
 31
0.0
 11
24.99799385310397
 21
151.5441910877893
 31
0.0
 11
24.9920397228338
 21
151.588025877628
 31
0.0
  0
SPLINE
  5
30A
330
1F
100
AcDbEntity
  8
1
  6
Continuous
 62
     3
100
AcDbSpline
210
0.0
220
0.0
230
1.0
 70
     8
 71
     3
 72
     9
 73
     5
 74
     3
 42
0.000000001
 43
0.0000000001
 44
0.00000001
 40
0.0
 40
0.0
 40
0.0
 40
0.0
 40
0.0442366005218327
 40
0.0884739199234399
 40
0.0884739199234399
 40
0.0884739199234399
 40
0.0884739199234399
 10
25.0
 20
128.5
 30
0.0
 10
24.99966027224964
 20
128.4852398869374
 30
0.0
 10
24.99898079130903
 20
128.4557194223005
 30
0.0
 10
24.99435343147134
 20
128.4265559672546
 30
0.0
 10
24.9920397228338
 20
128.411974122372
 30
0.0
 11
25.0
 21
128.5
 31
0.0
 11
24.99799385310397
 21
128.4558089122107
 31
0.0
 11
24.9920397228338
 21
128.411974122372
 31
0.0
  0
SPLINE
  5
30B
330
1F
100
AcDbEntity
  8
1
  6
Continuous
 62
     3
100
AcDbSpline
210
0.0
220
0.0
230
1.0
 70
     8
 71
     3
 72
    39
 73
    35
 74
    33
 42
0.000000001
 43
0.0000000001
 44
0.00000001
 40
0.0
 40
0.0
 40
0.0
 40
0.0
 40
0.0920847510676802
 40
0.184168939093419
 40
0.2352545870426428
 40
0.2863358263094421
 40
0.337297224248346
 40
0.3882616018212
 40
0.4461168207142612
 40
0.5039756267053003
 40
0.5617514224468794
 40
0.6195255036521313
 40
0.6847812450501928
 40
0.7500413653157121
 40
0.8152509179982442
 40
0.8804583097208002
 40
0.95279303087707
 40
1.025130965625949
 40
1.097438887222946
 40
1.169745208192122
 40
1.248166031055863
 40
1.326588941943941
 40
1.404994299041048
 40
1.483398550000557
 40
1.566457169052228
 40
1.649517185153132
 40
1.732567494187447
 40
1.815616845811192
 40
1.901568807645801
 40
1.987522264399823
 40
2.073472064315909
 40
2.159419217098606
 40
2.246353212552314
 40
2.333287215770789
 40
2.333287215770789
 40
2.333287215770789
 40
2.333287215770789
 10
24.9920397228338
 20
128.411974122372
 30
0.0
 10
24.98522041265247
 20
128.3819675421019
 30
0.0
 10
24.97158182069168
 20
128.3219545692821
 30
0.0
 10
24.93804384849232
 20
128.2504745659069
 30
0.0
 10
24.90521311202512
 20
128.1946680158504
 30
0.0
 10
24.87617041735556
 20
128.152628085703
 30
0.0
 10
24.84453062893421
 20
128.1125900005088
 30
0.0
 10
24.80908128397224
 20
128.0728025454337
 30
0.0
 10
24.76980737449534
 20
128.0334598996105
 30
0.0
 10
24.72676479261135
 20
127.9948003323647
 30
0.0
 10
24.68191666833898
 20
127.9583003748649
 30
0.0
 10
24.63349336832116
 20
127.9223878841612
 30
0.0
 10
24.58146345951974
 20
127.8872481926084
 30
0.0
 10
24.52588892717559
 20
127.8530402484893
 30
0.0
 10
24.46907921578883
 20
127.8209632606801
 30
0.0
 10
24.40907453207494
 20
127.7898376783195
 30
0.0
 10
24.34586599746555
 20
127.7598180484685
 30
0.0
 10
24.27951050172293
 20
127.7310100774308
 30
0.0
 10
24.21231235568249
 20
127.7042561889141
 30
0.0
 10
24.14245473283424
 20
127.6787886939875
 30
0.0
 10
24.06994948580537
 20
127.6547240451771
 30
0.0
 10
23.99484832894501
 20
127.6321312131261
 30
0.0
 10
23.91918734679367
 20
127.6115149864638
 30
0.0
 10
23.84152715396379
 20
127.5924573757838
 30
0.0
 10
23.76189319150115
 20
127.5750397027089
 30
0.0
 10
23.68033322448383
 20
127.559303145986
 30
0.0
 10
23.59843051576742
 20
127.5454821850662
 30
0.0
 10
23.51527720937796
 20
127.5334138894745
 30
0.0
 10
23.43090670126337
 20
127.523149320165
 30
0.0
 10
23.34536355403276
 20
127.5147083651202
 30
0.0
 10
23.25965781301701
 20
127.5081340130218
 30
0.0
 10
23.17350213256289
 20
127.5034583050311
 30
0.0
 10
23.08693559909194
 20
127.5005467684702
 30
0.0
 10
23.02897853391233
 20
127.5001822549372
 30
0.0
 10
23.0
 20
127.5
 30
0.0
 11
24.9920397228338
 21
128.411974122372
 31
0.0
 11
24.96842761555535
 21
128.3229681046484
 31
0.0
 11
24.93063243463171
 21
128.2389977381947
 31
0.0
 11
24.90468485957624
 21
128.1949924353362
 31
0.0
 11
24.87570980705424
 21
128.1529241661663
 31
0.0
 11
24.84414711076153
 21
128.1129134146653
 31
0.0
 11
24.81028154513913
 21
128.0748280997691
 31
0.0
 11
24.76944744351432
 21
128.0338427064939
 31
0.0
 11
24.72643939623551
 21
127.9951393568753
 31
0.0
 11
24.68165064706911
 21
127.95864263786
 31
0.0
 11
24.63526624169508
 21
127.9241994763016
 31
0.0
 11
24.58121628321114
 21
127.8876356450925
 31
0.0
 11
24.52566621709795
 21
127.853385485465
 31
0.0
 11
24.46889508198718
 21
127.8213024063615
 31
0.0
 11
24.41102269780762
 21
127.7912559245015
 31
0.0
 11
24.34569885248412
 21
127.7601897515223
 31
0.0
 11
24.27935935434529
 21
127.7313479800967
 31
0.0
 11
24.21218615946967
 21
127.7045861153215
 31
0.0
 11
24.14425901569563
 21
127.679804929261
 31
0.0
 11
24.06983911220435
 21
127.655076334182
 31
0.0
 11
23.99474850414377
 21
127.6324587851067
 31
0.0
 11
23.91910392883232
 21
127.6118360248207
 31
0.0
 11
23.84296137555223
 21
127.5931400855818
 31
0.0
 11
23.76182481541269
 21
127.5753751537332
 31
0.0
 11
23.68027239993821
 21
127.5596217476774
 31
0.0
 11
23.59838077132495
 21
127.5457973130468
 31
0.0
 11
23.51619325875336
 21
127.5338638481988
 31
0.0
 11
23.43087171749946
 21
127.5234727777879
 31
0.0
 11
23.34533496447365
 21
127.5150193396777
 31
0.0
 11
23.25963633084397
 21
127.5084533431243
 31
0.0
 11
23.17381691721322
 21
127.5037691856362
 31
0.0
 11
23.08692888160135
 21
127.500942737312
 31
0.0
 11
23.0
 21
127.5
 31
0.0
  0
HATCH
  5
30C
330
1F
100
AcDbEntity
  8
1
  6
Continuous
 62
     4
100
AcDbHatch
 10
0.0
 20
0.0
 30
0.0
210
0.0
220
0.0
230
1.0
  2
_USER
 70
     0
 71
     1
 91
        1
 92
        1
 93
       12
 72
     1
 10
93.232763714379
 20
141.696906354515
 11
93.232763714379
 21
138.303093645485
 72
     1
 10
93.232763714379
 20
138.303093645485
 11
91.7779958236932
 21
138.303093645485
 72
     1
 10
91.7779958236932
 20
138.303093645485
 11
91.7779958236932
 21
139.757377259243
 72
     1
 10
91.7779958236932
 20
139.757377259243
 11
89.160769595856
 21
139.757377259243
 72
     1
 10
89.160769595856
 20
139.757377259243
 11
89.160769595856
 21
138.303093645485
 72
     1
 10
89.160769595856
 20
138.303093645485
 11
87.7060017051703
 21
138.303093645485
 72
     1
 10
87.7060017051703
 20
138.303093645485
 11
87.7060017051703
 21
141.696906354515
 72
     1
 10
87.7060017051703
 20
141.696906354515
 11
89.160769595856
 21
141.696906354515
 72
     1
 10
89.160769595856
 20
141.696906354515
 11
89.160769595856
 21
140.242622740757
 72
     1
 10
89.160769595856
 20
140.242622740757
 11
91.7779958236932
 21
140.242622740757
 72
     1
 10
91.7779958236932
 20
140.242622740757
 11
91.7779958236932
 21
141.696906354515
 72
     1
 10
91.7779958236932
 20
141.696906354515
 11
93.232763714379
 21
141.696906354515
 97
       12
330
91
330
92
330
93
330
94
330
95
330
96
330
97
330
8C
330
8D
330
8E
330
8F
330
90
 75
     1
 76
     0
 52
44.99999999999998
 41
0.1
 77
     0
 78
     1
 53
44.99999999999998
 43
0.0
 44
0.0
 45
-0.0707106781186547
 46
0.0707106781186548
 79
     0
 98
        1
 10
0.0
 20
0.0
  0
HATCH
  5
30D
330
1F
100
AcDbEntity
  8
1
  6
Continuous
 62
     4
100
AcDbHatch
 10
0.0
 20
0.0
 30
0.0
210
0.0
220
0.0
230
1.0
  2
_USER
 70
     0
 71
     1
 91
        2
 92
        1
 93
        8
 72
     1
 10
98.8640834418908
 20
141.696906354515
 11
96.8057312935573
 21
141.696906354515
 72
     1
 10
96.8057312935573
 20
141.696906354515
 11
94.5997530326877
 21
138.303093645485
 72
     1
 10
94.5997530326877
 20
138.303093645485
 11
95.5733985542229
 21
138.303093645485
 72
     1
 10
95.5733985542229
 20
138.303093645485
 11
96.0775502069924
 21
139.078711572823
 72
     1
 10
96.0775502069924
 20
139.078711572823
 11
98.6729056226852
 21
139.078711572823
 72
     1
 10
98.6729056226852
 20
139.078711572823
 11
99.1382763790877
 21
138.303093645485
 72
     1
 10
99.1382763790877
 20
138.303093645485
 11
100.900371067309
 21
138.303093645485
 72
     1
 10
100.900371067309
 20
138.303093645485
 11
98.8640834418908
 21
141.696906354515
 97
        8
330
9A
330
9B
330
9C
330
9D
330
9E
330
9F
330
98
330
99
 92
       16
 93
        3
 72
     1
 10
97.4271350231527
 20
141.154995905377
 11
98.4399296783273
 21
139.467004813419
 72
     1
 10
98.4399296783273
 20
139.467004813419
 11
96.3299408133802
 21
139.467004813419
 72
     1
 10
96.3299408133802
 20
139.467004813419
 11
97.4271350231527
 21
141.154995905377
 97
        3
330
A1
330
A0
330
A2
 75
     1
 76
     0
 52
44.99999999999998
 41
0.1
 77
     0
 78
     1
 53
44.99999999999998
 43
0.0
 44
0.0
 45
-0.0707106781186547
 46
0.0707106781186548
 79
     0
 98
        1
 10
0.0
 20
0.0
  0
HATCH
  5
30E
330
1F
100
AcDbEntity
  8
1
  6
Continuous
 62
     4
100
AcDbHatch
 10
0.0
 20
0.0
 30
0.0
210
0.0
220
0.0
230
1.0
  2
_USER
 70
     0
 71
     1
 91
        2
 92
        1
 93
        8
 72
     1
 10
114.764250952314
 20
141.696906354515
 11
116.800538577732
 21
138.303093645485
 72
     1
 10
116.800538577732
 20
138.303093645485
 11
115.038443889511
 21
138.303093645485
 72
     1
 10
115.038443889511
 20
138.303093645485
 11
114.573073133108
 21
139.078711572823
 72
     1
 10
114.573073133108
 20
139.078711572823
 11
111.977717717415
 21
139.078711572823
 72
     1
 10
111.977717717415
 20
139.078711572823
 11
111.473566064646
 21
138.303093645485
 72
     1
 10
111.473566064646
 20
138.303093645485
 11
110.499920543111
 21
138.303093645485
 72
     1
 10
110.499920543111
 20
138.303093645485
 11
112.70589880398
 21
141.696906354515
 72
     1
 10
112.70589880398
 20
141.696906354515
 11
114.764250952314
 21
141.696906354515
 97
        8
330
B0
330
B1
330
B2
330
B3
330
B4
330
B5
330
AE
330
AF
 92
       16
 93
        3
 72
     1
 10
112.230108323803
 20
139.467004813419
 11
113.327302533576
 21
141.154995905377
 72
     1
 10
113.327302533576
 20
141.154995905377
 11
114.34009718875
 21
139.467004813419
 72
     1
 10
114.34009718875
 20
139.467004813419
 11
112.230108323803
 21
139.467004813419
 97
        3
330
B7
330
B6
330
B8
 75
     1
 76
     0
 52
44.99999999999998
 41
0.1
 77
     0
 78
     1
 53
44.99999999999998
 43
0.0
 44
0.0
 45
-0.0707106781186547
 46
0.0707106781186548
 79
     0
 98
        1
 10
0.0
 20
0.0
  0
HATCH
  5
30F
330
1F
100
AcDbEntity
  8
1
  6
Continuous
 62
     4
100
AcDbHatch
 10
0.0
 20
0.0
 30
0.0
210
0.0
220
0.0
230
1.0
  2
_USER
 70
     0
 71
     1
 91
        1
 92
        1
 93
        4
 72
     1
 10
119.506821002944
 20
141.018240668095
 11
119.506821002944
 21
138.303093645485
 72
     1
 10
119.506821002944
 20
138.303093645485
 11
118.052053112258
 21
138.303093645485
 72
     1
 10
118.052053112258
 20
138.303093645485
 11
118.052053112258
 21
141.018240668095
 72
     1
 10
118.052053112258
 20
141.018240668095
 11
119.506821002944
 21
141.018240668095
 97
        4
330
BA
330
BB
330
BC
330
B9
 75
     1
 76
     0
 52
44.99999999999998
 41
0.1
 77
     0
 78
     1
 53
44.99999999999998
 43
0.0
 44
0.0
 45
-0.0707106781186547
 46
0.0707106781186548
 79
     0
 98
        1
 10
0.0
 20
0.0
  0
HATCH
  5
310
330
1F
100
AcDbEntity
  8
1
  6
Continuous
 62
     4
100
AcDbHatch
 10
0.0
 20
0.0
 30
0.0
210
0.0
220
0.0
230
1.0
  2
_USER
 70
     0
 71
     1
 91
        1
 92
        1
 93
       15
 72
     1
 10
102.151885601835
 20
141.696906354515
 11
102.151885601835
 21
138.303093645485
 72
     1
 10
102.151885601835
 20
138.303093645485
 11
103.024940047017
 21
138.303093645485
 72
     1
 10
103.024940047017
 20
138.303093645485
 11
103.024940047017
 21
141.192451221538
 72
     1
 10
103.024940047017
 20
141.192451221538
 11
103.404716622441
 21
141.192451221538
 72
     1
 10
103.404716622441
 20
141.192451221538
 11
104.500679840944
 21
138.303093645485
 72
     1
 10
104.500679840944
 20
138.303093645485
 11
106.293868396339
 21
138.303093645485
 72
     1
 10
106.293868396339
 20
138.303093645485
 11
107.290198594977
 21
141.192451221538
 72
     1
 10
107.290198594977
 20
141.192451221538
 11
107.678163334116
 21
141.192451221538
 72
     1
 10
107.678163334116
 20
141.192451221538
 11
107.678163334116
 21
138.303093645485
 72
     1
 10
107.678163334116
 20
138.303093645485
 11
109.132931224802
 21
138.303093645485
 72
     1
 10
109.132931224802
 20
138.303093645485
 11
109.132931224802
 21
141.696906354515
 72
     1
 10
109.132931224802
 20
141.696906354515
 11
106.547568218587
 21
141.696906354515
 72
     1
 10
106.547568218587
 20
141.696906354515
 11
105.642408413318
 21
138.800394977656
 72
     1
 10
105.642408413318
 20
138.800394977656
 11
104.73724860805
 21
141.696906354515
 72
     1
 10
104.73724860805
 20
141.696906354515
 11
102.151885601835
 21
141.696906354515
 97
       15
330
A4
330
A5
330
A6
330
A7
330
A8
330
BF
330
BE
330
A9
330
AA
330
C0
330
BD
330
AB
330
AC
330
AD
330
A3
 75
     1
 76
     0
 52
44.99999999999998
 41
0.1
 77
     0
 78
     1
 53
44.99999999999998
 43
0.0
 44
0.0
 45
-0.0707106781186547
 46
0.0707106781186548
 79
     0
 98
        1
 10
0.0
 20
0.0
  0
HATCH
  5
311
330
1F
100
AcDbEntity
  8
1
  6
Continuous
 62
     4
100
AcDbHatch
 10
0.0
 20
0.0
 30
0.0
210
0.0
220
0.0
230
1.0
  2
_USER
 70
     0
 71
     1
 91
        1
 92
        1
 93
        4
 72
     1
 10
72.5384615384616
 20
144.113712374582
 11
72.5384615384616
 21
135.886287625418
 72
     1
 10
72.5384615384616
 20
135.886287625418
 11
75.6431501230517
 21
135.886287625418
 72
     1
 10
75.6431501230517
 20
135.886287625418
 11
75.6431501230517
 21
144.113712374582
 72
     1
 10
75.6431501230517
 20
144.113712374582
 11
72.5384615384616
 21
144.113712374582
 97
        4
330
C2
330
C1
330
C4
330
C3
 75
     1
 76
     0
 52
44.99999999999998
 41
0.1
 77
     0
 78
     1
 53
44.99999999999998
 43
0.0
 44
0.0
 45
-0.0707106781186547
 46
0.0707106781186548
 79
     0
 98
        1
 10
0.0
 20
0.0
  0
HATCH
  5
312
330
1F
100
AcDbEntity
  8
1
  6
Continuous
 62
     4
100
AcDbHatch
 10
0.0
 20
0.0
 30
0.0
210
0.0
220
0.0
230
1.0
  2
_USER
 70
     0
 71
     1
 91
        1
 92
        1
 93
        4
 72
     1
 10
77.1954944153467
 20
144.113712374582
 11
77.1954944153467
 21
135.886287625418
 72
     1
 10
77.1954944153467
 20
135.886287625418
 11
80.3001829999368
 21
135.886287625418
 72
     1
 10
80.3001829999368
 20
135.886287625418
 11
80.3001829999368
 21
144.113712374582
 72
     1
 10
80.3001829999368
 20
144.113712374582
 11
77.1954944153467
 21
144.113712374582
 97
        4
330
C6
330
C5
330
C8
330
C7
 75
     1
 76
     0
 52
44.99999999999998
 41
0.1
 77
     0
 78
     1
 53
44.99999999999998
 43
0.0
 44
0.0
 45
-0.0707106781186547
 46
0.0707106781186548
 79
     0
 98
        1
 10
0.0
 20
0.0
  0
HATCH
  5
313
330
1F
100
AcDbEntity
  8
1
  6
Continuous
 62
     4
100
AcDbHatch
 10
0.0
 20
0.0
 30
0.0
210
0.0
220
0.0
230
1.0
  2
_USER
 70
     0
 71
     1
 91
        1
 92
        1
 93
        4
 72
     1
 10
81.852527292232
 20
144.113712374582
 11
81.852527292232
 21
135.886287625418
 72
     1
 10
81.852527292232
 20
135.886287625418
 11
84.9572158768221
 21
135.886287625418
 72
     1
 10
84.9572158768221
 20
135.886287625418
 11
84.9572158768221
 21
144.113712374582
 72
     1
 10
84.9572158768221
 20
144.113712374582
 11
81.852527292232
 21
144.113712374582
 97
        4
330
CA
330
C9
330
CC
330
CB
 75
     1
 76
     0
 52
44.99999999999998
 41
0.1
 77
     0
 78
     1
 53
44.99999999999998
 43
0.0
 44
0.0
 45
-0.0707106781186547
 46
0.0707106781186548
 79
     0
 98
        1
 10
0.0
 20
0.0
  0
HATCH
  5
314
330
1F
100
AcDbEntity
  8
1
  6
Continuous
 62
     4
100
AcDbHatch
 10
0.0
 20
0.0
 30
0.0
210
0.0
220
0.0
230
1.0
  2
_USER
 70
     0
 71
     1
 91
        2
 92
        1
 93
        8
 72
     1
 10
62.8769513096134
 20
146.440076729361
 11
62.8769513096134
 21
145.564726494302
 72
     2
 10
62.376751175294
 20
145.564726494302
 40
0.5002001343189875
 50
0.0
 51
90.0
 73
     0
 72
     1
 10
62.376751175294
 20
145.064526359983
 11
58.5002001343192
 21
145.064526359983
 72
     2
 10
58.5002001343192
 20
145.564726494302
 40
0.5002001343192006
 50
90.0
 51
180.0
 73
     0
 72
     1
 10
58.0
 20
145.564726494302
 11
58.0
 21
146.440076729361
 72
     2
 10
58.5002001343192
 20
146.440076729361
 40
0.5002001343199822
 50
180.0
 51
270.0
 73
     0
 72
     1
 10
58.5002001343192
 20
146.940276863681
 11
62.376751175294
 21
146.940276863681
 72
     2
 10
62.376751175294
 20
146.440076729361
 40
0.5002001343194067
 50
270.0
 51
360.0
 73
     0
 97
        8
330
D1
330
27C
330
D0
330
27B
330
CF
330
27A
330
CE
330
27D
 92
       16
 93
        8
 72
     1
 10
62.5096168359725
 20
146.104004764115
 11
62.5096168359725
 21
145.900798459548
 72
     2
 10
62.0406792100481
 20
145.900798459548
 40
0.4689376259240134
 50
0.0
 51
90.0
 73
     0
 72
     1
 10
62.0406792100481
 20
145.431860833624
 11
58.8362720995652
 21
145.431860833624
 72
     2
 10
58.8362720995652
 20
145.900798459548
 40
0.4689376259242977
 50
90.0
 51
180.0
 73
     0
 72
     1
 10
58.3673344736409
 20
145.900798459548
 11
58.3673344736409
 21
146.104004764115
 72
     2
 10
58.8362720995652
 20
146.104004764115
 40
0.4689376259250082
 50
180.0
 51
270.0
 73
     0
 72
     1
 10
58.8362720995652
 20
146.57294239004
 11
62.0406792100481
 21
146.57294239004
 72
     2
 10
62.0406792100481
 20
146.104004764115
 40
0.4689376259244042
 50
270.0
 51
360.0
 73
     0
 97
        8
330
D9
330
287
330
D8
330
289
330
DA
330
288
330
D7
330
286
 75
     1
 76
     0
 52
90.00000000000001
 41
0.1
 77
     0
 78
     1
 53
90.00000000000001
 43
0.0
 44
0.0
 45
-0.1
 46
0.0
 79
     0
 98
        1
 10
0.0
 20
0.0
  0
HATCH
  5
315
330
1F
100
AcDbEntity
  8
1
  6
Continuous
 62
     4
100
AcDbHatch
 10
0.0
 20
0.0
 30
0.0
210
0.0
220
0.0
230
1.0
  2
_USER
 70
     0
 71
     1
 91
        1
 92
        1
 93
       12
 72
     2
 10
63.658514019487
 20
147.37494996642
 40
0.1250500335800694
 50
30.80958048224978
 51
180.0
 73
     1
 72
     1
 10
63.5334639859072
 20
147.37494996642
 11
63.8483299378546
 21
144.717822753167
 72
     1
 10
63.8483299378546
 20
144.717822753167
 11
64.5478493872474
 21
144.884375003023
 72
     2
 10
64.5840545806441
 20
144.732313190756
 40
0.1563125419746772
 50
256.6075022463174
 51
340.7693468285329
 73
     0
 72
     2
 10
51.0180754795882
 20
140.0
 40
14.5240046706951
 50
340.769346828541
 51
360.0
 73
     0
 72
     2
 10
51.0180754795882
 20
140.0
 40
14.52400467069508
 50
0.0
 51
19.23065317145875
 73
     0
 72
     2
 10
64.5840545806441
 20
135.267686809244
 40
0.1563125419754137
 50
19.23065317144308
 51
103.3924977536826
 73
     0
 72
     1
 10
64.5478493872474
 20
135.115624996977
 11
63.8671039431157
 21
135.27770724558
 72
     1
 10
63.8671039431157
 20
135.27770724558
 11
63.5334639859072
 21
132.62505003358
 72
     2
 10
63.658514019487
 20
132.62505003358
 40
0.1250500335798037
 50
180.0
 51
329.1904195177269
 73
     1
 72
     2
 10
51.2916224280438
 20
140.0
 40
14.52400467069537
 50
329.1904195177752
 51
360.0
 73
     1
 72
     2
 10
51.2916224280438
 20
140.0
 40
14.5240046706953
 50
0.0
 51
30.80958048222459
 73
     1
 97
       12
330
23C
330
284
330
E9
330
D6
330
285
330
23D
330
23B
330
283
330
CD
330
E8
330
282
330
23A
 75
     1
 76
     0
 52
90.00000000000001
 41
0.1
 77
     0
 78
     1
 53
90.00000000000001
 43
0.0
 44
0.0
 45
-0.1
 46
0.0
 79
     0
 98
        1
 10
0.0
 20
0.0
  0
HATCH
  5
316
330
1F
100
AcDbEntity
  8
1
  6
Continuous
 62
     4
100
AcDbHatch
 10
0.0
 20
0.0
 30
0.0
210
0.0
220
0.0
230
1.0
  2
_USER
 70
     0
 71
     1
 91
        1
 92
        1
 93
       29
 72
     1
 10
62.8769513096134
 20
134.435273505698
 11
62.8769513096134
 21
133.559923270639
 72
     2
 10
62.376751175294
 20
133.559923270639
 40
0.5002001343189875
 50
0.0
 51
90.0
 73
     0
 72
     1
 10
62.376751175294
 20
133.05972313632
 11
61.1909112050933
 21
133.05972313632
 72
     1
 10
61.1909112050933
 20
133.05972313632
 11
61.1909112050933
 21
133.427057609961
 72
     1
 10
61.1909112050933
 20
133.427057609961
 11
62.0406792100481
 21
133.427057609961
 72
     2
 10
62.0406792100481
 20
133.895995235885
 40
0.4689376259240134
 50
270.0
 51
360.0
 73
     1
 72
     1
 10
62.5096168359725
 20
133.895995235885
 11
62.5096168359725
 21
134.099201540452
 72
     2
 10
62.0406792100481
 20
134.099201540452
 40
0.4689376259244042
 50
0.0
 51
90.0
 73
     1
 72
     1
 10
62.0406792100481
 20
134.568139166376
 11
60.9769594490706
 21
134.568139166377
 72
     2
 10
60.9769594490706
 20
134.333670353414
 40
0.2344688129630015
 50
90.0
 51
147.2647737278576
 73
     1
 72
     1
 10
60.7797293304593
 20
134.46046114395
 11
59.9623207999974
 21
133.188936763232
 72
     2
 10
59.7256446576645
 20
133.341085711874
 40
0.2813625755539988
 50
32.73522627201025
 51
90.0
 73
     0
 72
     1
 10
59.7256446576645
 20
133.05972313632
 11
58.5002001343192
 21
133.05972313632
 72
     2
 10
58.5002001343192
 20
133.559923270639
 40
0.5002001343192006
 50
90.0
 51
180.0
 73
     0
 72
     1
 10
58.0
 20
133.559923270639
 11
58.0
 21
134.435273505698
 72
     2
 10
58.5002001343192
 20
134.435273505698
 40
0.5002001343189875
 50
180.0
 51
270.0
 73
     0
 72
     1
 10
58.5002001343192
 20
134.935473640017
 11
59.6101273823701
 21
134.935473640017
 72
     1
 10
59.6101273823701
 20
134.935473640017
 11
59.6101273823701
 21
134.568139166377
 72
     1
 10
59.6101273823701
 20
134.568139166377
 11
58.8362720995652
 21
134.568139166376
 72
     2
 10
58.8362720995652
 20
134.099201540452
 40
0.4689376259240134
 50
90.0
 51
180.0
 73
     1
 72
     1
 10
58.3673344736409
 20
134.099201540452
 11
58.3673344736409
 21
133.895995235885
 72
     2
 10
58.8362720995652
 20
133.895995235885
 40
0.4689376259242977
 50
180.0
 51
270.0
 73
     1
 72
     1
 10
58.8362720995652
 20
133.427057609961
 11
59.5508193675667
 21
133.427057609961
 72
     2
 10
59.5508193675667
 20
133.661526422923
 40
0.2344688129620067
 50
270.0
 51
327.2196945237365
 73
     1
 72
     1
 10
59.7479496686168
 20
133.534580494828
 11
60.5669925490107
 21
134.806446178176
 72
     2
 10
60.8035489102706
 20
134.654111064463
 40
0.2813625755539988
 50
212.7803054761147
 51
270.0
 73
     0
 72
     1
 10
60.8035489102706
 20
134.935473640017
 11
60.8053480498904
 21
134.935473640017
 72
     1
 10
60.8053480498904
 20
134.935473640017
 11
62.376751175294
 21
134.935473640017
 72
     2
 10
62.376751175294
 20
134.435273505698
 40
0.5002001343194067
 50
270.0
 51
360.0
 73
     0
 97
       29
330
D4
330
27F
330
E7
330
E6
330
DC
330
28B
330
DD
330
28A
330
E0
330
28E
330
DF
330
291
330
E2
330
280
330
D3
330
281
330
D2
330
E5
330
DB
330
28C
330
DE
330
28D
330
E1
330
28F
330
E4
330
290
330
E3
330
D5
330
27E
 75
     1
 76
     0
 52
90.00000000000001
 41
0.1
 77
     0
 78
     1
 53
90.00000000000001
 43
0.0
 44
0.0
 45
-0.1
 46
0.0
 79
     0
 98
        1
 10
0.0
 20
0.0
  0
HATCH
  5
317
330
1F
100
AcDbEntity
  8
1
  6
Continuous
 62
     4
100
AcDbHatch
 10
0.0
 20
0.0
 30
0.0
210
0.0
220
0.0
230
1.0
  2
_USER
 70
     0
 71
     1
 91
        1
 92
        1
 93
        1
 72
     2
 10
118.779437057601
 20
143.15094782981
 40
1.066716788552995
 50
0.0
 51
360.0
 73
     1
 97
        1
330
301
 75
     1
 76
     0
 52
44.99999999999998
 41
0.1
 77
     0
 78
     1
 53
44.99999999999998
 43
0.0
 44
0.0
 45
-0.0707106781186547
 46
0.0707106781186548
 79
     0
 98
        1
 10
0.0
 20
0.0
  0
ENDSEC
  0
SECTION
  2
OBJECTS
  0
DICTIONARY
  5
C
330
0
100
AcDbDictionary
281
     1
  3
ACAD_GROUP
350
D
  3
ACAD_LAYOUT
350
1A
  3
ACAD_MATERIAL
350
43
  3
ACAD_MLEADERSTYLE
350
31A
  3
ACAD_MLINESTYLE
350
17
  3
ACAD_PLOTSETTINGS
350
19
  3
ACAD_PLOTSTYLENAME
350
E
  3
ACAD_SCALELIST
350
47
  3
ACAD_VISUALSTYLE
350
2A
  3
AcDbVariableDictionary
350
318
  0
DICTIONARY
  5
D
102
{ACAD_REACTORS
330
C
102
}
330
C
100
AcDbDictionary
281
     1
  0
DICTIONARY
  5
1A
102
{ACAD_REACTORS
330
C
102
}
330
C
100
AcDbDictionary
281
     1
  3
Layout1
350
1E
  3
Layout2
350
26
  3
Model
350
22
  0
DICTIONARY
  5
43
102
{ACAD_REACTORS
330
C
102
}
330
C
100
AcDbDictionary
281
     1
  3
ByBlock
350
45
  3
ByLayer
350
44
  3
Global
350
46
  0
DICTIONARY
  5
31A
102
{ACAD_REACTORS
330
C
102
}
330
C
100
AcDbDictionary
281
     1
  0
DICTIONARY
  5
17
102
{ACAD_REACTORS
330
C
102
}
330
C
100
AcDbDictionary
281
     1
  3
Standard
350
18
  0
DICTIONARY
  5
19
102
{ACAD_REACTORS
330
C
102
}
330
C
100
AcDbDictionary
281
     1
  0
ACDBDICTIONARYWDFLT
  5
E
102
{ACAD_REACTORS
330
C
102
}
330
C
100
AcDbDictionary
281
     1
  3
Normal
350
F
100
AcDbDictionaryWithDefault
340
F
  0
DICTIONARY
  5
47
102
{ACAD_REACTORS
330
C
102
}
330
C
100
AcDbDictionary
281
     1
  3
A0
350
48
  3
A1
350
49
  3
A2
350
4A
  3
A3
350
4B
  3
A4
350
4C
  3
A5
350
4D
  3
A6
350
4E
  3
A7
350
4F
  3
A8
350
50
  3
A9
350
51
  3
B0
350
52
  3
B1
350
53
  3
B2
350
54
  3
B3
350
55
  3
B4
350
56
  3
B5
350
57
  3
B6
350
58
  3
B7
350
59
  3
B8
350
5A
  3
B9
350
5B
  3
C0
350
5C
  3
C1
350
5D
  3
C2
350
5E
  3
C3
350
5F
  3
C4
350
60
  3
C5
350
61
  3
C6
350
62
  3
C7
350
63
  3
C8
350
64
  3
C9
350
65
  3
D0
350
66
  3
D1
350
67
  3
D2
350
68
  0
DICTIONARY
  5
2A
102
{ACAD_REACTORS
330
C
102
}
330
C
100
AcDbDictionary
281
     1
  3
2dWireframe
350
2F
  3
Basic
350
32
  3
Brighten
350
36
  3
ColorChange
350
3A
  3
Conceptual
350
34
  3
Dim
350
35
  3
EdgeColorOff
350
3D
  3
Facepattern
350
39
  3
Flat
350
2B
  3
FlatWithEdges
350
2C
  3
Gouraud
350
2D
  3
GouraudWithEdges
350
2E
  3
Hidden
350
31
  3
JitterOff
350
3B
  3
Linepattern
350
38
  3
OverhangOff
350
3C
  3
Realistic
350
33
  3
Shaded
350
42
  3
Shaded with edges
350
41
  3
Shades of Gray
350
3E
  3
Sketchy
350
3F
  3
Thicken
350
37
  3
Wireframe
350
30
  3
X-Ray
350
40
  0
DICTIONARY
  5
318
102
{ACAD_REACTORS
330
C
102
}
330
C
100
AcDbDictionary
281
     1
  3
CANNOSCALE
350
31F
  3
DIMASSOC
350
31D
  3
HIDETEXT
350
31E
  3
MSLTSCALE
350
320
  0
LAYOUT
  5
1E
102
{ACAD_REACTORS
330
1A
102
}
330
1A
100
AcDbPlotSettings
  1

  2
none_device
  4

  6

 40
0.0
 41
0.0
 42
0.0
 43
0.0
 44
0.0
 45
0.0
 46
0.0
 47
0.0
 48
0.0
 49
0.0
140
0.0
141
0.0
142
1.0
143
1.0
 70
   688
 72
     0
 73
     0
 74
     5
  7

 75
    16
147
1.0
148
0.0
149
0.0
100
AcDbLayout
  1
Layout1
 70
     1
 71
     1
 10
0.0
 20
0.0
 11
12.0
 21
9.0
 12
0.0
 22
0.0
 32
0.0
 14
1.00000000000000E+20
 24
1.00000000000000E+20
 34
1.00000000000000E+20
 15
-1.00000000000000E+20
 25
-1.00000000000000E+20
 35
-1.00000000000000E+20
146
0.0
 13
0.0
 23
0.0
 33
0.0
 16
1.0
 26
0.0
 36
0.0
 17
0.0
 27
1.0
 37
0.0
 76
     0
330
1B
  0
LAYOUT
  5
26
102
{ACAD_REACTORS
330
1A
102
}
330
1A
100
AcDbPlotSettings
  1

  2
none_device
  4

  6

 40
0.0
 41
0.0
 42
0.0
 43
0.0
 44
0.0
 45
0.0
 46
0.0
 47
0.0
 48
0.0
 49
0.0
140
0.0
141
0.0
142
1.0
143
1.0
 70
   688
 72
     0
 73
     0
 74
     5
  7

 75
    16
147
1.0
148
0.0
149
0.0
100
AcDbLayout
  1
Layout2
 70
     1
 71
     2
 10
0.0
 20
0.0
 11
0.0
 21
0.0
 12
0.0
 22
0.0
 32
0.0
 14
0.0
 24
0.0
 34
0.0
 15
0.0
 25
0.0
 35
0.0
146
0.0
 13
0.0
 23
0.0
 33
0.0
 16
1.0
 26
0.0
 36
0.0
 17
0.0
 27
1.0
 37
0.0
 76
     0
330
23
  0
LAYOUT
  5
22
102
{ACAD_REACTORS
330
1A
102
}
330
1A
100
AcDbPlotSettings
  1

  2
none_device
  4
Letter_(8.50_x_11.00_Inches)
  6

 40
6.35
 41
6.35
 42
6.35000508
 43
6.35000508
 44
215.9
 45
279.4
 46
0.0
 47
0.0
 48
0.0
 49
0.0
140
0.0
141
0.0
142
1.0
143
1.0
 70
  1712
 72
     0
 73
     0
 74
     0
  7

 75
     0
147
1.0
148
0.0
149
0.0
100
AcDbLayout
  1
Model
 70
     1
 71
     0
 10
0.0
 20
0.0
 11
12.0
 21
9.0
 12
0.0
 22
0.0
 32
0.0
 14
-157.5
 24
-46.7578495815465
 34
0.0
 15
153.0
 25
176.5
 35
0.0
146
0.0
 13
0.0
 23
0.0
 33
0.0
 16
1.0
 26
0.0
 36
0.0
 17
0.0
 27
1.0
 37
0.0
 76
     0
330
1F
331
29
  0
MATERIAL
  5
45
102
{ACAD_REACTORS
330
43
102
}
102
{ACAD_XDICTIONARY
360
353
102
}
330
43
100
AcDbMaterial
  1
ByBlock
  0
MATERIAL
  5
44
102
{ACAD_REACTORS
330
43
102
}
102
{ACAD_XDICTIONARY
360
351
102
}
330
43
100
AcDbMaterial
  1
ByLayer
  0
MATERIAL
  5
46
102
{ACAD_REACTORS
330
43
102
}
102
{ACAD_XDICTIONARY
360
355
102
}
330
43
100
AcDbMaterial
  1
Global
  0
MLINESTYLE
  5
18
102
{ACAD_REACTORS
330
17
102
}
330
17
100
AcDbMlineStyle
  2
Standard
 70
     0
  3

 62
   256
 51
90.0
 52
90.0
 71
     2
 49
0.5
 62
   256
  6
BYLAYER
 49
-0.5
 62
   256
  6
BYLAYER
  0
ACDBPLACEHOLDER
  5
F
102
{ACAD_REACTORS
330
E
102
}
330
E
  0
SCALE
  5
48
102
{ACAD_REACTORS
330
47
102
}
330
47
100
AcDbScale
 70
     0
300
1:1
140
1.0
141
1.0
290
     1
  0
SCALE
  5
49
102
{ACAD_REACTORS
330
47
102
}
330
47
100
AcDbScale
 70
     0
300
1:2
140
1.0
141
2.0
290
     0
  0
SCALE
  5
4A
102
{ACAD_REACTORS
330
47
102
}
330
47
100
AcDbScale
 70
     0
300
1:4
140
1.0
141
4.0
290
     0
  0
SCALE
  5
4B
102
{ACAD_REACTORS
330
47
102
}
330
47
100
AcDbScale
 70
     0
300
1:5
140
1.0
141
5.0
290
     0
  0
SCALE
  5
4C
102
{ACAD_REACTORS
330
47
102
}
330
47
100
AcDbScale
 70
     0
300
1:8
140
1.0
141
8.0
290
     0
  0
SCALE
  5
4D
102
{ACAD_REACTORS
330
47
102
}
330
47
100
AcDbScale
 70
     0
300
1:10
140
1.0
141
10.0
290
     0
  0
SCALE
  5
4E
102
{ACAD_REACTORS
330
47
102
}
330
47
100
AcDbScale
 70
     0
300
1:16
140
1.0
141
16.0
290
     0
  0
SCALE
  5
4F
102
{ACAD_REACTORS
330
47
102
}
330
47
100
AcDbScale
 70
     0
300
1:20
140
1.0
141
20.0
290
     0
  0
SCALE
  5
50
102
{ACAD_REACTORS
330
47
102
}
330
47
100
AcDbScale
 70
     0
300
1:30
140
1.0
141
30.0
290
     0
  0
SCALE
  5
51
102
{ACAD_REACTORS
330
47
102
}
330
47
100
AcDbScale
 70
     0
300
1:40
140
1.0
141
40.0
290
     0
  0
SCALE
  5
52
102
{ACAD_REACTORS
330
47
102
}
330
47
100
AcDbScale
 70
     0
300
1:50
140
1.0
141
50.0
290
     0
  0
SCALE
  5
53
102
{ACAD_REACTORS
330
47
102
}
330
47
100
AcDbScale
 70
     0
300
1:100
140
1.0
141
100.0
290
     0
  0
SCALE
  5
54
102
{ACAD_REACTORS
330
47
102
}
330
47
100
AcDbScale
 70
     0
300
2:1
140
2.0
141
1.0
290
     0
  0
SCALE
  5
55
102
{ACAD_REACTORS
330
47
102
}
330
47
100
AcDbScale
 70
     0
300
4:1
140
4.0
141
1.0
290
     0
  0
SCALE
  5
56
102
{ACAD_REACTORS
330
47
102
}
330
47
100
AcDbScale
 70
     0
300
8:1
140
8.0
141
1.0
290
     0
  0
SCALE
  5
57
102
{ACAD_REACTORS
330
47
102
}
330
47
100
AcDbScale
 70
     0
300
10:1
140
10.0
141
1.0
290
     0
  0
SCALE
  5
58
102
{ACAD_REACTORS
330
47
102
}
330
47
100
AcDbScale
 70
     0
300
100:1
140
100.0
141
1.0
290
     0
  0
SCALE
  5
59
102
{ACAD_REACTORS
330
47
102
}
330
47
100
AcDbScale
 70
     0
300
1/128" = 1'-0"
140
0.0078125
141
12.0
290
     0
  0
SCALE
  5
5A
102
{ACAD_REACTORS
330
47
102
}
330
47
100
AcDbScale
 70
     0
300
1/64" = 1'-0"
140
0.015625
141
12.0
290
     0
  0
SCALE
  5
5B
102
{ACAD_REACTORS
330
47
102
}
330
47
100
AcDbScale
 70
     0
300
1/32" = 1'-0"
140
0.03125
141
12.0
290
     0
  0
SCALE
  5
5C
102
{ACAD_REACTORS
330
47
102
}
330
47
100
AcDbScale
 70
     0
300
1/16" = 1'-0"
140
0.0625
141
12.0
290
     0
  0
SCALE
  5
5D
102
{ACAD_REACTORS
330
47
102
}
330
47
100
AcDbScale
 70
     0
300
3/32" = 1'-0"
140
0.09375
141
12.0
290
     0
  0
SCALE
  5
5E
102
{ACAD_REACTORS
330
47
102
}
330
47
100
AcDbScale
 70
     0
300
1/8" = 1'-0"
140
0.125
141
12.0
290
     0
  0
SCALE
  5
5F
102
{ACAD_REACTORS
330
47
102
}
330
47
100
AcDbScale
 70
     0
300
3/16" = 1'-0"
140
0.1875
141
12.0
290
     0
  0
SCALE
  5
60
102
{ACAD_REACTORS
330
47
102
}
330
47
100
AcDbScale
 70
     0
300
1/4" = 1'-0"
140
0.25
141
12.0
290
     0
  0
SCALE
  5
61
102
{ACAD_REACTORS
330
47
102
}
330
47
100
AcDbScale
 70
     0
300
3/8" = 1'-0"
140
0.375
141
12.0
290
     0
  0
SCALE
  5
62
102
{ACAD_REACTORS
330
47
102
}
330
47
100
AcDbScale
 70
     0
300
1/2" = 1'-0"
140
0.5
141
12.0
290
     0
  0
SCALE
  5
63
102
{ACAD_REACTORS
330
47
102
}
330
47
100
AcDbScale
 70
     0
300
3/4" = 1'-0"
140
0.75
141
12.0
290
     0
  0
SCALE
  5
64
102
{ACAD_REACTORS
330
47
102
}
330
47
100
AcDbScale
 70
     0
300
1" = 1'-0"
140
1.0
141
12.0
290
     0
  0
SCALE
  5
65
102
{ACAD_REACTORS
330
47
102
}
330
47
100
AcDbScale
 70
     0
300
1-1/2" = 1'-0"
140
1.5
141
12.0
290
     0
  0
SCALE
  5
66
102
{ACAD_REACTORS
330
47
102
}
330
47
100
AcDbScale
 70
     0
300
3" = 1'-0"
140
3.0
141
12.0
290
     0
  0
SCALE
  5
67
102
{ACAD_REACTORS
330
47
102
}
330
47
100
AcDbScale
 70
     0
300
6" = 1'-0"
140
6.0
141
12.0
290
     0
  0
SCALE
  5
68
102
{ACAD_REACTORS
330
47
102
}
330
47
100
AcDbScale
 70
     0
300
1'-0" = 1'-0"
140
12.0
141
12.0
290
     0
  0
VISUALSTYLE
  5
2F
102
{ACAD_REACTORS
330
2A
102
}
102
{ACAD_XDICTIONARY
360
329
102
}
330
2A
100
AcDbVisualStyle
  2
2dWireframe
 70
     4
 71
     0
 72
     2
 73
     0
 90
        0
 40
0.6
 41
30.0
 62
     5
 63
     7
 74
     1
 91
        4
 64
     7
 65
   257
 75
     1
175
     1
 42
1.0
 92
        0
 66
   257
 43
1.0
 76
     1
 77
     6
 78
     2
 67
     7
 79
     5
170
     0
171
     0
290
     0
174
     0
 93
        1
 44
0.0
173
     0
291
     0
 45
0.0
1001
ACAD
1000
AcDbSavedByObjectVersion
1070
     0
  0
VISUALSTYLE
  5
32
102
{ACAD_REACTORS
330
2A
102
}
102
{ACAD_XDICTIONARY
360
32F
102
}
330
2A
100
AcDbVisualStyle
  2
Basic
 70
     7
 71
     1
 72
     0
 73
     1
 90
        0
 40
0.6
 41
30.0
 62
     5
 63
     7
 74
     0
 91
        4
 64
     7
 65
   257
 75
     1
175
     1
 42
1.0
 92
        8
 66
     7
 43
1.0
 76
     1
 77
     6
 78
     2
 67
     7
 79
     5
170
     0
171
     0
290
     0
174
     0
 93
        1
 44
0.0
173
     0
291
     1
 45
0.0
1001
ACAD
1000
AcDbSavedByObjectVersion
1070
     0
  0
VISUALSTYLE
  5
36
102
{ACAD_REACTORS
330
2A
102
}
102
{ACAD_XDICTIONARY
360
337
102
}
330
2A
100
AcDbVisualStyle
  2
Brighten
 70
    12
 71
     2
 72
     2
 73
     0
 90
        0
 40
0.6
 41
30.0
 62
     5
 63
     7
 74
     1
 91
        4
 64
     7
 65
   257
 75
     1
175
     1
 42
1.0
 92
        8
 66
     7
 43
1.0
 76
     1
 77
     6
 78
     2
 67
     7
 79
     5
170
     0
171
     0
290
     0
174
     0
 93
        1
 44
50.0
173
     0
291
     1
 45
0.0
1001
ACAD
1000
AcDbSavedByObjectVersion
1070
     0
  0
VISUALSTYLE
  5
3A
102
{ACAD_REACTORS
330
2A
102
}
102
{ACAD_XDICTIONARY
360
33F
102
}
330
2A
100
AcDbVisualStyle
  2
ColorChange
 70
    16
 71
     2
 72
     2
 73
     3
 90
        0
 40
0.6
 41
30.0
 62
     5
 63
     8
 74
     1
 91
        4
 64
     7
 65
   257
 75
     1
175
     1
 42
1.0
 92
        8
 66
     8
 43
1.0
 76
     1
 77
     6
 78
     2
 67
     7
 79
     5
170
     0
171
     0
290
     0
174
     0
 93
        1
 44
0.0
173
     0
291
     1
 45
0.0
1001
ACAD
1000
AcDbSavedByObjectVersion
1070
     0
  0
VISUALSTYLE
  5
34
102
{ACAD_REACTORS
330
2A
102
}
102
{ACAD_XDICTIONARY
360
333
102
}
330
2A
100
AcDbVisualStyle
  2
Conceptual
 70
     9
 71
     3
 72
     2
 73
     0
 90
        0
 40
0.6
 41
30.0
 62
     5
 63
     7
 74
     2
 91
        2
 64
     7
 65
   257
 75
     1
175
     1
 42
179.0
 92
        8
 66
     7
 43
1.0
 76
     1
 77
     6
 78
     2
 67
     7
 79
     3
170
     0
171
     0
290
     0
174
     0
 93
        1
 44
0.0
173
     0
291
     0
 45
0.0
1001
ACAD
1000
AcDbSavedByObjectVersion
1070
     0
  0
VISUALSTYLE
  5
35
102
{ACAD_REACTORS
330
2A
102
}
102
{ACAD_XDICTIONARY
360
335
102
}
330
2A
100
AcDbVisualStyle
  2
Dim
 70
    11
 71
     2
 72
     2
 73
     0
 90
        0
 40
0.6
 41
30.0
 62
     5
 63
     7
 74
     1
 91
        4
 64
     7
 65
   257
 75
     1
175
     1
 42
1.0
 92
        8
 66
     7
 43
1.0
 76
     1
 77
     6
 78
     2
 67
     7
 79
     5
170
     0
171
     0
290
     0
174
     0
 93
        1
 44
-50.0
173
     0
291
     1
 45
0.0
1001
ACAD
1000
AcDbSavedByObjectVersion
1070
     0
  0
VISUALSTYLE
  5
3D
102
{ACAD_REACTORS
330
2A
102
}
102
{ACAD_XDICTIONARY
360
345
102
}
330
2A
100
AcDbVisualStyle
  2
EdgeColorOff
 70
    22
 71
     2
 72
     2
 73
     0
 90
        0
 40
0.6
 41
30.0
 62
     5
 63
     7
 74
     1
 91
        4
 64
     7
 65
   257
 75
     1
175
     1
 42
1.0
 92
        8
 66
     7
 43
1.0
 76
     1
 77
     6
 78
     2
 67
     7
 79
     5
170
     0
171
     0
290
     0
174
     0
 93
        1
 44
0.0
173
     0
291
     1
 45
0.0
1001
ACAD
1000
AcDbSavedByObjectVersion
1070
     0
  0
VISUALSTYLE
  5
39
102
{ACAD_REACTORS
330
2A
102
}
102
{ACAD_XDICTIONARY
360
33D
102
}
330
2A
100
AcDbVisualStyle
  2
Facepattern
 70
    15
 71
     2
 72
     2
 73
     0
 90
        0
 40
0.6
 41
30.0
 62
     5
 63
     7
 74
     1
 91
        4
 64
     7
 65
   257
 75
     1
175
     1
 42
1.0
 92
        8
 66
     7
 43
1.0
 76
     1
 77
     6
 78
     2
 67
     7
 79
     5
170
     0
171
     0
290
     0
174
     0
 93
        1
 44
0.0
173
     0
291
     1
 45
0.0
1001
ACAD
1000
AcDbSavedByObjectVersion
1070
     0
  0
VISUALSTYLE
  5
2B
102
{ACAD_REACTORS
330
2A
102
}
102
{ACAD_XDICTIONARY
360
321
102
}
330
2A
100
AcDbVisualStyle
  2
Flat
 70
     0
 71
     2
 72
     1
 73
     1
 90
        2
 40
0.6
 41
30.0
 62
     5
 63
     7
 74
     0
 91
        0
 64
     7
 65
   257
 75
     1
175
     1
 42
1.0
 92
        8
 66
     7
 43
1.0
 76
     1
 77
     6
 78
     2
 67
     7
 79
     5
170
     0
171
     0
290
     0
174
     0
 93
       13
 44
0.0
173
     0
291
     1
 45
0.0
1001
ACAD
1000
AcDbSavedByObjectVersion
1070
     0
  0
VISUALSTYLE
  5
2C
102
{ACAD_REACTORS
330
2A
102
}
102
{ACAD_XDICTIONARY
360
323
102
}
330
2A
100
AcDbVisualStyle
  2
FlatWithEdges
 70
     1
 71
     2
 72
     1
 73
     1
 90
        2
 40
0.6
 41
30.0
 62
     5
 63
     7
 74
     1
 91
        0
 64
     7
 65
   257
 75
     1
175
     1
 42
1.0
 92
        0
 66
   257
 43
1.0
 76
     1
 77
     6
 78
     2
 67
     7
 79
     5
170
     0
171
     0
290
     0
174
     0
 93
       13
 44
0.0
173
     0
291
     1
 45
0.0
1001
ACAD
1000
AcDbSavedByObjectVersion
1070
     0
  0
VISUALSTYLE
  5
2D
102
{ACAD_REACTORS
330
2A
102
}
102
{ACAD_XDICTIONARY
360
325
102
}
330
2A
100
AcDbVisualStyle
  2
Gouraud
 70
     2
 71
     2
 72
     2
 73
     1
 90
        2
 40
0.6
 41
30.0
 62
     5
 63
     7
 74
     0
 91
        0
 64
     7
 65
   257
 75
     1
175
     1
 42
1.0
 92
        0
 66
     7
 43
1.0
 76
     1
 77
     6
 78
     2
 67
     7
 79
     5
170
     0
171
     0
290
     0
174
     0
 93
       13
 44
0.0
173
     0
291
     1
 45
0.0
1001
ACAD
1000
AcDbSavedByObjectVersion
1070
     0
  0
VISUALSTYLE
  5
2E
102
{ACAD_REACTORS
330
2A
102
}
102
{ACAD_XDICTIONARY
360
327
102
}
330
2A
100
AcDbVisualStyle
  2
GouraudWithEdges
 70
     3
 71
     2
 72
     2
 73
     1
 90
        2
 40
0.6
 41
30.0
 62
     5
 63
     7
 74
     1
 91
        0
 64
     7
 65
   257
 75
     1
175
     1
 42
1.0
 92
        0
 66
   257
 43
1.0
 76
     1
 77
     6
 78
     2
 67
     7
 79
     5
170
     0
171
     0
290
     0
174
     0
 93
       13
 44
0.0
173
     0
291
     1
 45
0.0
1001
ACAD
1000
AcDbSavedByObjectVersion
1070
     0
  0
VISUALSTYLE
  5
31
102
{ACAD_REACTORS
330
2A
102
}
102
{ACAD_XDICTIONARY
360
32D
102
}
330
2A
100
AcDbVisualStyle
  2
Hidden
 70
     6
 71
     1
 72
     2
 73
     2
 90
        0
 40
0.6
 41
30.0
 62
     5
 63
     7
 74
     2
 91
        2
 64
     7
 65
   257
 75
     2
175
     1
 42
40.0
 92
        0
 66
   257
 43
1.0
 76
     1
 77
     6
 78
     2
 67
     7
 79
     3
170
     0
171
     0
290
     0
174
     0
 93
        1
 44
0.0
173
     0
291
     0
 45
0.0
1001
ACAD
1000
AcDbSavedByObjectVersion
1070
     0
  0
VISUALSTYLE
  5
3B
102
{ACAD_REACTORS
330
2A
102
}
102
{ACAD_XDICTIONARY
360
341
102
}
330
2A
100
AcDbVisualStyle
  2
JitterOff
 70
    20
 71
     2
 72
     2
 73
     0
 90
        0
 40
0.6
 41
30.0
 62
     5
 63
     7
 74
     1
 91
        4
 64
     7
 65
   257
 75
     1
175
     1
 42
1.0
 92
       10
 66
     7
 43
1.0
 76
     1
 77
     6
 78
     2
 67
     7
 79
     5
170
     0
171
     0
290
     0
174
     0
 93
        1
 44
0.0
173
     0
291
     1
 45
0.0
1001
ACAD
1000
AcDbSavedByObjectVersion
1070
     0
  0
VISUALSTYLE
  5
38
102
{ACAD_REACTORS
330
2A
102
}
102
{ACAD_XDICTIONARY
360
33B
102
}
330
2A
100
AcDbVisualStyle
  2
Linepattern
 70
    14
 71
     2
 72
     2
 73
     0
 90
        0
 40
0.6
 41
30.0
 62
     5
 63
     7
 74
     1
 91
        4
 64
     7
 65
   257
 75
     7
175
     7
 42
1.0
 92
        8
 66
     7
 43
1.0
 76
     1
 77
     6
 78
     2
 67
     7
 79
     5
170
     0
171
     0
290
     0
174
     0
 93
        1
 44
0.0
173
     0
291
     1
 45
0.0
1001
ACAD
1000
AcDbSavedByObjectVersion
1070
     0
  0
VISUALSTYLE
  5
3C
102
{ACAD_REACTORS
330
2A
102
}
102
{ACAD_XDICTIONARY
360
343
102
}
330
2A
100
AcDbVisualStyle
  2
OverhangOff
 70
    21
 71
     2
 72
     2
 73
     0
 90
        0
 40
0.6
 41
30.0
 62
     5
 63
     7
 74
     1
 91
        4
 64
     7
 65
   257
 75
     1
175
     1
 42
1.0
 92
        9
 66
     7
 43
1.0
 76
     1
 77
     6
 78
     2
 67
     7
 79
     5
170
     0
171
     0
290
     0
174
     0
 93
        1
 44
0.0
173
     0
291
     1
 45
0.0
1001
ACAD
1000
AcDbSavedByObjectVersion
1070
     0
  0
VISUALSTYLE
  5
33
102
{ACAD_REACTORS
330
2A
102
}
102
{ACAD_XDICTIONARY
360
331
102
}
330
2A
100
AcDbVisualStyle
  2
Realistic
 70
     8
 71
     2
 72
     3
 73
     0
 90
        2
 40
0.6
 41
30.0
 62
     5
 63
     7
 74
     0
 91
        0
 64
     7
 65
   257
 75
     1
175
     1
 42
1.0
 92
        8
 66
   257
 43
1.0
 76
     1
 77
     6
 78
     2
 67
     7
 79
     3
170
     0
171
     0
290
     0
174
     0
 93
       13
 44
0.0
173
     0
291
     0
 45
0.0
1001
ACAD
1000
AcDbSavedByObjectVersion
1070
     0
  0
VISUALSTYLE
  5
42
102
{ACAD_REACTORS
330
2A
102
}
102
{ACAD_XDICTIONARY
360
34F
102
}
330
2A
100
AcDbVisualStyle
  2
Shaded
 70
    27
 71
     2
 72
     2
 73
     1
 90
        2
 40
0.6
 41
30.0
 62
     5
 63
     7
 74
     0
 91
        4
 64
     7
 65
   257
 75
     1
175
     1
 42
1.0
 92
        8
 66
   257
 43
1.0
 76
     1
 77
     6
 78
     2
 67
     8
 79
     3
170
     0
171
     0
290
     0
174
     0
 93
        5
 44
0.0
173
     0
291
     0
 45
0.0
1001
ACAD
1000
AcDbSavedByObjectVersion
1070
     0
  0
VISUALSTYLE
  5
41
102
{ACAD_REACTORS
330
2A
102
}
102
{ACAD_XDICTIONARY
360
34D
102
}
330
2A
100
AcDbVisualStyle
  2
Shaded with edges
 70
    26
 71
     2
 72
     2
 73
     1
 90
        2
 40
0.6
 41
30.0
 62
     5
 63
     7
 74
     1
 91
       10
 64
     7
 65
   257
 75
     2
175
     1
 42
1.0
 92
        8
 66
   257
 43
1.0
 76
     1
 77
     6
 78
     2
 67
     7
 79
     3
170
     0
171
     0
290
     0
174
     0
 93
        5
 44
0.0
173
     0
291
     0
 45
0.0
1001
ACAD
1000
AcDbSavedByObjectVersion
1070
     0
  0
VISUALSTYLE
  5
3E
102
{ACAD_REACTORS
330
2A
102
}
102
{ACAD_XDICTIONARY
360
347
102
}
330
2A
100
AcDbVisualStyle
  2
Shades of Gray
 70
    23
 71
     2
 72
     2
 73
     3
 90
        0
 40
0.6
 41
30.0
 62
     5
 63
     7
 74
     2
 91
        2
 64
     7
 65
     7
 75
     1
175
     1
 42
40.0
 92
        8
 66
     7
 43
1.0
 76
     1
 77
     6
 78
     2
 67
     7
 79
     3
170
     0
171
     0
290
     0
174
     0
 93
        1
 44
0.0
173
     0
291
     0
 45
0.0
1001
ACAD
1000
AcDbSavedByObjectVersion
1070
     0
  0
VISUALSTYLE
  5
3F
102
{ACAD_REACTORS
330
2A
102
}
102
{ACAD_XDICTIONARY
360
349
102
}
330
2A
100
AcDbVisualStyle
  2
Sketchy
 70
    24
 71
     1
 72
     2
 73
     2
 90
        0
 40
0.6
 41
30.0
 62
     5
 63
     7
 74
     2
 91
        2
 64
     7
 65
     7
 75
     1
175
     1
 42
40.0
 92
       11
 66
     7
 43
1.0
 76
     1
 77
     6
 78
     2
 67
     7
 79
     6
170
     0
171
     0
290
     0
174
     0
 93
        1
 44
0.0
173
     0
291
     0
 45
0.0
1001
ACAD
1000
AcDbSavedByObjectVersion
1070
     0
  0
VISUALSTYLE
  5
37
102
{ACAD_REACTORS
330
2A
102
}
102
{ACAD_XDICTIONARY
360
339
102
}
330
2A
100
AcDbVisualStyle
  2
Thicken
 70
    13
 71
     2
 72
     2
 73
     0
 90
        0
 40
0.6
 41
30.0
 62
     5
 63
     7
 74
     1
 91
        4
 64
     7
 65
   257
 75
     1
175
     1
 42
1.0
 92
       12
 66
     7
 43
1.0
 76
     1
 77
     6
 78
     2
 67
     7
 79
     5
170
     0
171
     0
290
     0
174
     0
 93
        1
 44
0.0
173
     0
291
     1
 45
0.0
1001
ACAD
1000
AcDbSavedByObjectVersion
1070
     0
  0
VISUALSTYLE
  5
30
102
{ACAD_REACTORS
330
2A
102
}
102
{ACAD_XDICTIONARY
360
32B
102
}
330
2A
100
AcDbVisualStyle
  2
Wireframe
 70
     5
 71
     0
 72
     2
 73
     0
 90
        0
 40
0.6
 41
30.0
 62
     5
 63
     7
 74
     1
 91
        4
 64
     7
 65
   257
 75
     1
175
     1
 42
1.0
 92
        0
 66
   257
 43
1.0
 76
     1
 77
     6
 78
     2
 67
     7
 79
     3
170
     0
171
     0
290
     0
174
     0
 93
        1
 44
0.0
173
     0
291
     0
 45
0.0
1001
ACAD
1000
AcDbSavedByObjectVersion
1070
     0
  0
VISUALSTYLE
  5
40
102
{ACAD_REACTORS
330
2A
102
}
102
{ACAD_XDICTIONARY
360
34B
102
}
330
2A
100
AcDbVisualStyle
  2
X-Ray
 70
    25
 71
     2
 72
     2
 73
     1
 90
        1
 40
0.5
 41
30.0
 62
     5
 63
     7
 74
     1
 91
        0
 64
     7
 65
   257
 75
     1
175
     1
 42
1.0
 92
        8
 66
     7
 43
1.0
 76
     1
 77
     6
 78
     2
 67
     7
 79
     3
170
     0
171
     0
290
     0
174
     0
 93
       13
 44
0.0
173
     0
291
     0
 45
0.0
1001
ACAD
1000
AcDbSavedByObjectVersion
1070
     0
  0
DICTIONARYVAR
  5
31F
102
{ACAD_REACTORS
330
318
102
}
330
318
100
DictionaryVariables
280
     0
  1
1:1
  0
DICTIONARYVAR
  5
31D
102
{ACAD_REACTORS
330
318
102
}
330
318
100
DictionaryVariables
280
     0
  1
2
  0
DICTIONARYVAR
  5
31E
102
{ACAD_REACTORS
330
318
102
}
330
318
100
DictionaryVariables
280
     0
  1
1
  0
DICTIONARYVAR
  5
320
102
{ACAD_REACTORS
330
318
102
}
330
318
100
DictionaryVariables
280
     0
  1
1
  0
DICTIONARY
  5
353
330
45
100
AcDbDictionary
280
     1
281
     1
  3
ACAD_XREC_ROUNDTRIP
360
354
  0
DICTIONARY
  5
351
330
44
100
AcDbDictionary
280
     1
281
     1
  3
ACAD_XREC_ROUNDTRIP
360
352
  0
DICTIONARY
  5
355
330
46
100
AcDbDictionary
280
     1
281
     1
  3
ACAD_XREC_ROUNDTRIP
360
356
  0
DICTIONARY
  5
329
330
2F
100
AcDbDictionary
280
     1
281
     1
  3
ACAD_XREC_ROUNDTRIP
360
32A
  0
DICTIONARY
  5
32F
330
32
100
AcDbDictionary
280
     1
281
     1
  3
ACAD_XREC_ROUNDTRIP
360
330
  0
DICTIONARY
  5
337
330
36
100
AcDbDictionary
280
     1
281
     1
  3
ACAD_XREC_ROUNDTRIP
360
338
  0
DICTIONARY
  5
33F
330
3A
100
AcDbDictionary
280
     1
281
     1
  3
ACAD_XREC_ROUNDTRIP
360
340
  0
DICTIONARY
  5
333
330
34
100
AcDbDictionary
280
     1
281
     1
  3
ACAD_XREC_ROUNDTRIP
360
334
  0
DICTIONARY
  5
335
330
35
100
AcDbDictionary
280
     1
281
     1
  3
ACAD_XREC_ROUNDTRIP
360
336
  0
DICTIONARY
  5
345
330
3D
100
AcDbDictionary
280
     1
281
     1
  3
ACAD_XREC_ROUNDTRIP
360
346
  0
DICTIONARY
  5
33D
330
39
100
AcDbDictionary
280
     1
281
     1
  3
ACAD_XREC_ROUNDTRIP
360
33E
  0
DICTIONARY
  5
321
330
2B
100
AcDbDictionary
280
     1
281
     1
  3
ACAD_XREC_ROUNDTRIP
360
322
  0
DICTIONARY
  5
323
330
2C
100
AcDbDictionary
280
     1
281
     1
  3
ACAD_XREC_ROUNDTRIP
360
324
  0
DICTIONARY
  5
325
330
2D
100
AcDbDictionary
280
     1
281
     1
  3
ACAD_XREC_ROUNDTRIP
360
326
  0
DICTIONARY
  5
327
330
2E
100
AcDbDictionary
280
     1
281
     1
  3
ACAD_XREC_ROUNDTRIP
360
328
  0
DICTIONARY
  5
32D
330
31
100
AcDbDictionary
280
     1
281
     1
  3
ACAD_XREC_ROUNDTRIP
360
32E
  0
DICTIONARY
  5
341
330
3B
100
AcDbDictionary
280
     1
281
     1
  3
ACAD_XREC_ROUNDTRIP
360
342
  0
DICTIONARY
  5
33B
330
38
100
AcDbDictionary
280
     1
281
     1
  3
ACAD_XREC_ROUNDTRIP
360
33C
  0
DICTIONARY
  5
343
330
3C
100
AcDbDictionary
280
     1
281
     1
  3
ACAD_XREC_ROUNDTRIP
360
344
  0
DICTIONARY
  5
331
330
33
100
AcDbDictionary
280
     1
281
     1
  3
ACAD_XREC_ROUNDTRIP
360
332
  0
DICTIONARY
  5
34F
330
42
100
AcDbDictionary
280
     1
281
     1
  3
ACAD_XREC_ROUNDTRIP
360
350
  0
DICTIONARY
  5
34D
330
41
100
AcDbDictionary
280
     1
281
     1
  3
ACAD_XREC_ROUNDTRIP
360
34E
  0
DICTIONARY
  5
347
330
3E
100
AcDbDictionary
280
     1
281
     1
  3
ACAD_XREC_ROUNDTRIP
360
348
  0
DICTIONARY
  5
349
330
3F
100
AcDbDictionary
280
     1
281
     1
  3
ACAD_XREC_ROUNDTRIP
360
34A
  0
DICTIONARY
  5
339
330
37
100
AcDbDictionary
280
     1
281
     1
  3
ACAD_XREC_ROUNDTRIP
360
33A
  0
DICTIONARY
  5
32B
330
30
100
AcDbDictionary
280
     1
281
     1
  3
ACAD_XREC_ROUNDTRIP
360
32C
  0
DICTIONARY
  5
34B
330
40
100
AcDbDictionary
280
     1
281
     1
  3
ACAD_XREC_ROUNDTRIP
360
34C
  0
XRECORD
  5
354
102
{ACAD_REACTORS
330
353
102
}
330
353
100
AcDbXrecord
280
     1
102
MATERIAL
148
0.0
149
0.0
149
0.0
 93
        0
 94
      127
282
     0
 72
     1
 77
     1
171
     1
175
     1
179
     1
273
     0
  0
XRECORD
  5
352
102
{ACAD_REACTORS
330
351
102
}
330
351
100
AcDbXrecord
280
     1
102
MATERIAL
148
0.0
149
0.0
149
0.0
 93
        0
 94
      127
282
     0
 72
     1
 77
     1
171
     1
175
     1
179
     1
273
     0
  0
XRECORD
  5
356
102
{ACAD_REACTORS
330
355
102
}
330
355
100
AcDbXrecord
280
     1
102
MATERIAL
148
0.0
149
0.0
149
0.0
 93
        0
 94
      127
282
     0
 72
     1
 77
     1
171
     1
175
     1
179
     1
273
     0
  0
XRECORD
  5
32A
102
{ACAD_REACTORS
330
329
102
}
330
329
100
AcDbXrecord
280
     1
102
RTVSPropertyOp0
 70
     1
102
RTVSPropertyOp1
 70
     1
102
RTVSPropertyOp2
 70
     1
102
RTVSPropertyOp3
 70
     1
102
RTVSPropertyOp4
 70
     1
102
RTVSPropertyOp5
 70
     1
102
RTVSPropertyOp6
 70
     1
102
RTVSPropertyOp7
 70
     1
102
RTVSPropertyOp8
 70
     1
102
RTVSPropertyOp9
 70
     1
102
RTVSPropertyOp10
 70
     1
102
RTVSPropertyOp11
 70
     1
102
RTVSPropertyOp12
 70
     1
102
RTVSPropertyOp13
 70
     1
102
RTVSPropertyOp14
 70
     1
102
RTVSPropertyOp15
 70
     1
102
RTVSPropertyOp16
 70
     1
102
RTVSPropertyOp17
 70
     1
102
RTVSPropertyOp18
 70
     1
102
RTVSPropertyOp19
 70
     1
102
RTVSPropertyOp20
 70
     1
102
RTVSPropertyOp21
 70
     1
102
RTVSPropertyOp22
 70
     1
102
RTVSPropertyOp23
 70
     1
102
RTVSPropertyOp24
 70
     1
102
RTVSPropertyOp25
 70
     1
102
RTVSPropertyOp26
 70
     1
102
RTVSPropertyOp27
 70
     1
102
RTVSPropertyOp28
 70
     1
102
RTVSPropertyOp29
 70
     1
102
RTVSPropertyOp30
 70
     1
102
RTVSPropertyOp31
 70
     1
102
RTVSPropertyOp32
 70
     1
102
RTVSPropertyOp33
 70
     1
102
RTVSPropertyOp34
 70
     1
102
RTVSPropertyOp35
 70
     1
102
RTVSPropertyOp36
 70
     1
102
RTVSPropertyOp37
 70
     1
102
RTVSPropertyOp38
 70
     1
102
RTVSPropertyOp39
 70
     1
102
RTVSPropertyOp40
 70
     1
102
RTVSPropertyOp41
 70
     1
102
RTVSPropertyOp42
 70
     1
102
RTVSPropertyOp43
 70
     1
102
RTVSPropertyOp44
 70
     1
102
RTVSPropertyOp45
 70
     1
102
RTVSPropertyOp46
 70
     1
102
RTVSPropertyOp47
 70
     1
102
RTVSPropertyOp48
 70
     1
102
RTVSPropertyOp49
 70
     1
102
RTVSPropertyOp50
 70
     1
102
RTVSPropertyOp51
 70
     0
102
RTVSPropertyOp52
 70
     0
102
RTVSPropertyOp53
 70
     1
102
RTVSPropertyOp54
 70
     1
102
RTVSPropertyOp55
 70
     1
102
RTVSPropertyOp56
 70
     1
102
RTVSPropertyOp57
 70
     1
102
RTVSPost2010Prop28
280
     1
102
RTVSPost2010PropOp28
 70
     1
102
RTVSPost2010Prop29
280
     1
102
RTVSPost2010PropOp29
 70
     1
102
RTVSPost2010Prop30
280
     0
102
RTVSPost2010PropOp30
 70
     1
102
RTVSPost2010Prop31
280
     0
102
RTVSPost2010PropOp31
 70
     1
102
RTVSPost2010Prop32
280
     0
102
RTVSPost2010PropOp32
 70
     1
102
RTVSPost2010Prop33
280
     0
102
RTVSPost2010PropOp33
 70
     1
102
RTVSPost2010Prop34
280
     0
102
RTVSPost2010PropOp34
 70
     1
102
RTVSPost2010Prop35
280
     0
102
RTVSPost2010PropOp35
 70
     1
102
RTVSPost2010Prop36
280
     0
102
RTVSPost2010PropOp36
 70
     1
102
RTVSPost2010Prop37
 90
       50
102
RTVSPost2010PropOp37
 70
     1
102
RTVSPost2010Prop38
140
0.0
102
RTVSPost2010PropOp38
 70
     1
102
RTVSPost2010Prop39
140
1.0
102
RTVSPost2010PropOp39
 70
     1
102
RTVSPost2010Prop40
 90
        0
102
RTVSPost2010PropOp40
 70
     1
102
RTVSPost2010Prop41ColorIndex
 90
       18
102
RTVSPost2010Prop41ColorRGB
 90
        0
102
RTVSPost2010PropOp41
 70
     1
102
RTVSPost2010Prop42
 90
       50
102
RTVSPost2010PropOp42
 70
     1
102
RTVSPost2010Prop43
 90
        3
102
RTVSPost2010PropOp43
 70
     1
102
RTVSPost2010Prop44ColorIndex
 90
        5
102
RTVSPost2010Prop44ColorRGB
 90
      255
102
RTVSPost2010PropOp44
 70
     1
102
RTVSPost2010Prop45
280
     0
102
RTVSPost2010PropOp45
 70
     1
102
RTVSPost2010Prop46
 90
       50
102
RTVSPost2010PropOp46
 70
     1
102
RTVSPost2010Prop47
 90
       50
102
RTVSPost2010PropOp47
 70
     1
102
RTVSPost2010Prop48
 90
       50
102
RTVSPost2010PropOp48
 70
     1
102
RTVSPost2010Prop49
280
     0
102
RTVSPost2010PropOp49
 70
     1
102
RTVSPost2010Prop50
 90
       50
102
RTVSPost2010PropOp50
 70
     1
102
RTVSPost2010Prop51ColorIndex
 90
      256
102
RTVSPost2010Prop51ColorRGB
 90
-16777216
102
RTVSPost2010PropOp51
 70
     0
102
RTVSPost2010Prop52
140
1.0
102
RTVSPost2010PropOp52
 70
     0
102
RTVSPost2010Prop53
 90
        2
102
RTVSPost2010PropOp53
 70
     1
102
RTVSPost2010Prop54
  1
strokes_ogs.tif
102
RTVSPost2010PropOp54
 70
     1
102
RTVSPost2010Prop55
280
     0
102
RTVSPost2010PropOp55
 70
     1
102
RTVSPost2010Prop56
140
1.0
102
RTVSPost2010PropOp56
 70
     1
102
RTVSPost2010Prop57
140
1.0
102
RTVSPost2010PropOp57
 70
     1
  0
XRECORD
  5
330
102
{ACAD_REACTORS
330
32F
102
}
330
32F
100
AcDbXrecord
280
     1
102
RTVSPropertyOp0
 70
     1
102
RTVSPropertyOp1
 70
     1
102
RTVSPropertyOp2
 70
     1
102
RTVSPropertyOp3
 70
     1
102
RTVSPropertyOp4
 70
     1
102
RTVSPropertyOp5
 70
     1
102
RTVSPropertyOp6
 70
     1
102
RTVSPropertyOp7
 70
     1
102
RTVSPropertyOp8
 70
     1
102
RTVSPropertyOp9
 70
     1
102
RTVSPropertyOp10
 70
     1
102
RTVSPropertyOp11
 70
     1
102
RTVSPropertyOp12
 70
     1
102
RTVSPropertyOp13
 70
     1
102
RTVSPropertyOp14
 70
     1
102
RTVSPropertyOp15
 70
     1
102
RTVSPropertyOp16
 70
     1
102
RTVSPropertyOp17
 70
     1
102
RTVSPropertyOp18
 70
     1
102
RTVSPropertyOp19
 70
     1
102
RTVSPropertyOp20
 70
     1
102
RTVSPropertyOp21
 70
     1
102
RTVSPropertyOp22
 70
     1
102
RTVSPropertyOp23
 70
     1
102
RTVSPropertyOp24
 70
     1
102
RTVSPropertyOp25
 70
     1
102
RTVSPropertyOp26
 70
     1
102
RTVSPropertyOp27
 70
     1
102
RTVSPropertyOp28
 70
     1
102
RTVSPropertyOp29
 70
     1
102
RTVSPropertyOp30
 70
     1
102
RTVSPropertyOp31
 70
     1
102
RTVSPropertyOp32
 70
     1
102
RTVSPropertyOp33
 70
     1
102
RTVSPropertyOp34
 70
     1
102
RTVSPropertyOp35
 70
     1
102
RTVSPropertyOp36
 70
     1
102
RTVSPropertyOp37
 70
     1
102
RTVSPropertyOp38
 70
     1
102
RTVSPropertyOp39
 70
     1
102
RTVSPropertyOp40
 70
     1
102
RTVSPropertyOp41
 70
     1
102
RTVSPropertyOp42
 70
     1
102
RTVSPropertyOp43
 70
     1
102
RTVSPropertyOp44
 70
     1
102
RTVSPropertyOp45
 70
     1
102
RTVSPropertyOp46
 70
     1
102
RTVSPropertyOp47
 70
     1
102
RTVSPropertyOp48
 70
     1
102
RTVSPropertyOp49
 70
     1
102
RTVSPropertyOp50
 70
     1
102
RTVSPropertyOp51
 70
     0
102
RTVSPropertyOp52
 70
     0
102
RTVSPropertyOp53
 70
     1
102
RTVSPropertyOp54
 70
     1
102
RTVSPropertyOp55
 70
     1
102
RTVSPropertyOp56
 70
     1
102
RTVSPropertyOp57
 70
     1
102
RTVSPost2010Prop28
280
     0
102
RTVSPost2010PropOp28
 70
     1
102
RTVSPost2010Prop29
280
     1
102
RTVSPost2010PropOp29
 70
     1
102
RTVSPost2010Prop30
280
     1
102
RTVSPost2010PropOp30
 70
     1
102
RTVSPost2010Prop31
280
     0
102
RTVSPost2010PropOp31
 70
     1
102
RTVSPost2010Prop32
280
     0
102
RTVSPost2010PropOp32
 70
     1
102
RTVSPost2010Prop33
280
     0
102
RTVSPost2010PropOp33
 70
     1
102
RTVSPost2010Prop34
280
     0
102
RTVSPost2010PropOp34
 70
     1
102
RTVSPost2010Prop35
280
     0
102
RTVSPost2010PropOp35
 70
     1
102
RTVSPost2010Prop36
280
     0
102
RTVSPost2010PropOp36
 70
     1
102
RTVSPost2010Prop37
 90
       50
102
RTVSPost2010PropOp37
 70
     1
102
RTVSPost2010Prop38
140
0.0
102
RTVSPost2010PropOp38
 70
     1
102
RTVSPost2010Prop39
140
1.0
102
RTVSPost2010PropOp39
 70
     1
102
RTVSPost2010Prop40
 90
        0
102
RTVSPost2010PropOp40
 70
     1
102
RTVSPost2010Prop41ColorIndex
 90
       18
102
RTVSPost2010Prop41ColorRGB
 90
        0
102
RTVSPost2010PropOp41
 70
     1
102
RTVSPost2010Prop42
 90
       50
102
RTVSPost2010PropOp42
 70
     1
102
RTVSPost2010Prop43
 90
        3
102
RTVSPost2010PropOp43
 70
     1
102
RTVSPost2010Prop44ColorIndex
 90
        5
102
RTVSPost2010Prop44ColorRGB
 90
      255
102
RTVSPost2010PropOp44
 70
     1
102
RTVSPost2010Prop45
280
     0
102
RTVSPost2010PropOp45
 70
     1
102
RTVSPost2010Prop46
 90
       50
102
RTVSPost2010PropOp46
 70
     1
102
RTVSPost2010Prop47
 90
       50
102
RTVSPost2010PropOp47
 70
     1
102
RTVSPost2010Prop48
 90
       50
102
RTVSPost2010PropOp48
 70
     1
102
RTVSPost2010Prop49
280
     0
102
RTVSPost2010PropOp49
 70
     1
102
RTVSPost2010Prop50
 90
       50
102
RTVSPost2010PropOp50
 70
     1
102
RTVSPost2010Prop51ColorIndex
 90
      256
102
RTVSPost2010Prop51ColorRGB
 90
-16777216
102
RTVSPost2010PropOp51
 70
     0
102
RTVSPost2010Prop52
140
1.0
102
RTVSPost2010PropOp52
 70
     0
102
RTVSPost2010Prop53
 90
        2
102
RTVSPost2010PropOp53
 70
     1
102
RTVSPost2010Prop54
  1
strokes_ogs.tif
102
RTVSPost2010PropOp54
 70
     1
102
RTVSPost2010Prop55
280
     0
102
RTVSPost2010PropOp55
 70
     1
102
RTVSPost2010Prop56
140
1.0
102
RTVSPost2010PropOp56
 70
     1
102
RTVSPost2010Prop57
140
1.0
102
RTVSPost2010PropOp57
 70
     1
  0
XRECORD
  5
338
102
{ACAD_REACTORS
330
337
102
}
330
337
100
AcDbXrecord
280
     1
102
RTVSPropertyOp0
 70
     1
102
RTVSPropertyOp1
 70
     1
102
RTVSPropertyOp2
 70
     1
102
RTVSPropertyOp3
 70
     1
102
RTVSPropertyOp4
 70
     1
102
RTVSPropertyOp5
 70
     1
102
RTVSPropertyOp6
 70
     1
102
RTVSPropertyOp7
 70
     1
102
RTVSPropertyOp8
 70
     1
102
RTVSPropertyOp9
 70
     1
102
RTVSPropertyOp10
 70
     1
102
RTVSPropertyOp11
 70
     1
102
RTVSPropertyOp12
 70
     1
102
RTVSPropertyOp13
 70
     1
102
RTVSPropertyOp14
 70
     1
102
RTVSPropertyOp15
 70
     1
102
RTVSPropertyOp16
 70
     1
102
RTVSPropertyOp17
 70
     1
102
RTVSPropertyOp18
 70
     1
102
RTVSPropertyOp19
 70
     1
102
RTVSPropertyOp20
 70
     1
102
RTVSPropertyOp21
 70
     1
102
RTVSPropertyOp22
 70
     1
102
RTVSPropertyOp23
 70
     1
102
RTVSPropertyOp24
 70
     1
102
RTVSPropertyOp25
 70
     1
102
RTVSPropertyOp26
 70
     1
102
RTVSPropertyOp27
 70
     1
102
RTVSPropertyOp28
 70
     1
102
RTVSPropertyOp29
 70
     1
102
RTVSPropertyOp30
 70
     1
102
RTVSPropertyOp31
 70
     1
102
RTVSPropertyOp32
 70
     1
102
RTVSPropertyOp33
 70
     1
102
RTVSPropertyOp34
 70
     1
102
RTVSPropertyOp35
 70
     1
102
RTVSPropertyOp36
 70
     1
102
RTVSPropertyOp37
 70
     1
102
RTVSPropertyOp38
 70
     1
102
RTVSPropertyOp39
 70
     1
102
RTVSPropertyOp40
 70
     1
102
RTVSPropertyOp41
 70
     1
102
RTVSPropertyOp42
 70
     1
102
RTVSPropertyOp43
 70
     1
102
RTVSPropertyOp44
 70
     1
102
RTVSPropertyOp45
 70
     1
102
RTVSPropertyOp46
 70
     1
102
RTVSPropertyOp47
 70
     1
102
RTVSPropertyOp48
 70
     1
102
RTVSPropertyOp49
 70
     1
102
RTVSPropertyOp50
 70
     1
102
RTVSPropertyOp51
 70
     0
102
RTVSPropertyOp52
 70
     0
102
RTVSPropertyOp53
 70
     1
102
RTVSPropertyOp54
 70
     1
102
RTVSPropertyOp55
 70
     1
102
RTVSPropertyOp56
 70
     1
102
RTVSPropertyOp57
 70
     1
102
RTVSPost2010Prop28
280
     0
102
RTVSPost2010PropOp28
 70
     1
102
RTVSPost2010Prop29
280
     1
102
RTVSPost2010PropOp29
 70
     1
102
RTVSPost2010Prop30
280
     1
102
RTVSPost2010PropOp30
 70
     1
102
RTVSPost2010Prop31
280
     0
102
RTVSPost2010PropOp31
 70
     1
102
RTVSPost2010Prop32
280
     0
102
RTVSPost2010PropOp32
 70
     1
102
RTVSPost2010Prop33
280
     0
102
RTVSPost2010PropOp33
 70
     1
102
RTVSPost2010Prop34
280
     0
102
RTVSPost2010PropOp34
 70
     1
102
RTVSPost2010Prop35
280
     0
102
RTVSPost2010PropOp35
 70
     1
102
RTVSPost2010Prop36
280
     0
102
RTVSPost2010PropOp36
 70
     1
102
RTVSPost2010Prop37
 90
       50
102
RTVSPost2010PropOp37
 70
     1
102
RTVSPost2010Prop38
140
0.0
102
RTVSPost2010PropOp38
 70
     1
102
RTVSPost2010Prop39
140
1.0
102
RTVSPost2010PropOp39
 70
     1
102
RTVSPost2010Prop40
 90
        0
102
RTVSPost2010PropOp40
 70
     1
102
RTVSPost2010Prop41ColorIndex
 90
       18
102
RTVSPost2010Prop41ColorRGB
 90
        0
102
RTVSPost2010PropOp41
 70
     1
102
RTVSPost2010Prop42
 90
       50
102
RTVSPost2010PropOp42
 70
     1
102
RTVSPost2010Prop43
 90
        3
102
RTVSPost2010PropOp43
 70
     1
102
RTVSPost2010Prop44ColorIndex
 90
        5
102
RTVSPost2010Prop44ColorRGB
 90
      255
102
RTVSPost2010PropOp44
 70
     1
102
RTVSPost2010Prop45
280
     0
102
RTVSPost2010PropOp45
 70
     1
102
RTVSPost2010Prop46
 90
       50
102
RTVSPost2010PropOp46
 70
     1
102
RTVSPost2010Prop47
 90
       50
102
RTVSPost2010PropOp47
 70
     1
102
RTVSPost2010Prop48
 90
       50
102
RTVSPost2010PropOp48
 70
     1
102
RTVSPost2010Prop49
280
     0
102
RTVSPost2010PropOp49
 70
     1
102
RTVSPost2010Prop50
 90
       50
102
RTVSPost2010PropOp50
 70
     1
102
RTVSPost2010Prop51ColorIndex
 90
      256
102
RTVSPost2010Prop51ColorRGB
 90
-16777216
102
RTVSPost2010PropOp51
 70
     0
102
RTVSPost2010Prop52
140
1.0
102
RTVSPost2010PropOp52
 70
     0
102
RTVSPost2010Prop53
 90
        2
102
RTVSPost2010PropOp53
 70
     1
102
RTVSPost2010Prop54
  1
strokes_ogs.tif
102
RTVSPost2010PropOp54
 70
     1
102
RTVSPost2010Prop55
280
     0
102
RTVSPost2010PropOp55
 70
     1
102
RTVSPost2010Prop56
140
1.0
102
RTVSPost2010PropOp56
 70
     1
102
RTVSPost2010Prop57
140
1.0
102
RTVSPost2010PropOp57
 70
     1
  0
XRECORD
  5
340
102
{ACAD_REACTORS
330
33F
102
}
330
33F
100
AcDbXrecord
280
     1
102
RTVSPropertyOp0
 70
     1
102
RTVSPropertyOp1
 70
     1
102
RTVSPropertyOp2
 70
     1
102
RTVSPropertyOp3
 70
     1
102
RTVSPropertyOp4
 70
     1
102
RTVSPropertyOp5
 70
     1
102
RTVSPropertyOp6
 70
     1
102
RTVSPropertyOp7
 70
     1
102
RTVSPropertyOp8
 70
     1
102
RTVSPropertyOp9
 70
     1
102
RTVSPropertyOp10
 70
     1
102
RTVSPropertyOp11
 70
     1
102
RTVSPropertyOp12
 70
     1
102
RTVSPropertyOp13
 70
     1
102
RTVSPropertyOp14
 70
     1
102
RTVSPropertyOp15
 70
     1
102
RTVSPropertyOp16
 70
     1
102
RTVSPropertyOp17
 70
     1
102
RTVSPropertyOp18
 70
     1
102
RTVSPropertyOp19
 70
     1
102
RTVSPropertyOp20
 70
     1
102
RTVSPropertyOp21
 70
     1
102
RTVSPropertyOp22
 70
     1
102
RTVSPropertyOp23
 70
     1
102
RTVSPropertyOp24
 70
     1
102
RTVSPropertyOp25
 70
     1
102
RTVSPropertyOp26
 70
     1
102
RTVSPropertyOp27
 70
     1
102
RTVSPropertyOp28
 70
     1
102
RTVSPropertyOp29
 70
     1
102
RTVSPropertyOp30
 70
     1
102
RTVSPropertyOp31
 70
     1
102
RTVSPropertyOp32
 70
     1
102
RTVSPropertyOp33
 70
     1
102
RTVSPropertyOp34
 70
     1
102
RTVSPropertyOp35
 70
     1
102
RTVSPropertyOp36
 70
     1
102
RTVSPropertyOp37
 70
     1
102
RTVSPropertyOp38
 70
     1
102
RTVSPropertyOp39
 70
     1
102
RTVSPropertyOp40
 70
     1
102
RTVSPropertyOp41
 70
     1
102
RTVSPropertyOp42
 70
     1
102
RTVSPropertyOp43
 70
     1
102
RTVSPropertyOp44
 70
     1
102
RTVSPropertyOp45
 70
     1
102
RTVSPropertyOp46
 70
     1
102
RTVSPropertyOp47
 70
     1
102
RTVSPropertyOp48
 70
     1
102
RTVSPropertyOp49
 70
     1
102
RTVSPropertyOp50
 70
     1
102
RTVSPropertyOp51
 70
     0
102
RTVSPropertyOp52
 70
     0
102
RTVSPropertyOp53
 70
     1
102
RTVSPropertyOp54
 70
     1
102
RTVSPropertyOp55
 70
     1
102
RTVSPropertyOp56
 70
     1
102
RTVSPropertyOp57
 70
     1
102
RTVSPost2010Prop28
280
     0
102
RTVSPost2010PropOp28
 70
     1
102
RTVSPost2010Prop29
280
     1
102
RTVSPost2010PropOp29
 70
     1
102
RTVSPost2010Prop30
280
     1
102
RTVSPost2010PropOp30
 70
     1
102
RTVSPost2010Prop31
280
     0
102
RTVSPost2010PropOp31
 70
     1
102
RTVSPost2010Prop32
280
     0
102
RTVSPost2010PropOp32
 70
     1
102
RTVSPost2010Prop33
280
     0
102
RTVSPost2010PropOp33
 70
     1
102
RTVSPost2010Prop34
280
     0
102
RTVSPost2010PropOp34
 70
     1
102
RTVSPost2010Prop35
280
     0
102
RTVSPost2010PropOp35
 70
     1
102
RTVSPost2010Prop36
280
     0
102
RTVSPost2010PropOp36
 70
     1
102
RTVSPost2010Prop37
 90
       50
102
RTVSPost2010PropOp37
 70
     1
102
RTVSPost2010Prop38
140
0.0
102
RTVSPost2010PropOp38
 70
     1
102
RTVSPost2010Prop39
140
1.0
102
RTVSPost2010PropOp39
 70
     1
102
RTVSPost2010Prop40
 90
        0
102
RTVSPost2010PropOp40
 70
     1
102
RTVSPost2010Prop41ColorIndex
 90
       18
102
RTVSPost2010Prop41ColorRGB
 90
        0
102
RTVSPost2010PropOp41
 70
     1
102
RTVSPost2010Prop42
 90
       50
102
RTVSPost2010PropOp42
 70
     1
102
RTVSPost2010Prop43
 90
        3
102
RTVSPost2010PropOp43
 70
     1
102
RTVSPost2010Prop44ColorIndex
 90
        5
102
RTVSPost2010Prop44ColorRGB
 90
      255
102
RTVSPost2010PropOp44
 70
     1
102
RTVSPost2010Prop45
280
     0
102
RTVSPost2010PropOp45
 70
     1
102
RTVSPost2010Prop46
 90
       50
102
RTVSPost2010PropOp46
 70
     1
102
RTVSPost2010Prop47
 90
       50
102
RTVSPost2010PropOp47
 70
     1
102
RTVSPost2010Prop48
 90
       50
102
RTVSPost2010PropOp48
 70
     1
102
RTVSPost2010Prop49
280
     0
102
RTVSPost2010PropOp49
 70
     1
102
RTVSPost2010Prop50
 90
       50
102
RTVSPost2010PropOp50
 70
     1
102
RTVSPost2010Prop51ColorIndex
 90
      256
102
RTVSPost2010Prop51ColorRGB
 90
-16777216
102
RTVSPost2010PropOp51
 70
     0
102
RTVSPost2010Prop52
140
1.0
102
RTVSPost2010PropOp52
 70
     0
102
RTVSPost2010Prop53
 90
        2
102
RTVSPost2010PropOp53
 70
     1
102
RTVSPost2010Prop54
  1
strokes_ogs.tif
102
RTVSPost2010PropOp54
 70
     1
102
RTVSPost2010Prop55
280
     0
102
RTVSPost2010PropOp55
 70
     1
102
RTVSPost2010Prop56
140
1.0
102
RTVSPost2010PropOp56
 70
     1
102
RTVSPost2010Prop57
140
1.0
102
RTVSPost2010PropOp57
 70
     1
  0
XRECORD
  5
334
102
{ACAD_REACTORS
330
333
102
}
330
333
100
AcDbXrecord
280
     1
102
RTVSPropertyOp0
 70
     1
102
RTVSPropertyOp1
 70
     1
102
RTVSPropertyOp2
 70
     1
102
RTVSPropertyOp3
 70
     1
102
RTVSPropertyOp4
 70
     1
102
RTVSPropertyOp5
 70
     1
102
RTVSPropertyOp6
 70
     1
102
RTVSPropertyOp7
 70
     1
102
RTVSPropertyOp8
 70
     1
102
RTVSPropertyOp9
 70
     1
102
RTVSPropertyOp10
 70
     1
102
RTVSPropertyOp11
 70
     1
102
RTVSPropertyOp12
 70
     1
102
RTVSPropertyOp13
 70
     1
102
RTVSPropertyOp14
 70
     1
102
RTVSPropertyOp15
 70
     1
102
RTVSPropertyOp16
 70
     1
102
RTVSPropertyOp17
 70
     1
102
RTVSPropertyOp18
 70
     1
102
RTVSPropertyOp19
 70
     1
102
RTVSPropertyOp20
 70
     1
102
RTVSPropertyOp21
 70
     1
102
RTVSPropertyOp22
 70
     1
102
RTVSPropertyOp23
 70
     1
102
RTVSPropertyOp24
 70
     1
102
RTVSPropertyOp25
 70
     1
102
RTVSPropertyOp26
 70
     1
102
RTVSPropertyOp27
 70
     1
102
RTVSPropertyOp28
 70
     1
102
RTVSPropertyOp29
 70
     1
102
RTVSPropertyOp30
 70
     1
102
RTVSPropertyOp31
 70
     1
102
RTVSPropertyOp32
 70
     1
102
RTVSPropertyOp33
 70
     1
102
RTVSPropertyOp34
 70
     1
102
RTVSPropertyOp35
 70
     1
102
RTVSPropertyOp36
 70
     1
102
RTVSPropertyOp37
 70
     1
102
RTVSPropertyOp38
 70
     1
102
RTVSPropertyOp39
 70
     1
102
RTVSPropertyOp40
 70
     1
102
RTVSPropertyOp41
 70
     1
102
RTVSPropertyOp42
 70
     1
102
RTVSPropertyOp43
 70
     1
102
RTVSPropertyOp44
 70
     1
102
RTVSPropertyOp45
 70
     1
102
RTVSPropertyOp46
 70
     1
102
RTVSPropertyOp47
 70
     1
102
RTVSPropertyOp48
 70
     1
102
RTVSPropertyOp49
 70
     1
102
RTVSPropertyOp50
 70
     1
102
RTVSPropertyOp51
 70
     0
102
RTVSPropertyOp52
 70
     0
102
RTVSPropertyOp53
 70
     1
102
RTVSPropertyOp54
 70
     1
102
RTVSPropertyOp55
 70
     1
102
RTVSPropertyOp56
 70
     1
102
RTVSPropertyOp57
 70
     1
102
RTVSPost2010Prop28
280
     0
102
RTVSPost2010PropOp28
 70
     1
102
RTVSPost2010Prop29
280
     1
102
RTVSPost2010PropOp29
 70
     1
102
RTVSPost2010Prop30
280
     1
102
RTVSPost2010PropOp30
 70
     1
102
RTVSPost2010Prop31
280
     0
102
RTVSPost2010PropOp31
 70
     1
102
RTVSPost2010Prop32
280
     0
102
RTVSPost2010PropOp32
 70
     1
102
RTVSPost2010Prop33
280
     0
102
RTVSPost2010PropOp33
 70
     1
102
RTVSPost2010Prop34
280
     0
102
RTVSPost2010PropOp34
 70
     1
102
RTVSPost2010Prop35
280
     0
102
RTVSPost2010PropOp35
 70
     1
102
RTVSPost2010Prop36
280
     0
102
RTVSPost2010PropOp36
 70
     1
102
RTVSPost2010Prop37
 90
       50
102
RTVSPost2010PropOp37
 70
     1
102
RTVSPost2010Prop38
140
0.0
102
RTVSPost2010PropOp38
 70
     1
102
RTVSPost2010Prop39
140
1.0
102
RTVSPost2010PropOp39
 70
     1
102
RTVSPost2010Prop40
 90
        0
102
RTVSPost2010PropOp40
 70
     1
102
RTVSPost2010Prop41ColorIndex
 90
       18
102
RTVSPost2010Prop41ColorRGB
 90
        0
102
RTVSPost2010PropOp41
 70
     1
102
RTVSPost2010Prop42
 90
       50
102
RTVSPost2010PropOp42
 70
     1
102
RTVSPost2010Prop43
 90
        3
102
RTVSPost2010PropOp43
 70
     1
102
RTVSPost2010Prop44ColorIndex
 90
        5
102
RTVSPost2010Prop44ColorRGB
 90
      255
102
RTVSPost2010PropOp44
 70
     1
102
RTVSPost2010Prop45
280
     0
102
RTVSPost2010PropOp45
 70
     1
102
RTVSPost2010Prop46
 90
       50
102
RTVSPost2010PropOp46
 70
     1
102
RTVSPost2010Prop47
 90
       50
102
RTVSPost2010PropOp47
 70
     1
102
RTVSPost2010Prop48
 90
       50
102
RTVSPost2010PropOp48
 70
     1
102
RTVSPost2010Prop49
280
     0
102
RTVSPost2010PropOp49
 70
     1
102
RTVSPost2010Prop50
 90
       50
102
RTVSPost2010PropOp50
 70
     1
102
RTVSPost2010Prop51ColorIndex
 90
      256
102
RTVSPost2010Prop51ColorRGB
 90
-16777216
102
RTVSPost2010PropOp51
 70
     0
102
RTVSPost2010Prop52
140
1.0
102
RTVSPost2010PropOp52
 70
     0
102
RTVSPost2010Prop53
 90
        2
102
RTVSPost2010PropOp53
 70
     1
102
RTVSPost2010Prop54
  1
strokes_ogs.tif
102
RTVSPost2010PropOp54
 70
     1
102
RTVSPost2010Prop55
280
     0
102
RTVSPost2010PropOp55
 70
     1
102
RTVSPost2010Prop56
140
1.0
102
RTVSPost2010PropOp56
 70
     1
102
RTVSPost2010Prop57
140
1.0
102
RTVSPost2010PropOp57
 70
     1
  0
XRECORD
  5
336
102
{ACAD_REACTORS
330
335
102
}
330
335
100
AcDbXrecord
280
     1
102
RTVSPropertyOp0
 70
     1
102
RTVSPropertyOp1
 70
     1
102
RTVSPropertyOp2
 70
     1
102
RTVSPropertyOp3
 70
     1
102
RTVSPropertyOp4
 70
     1
102
RTVSPropertyOp5
 70
     1
102
RTVSPropertyOp6
 70
     1
102
RTVSPropertyOp7
 70
     1
102
RTVSPropertyOp8
 70
     1
102
RTVSPropertyOp9
 70
     1
102
RTVSPropertyOp10
 70
     1
102
RTVSPropertyOp11
 70
     1
102
RTVSPropertyOp12
 70
     1
102
RTVSPropertyOp13
 70
     1
102
RTVSPropertyOp14
 70
     1
102
RTVSPropertyOp15
 70
     1
102
RTVSPropertyOp16
 70
     1
102
RTVSPropertyOp17
 70
     1
102
RTVSPropertyOp18
 70
     1
102
RTVSPropertyOp19
 70
     1
102
RTVSPropertyOp20
 70
     1
102
RTVSPropertyOp21
 70
     1
102
RTVSPropertyOp22
 70
     1
102
RTVSPropertyOp23
 70
     1
102
RTVSPropertyOp24
 70
     1
102
RTVSPropertyOp25
 70
     1
102
RTVSPropertyOp26
 70
     1
102
RTVSPropertyOp27
 70
     1
102
RTVSPropertyOp28
 70
     1
102
RTVSPropertyOp29
 70
     1
102
RTVSPropertyOp30
 70
     1
102
RTVSPropertyOp31
 70
     1
102
RTVSPropertyOp32
 70
     1
102
RTVSPropertyOp33
 70
     1
102
RTVSPropertyOp34
 70
     1
102
RTVSPropertyOp35
 70
     1
102
RTVSPropertyOp36
 70
     1
102
RTVSPropertyOp37
 70
     1
102
RTVSPropertyOp38
 70
     1
102
RTVSPropertyOp39
 70
     1
102
RTVSPropertyOp40
 70
     1
102
RTVSPropertyOp41
 70
     1
102
RTVSPropertyOp42
 70
     1
102
RTVSPropertyOp43
 70
     1
102
RTVSPropertyOp44
 70
     1
102
RTVSPropertyOp45
 70
     1
102
RTVSPropertyOp46
 70
     1
102
RTVSPropertyOp47
 70
     1
102
RTVSPropertyOp48
 70
     1
102
RTVSPropertyOp49
 70
     1
102
RTVSPropertyOp50
 70
     1
102
RTVSPropertyOp51
 70
     0
102
RTVSPropertyOp52
 70
     0
102
RTVSPropertyOp53
 70
     1
102
RTVSPropertyOp54
 70
     1
102
RTVSPropertyOp55
 70
     1
102
RTVSPropertyOp56
 70
     1
102
RTVSPropertyOp57
 70
     1
102
RTVSPost2010Prop28
280
     0
102
RTVSPost2010PropOp28
 70
     1
102
RTVSPost2010Prop29
280
     1
102
RTVSPost2010PropOp29
 70
     1
102
RTVSPost2010Prop30
280
     1
102
RTVSPost2010PropOp30
 70
     1
102
RTVSPost2010Prop31
280
     0
102
RTVSPost2010PropOp31
 70
     1
102
RTVSPost2010Prop32
280
     0
102
RTVSPost2010PropOp32
 70
     1
102
RTVSPost2010Prop33
280
     0
102
RTVSPost2010PropOp33
 70
     1
102
RTVSPost2010Prop34
280
     0
102
RTVSPost2010PropOp34
 70
     1
102
RTVSPost2010Prop35
280
     0
102
RTVSPost2010PropOp35
 70
     1
102
RTVSPost2010Prop36
280
     0
102
RTVSPost2010PropOp36
 70
     1
102
RTVSPost2010Prop37
 90
       50
102
RTVSPost2010PropOp37
 70
     1
102
RTVSPost2010Prop38
140
0.0
102
RTVSPost2010PropOp38
 70
     1
102
RTVSPost2010Prop39
140
1.0
102
RTVSPost2010PropOp39
 70
     1
102
RTVSPost2010Prop40
 90
        0
102
RTVSPost2010PropOp40
 70
     1
102
RTVSPost2010Prop41ColorIndex
 90
       18
102
RTVSPost2010Prop41ColorRGB
 90
        0
102
RTVSPost2010PropOp41
 70
     1
102
RTVSPost2010Prop42
 90
       50
102
RTVSPost2010PropOp42
 70
     1
102
RTVSPost2010Prop43
 90
        3
102
RTVSPost2010PropOp43
 70
     1
102
RTVSPost2010Prop44ColorIndex
 90
        5
102
RTVSPost2010Prop44ColorRGB
 90
      255
102
RTVSPost2010PropOp44
 70
     1
102
RTVSPost2010Prop45
280
     0
102
RTVSPost2010PropOp45
 70
     1
102
RTVSPost2010Prop46
 90
       50
102
RTVSPost2010PropOp46
 70
     1
102
RTVSPost2010Prop47
 90
       50
102
RTVSPost2010PropOp47
 70
     1
102
RTVSPost2010Prop48
 90
       50
102
RTVSPost2010PropOp48
 70
     1
102
RTVSPost2010Prop49
280
     0
102
RTVSPost2010PropOp49
 70
     1
102
RTVSPost2010Prop50
 90
       50
102
RTVSPost2010PropOp50
 70
     1
102
RTVSPost2010Prop51ColorIndex
 90
      256
102
RTVSPost2010Prop51ColorRGB
 90
-16777216
102
RTVSPost2010PropOp51
 70
     0
102
RTVSPost2010Prop52
140
1.0
102
RTVSPost2010PropOp52
 70
     0
102
RTVSPost2010Prop53
 90
        2
102
RTVSPost2010PropOp53
 70
     1
102
RTVSPost2010Prop54
  1
strokes_ogs.tif
102
RTVSPost2010PropOp54
 70
     1
102
RTVSPost2010Prop55
280
     0
102
RTVSPost2010PropOp55
 70
     1
102
RTVSPost2010Prop56
140
1.0
102
RTVSPost2010PropOp56
 70
     1
102
RTVSPost2010Prop57
140
1.0
102
RTVSPost2010PropOp57
 70
     1
  0
XRECORD
  5
346
102
{ACAD_REACTORS
330
345
102
}
330
345
100
AcDbXrecord
280
     1
102
RTVSPropertyOp0
 70
     0
102
RTVSPropertyOp1
 70
     0
102
RTVSPropertyOp2
 70
     0
102
RTVSPropertyOp3
 70
     0
102
RTVSPropertyOp4
 70
     0
102
RTVSPropertyOp5
 70
     0
102
RTVSPropertyOp6
 70
     0
102
RTVSPropertyOp7
 70
     0
102
RTVSPropertyOp8
 70
     0
102
RTVSPropertyOp9
 70
     0
102
RTVSPropertyOp10
 70
     0
102
RTVSPropertyOp11
 70
     0
102
RTVSPropertyOp12
 70
     0
102
RTVSPropertyOp13
 70
     0
102
RTVSPropertyOp14
 70
     2
102
RTVSPropertyOp15
 70
     0
102
RTVSPropertyOp16
 70
     0
102
RTVSPropertyOp17
 70
     0
102
RTVSPropertyOp18
 70
     0
102
RTVSPropertyOp19
 70
     0
102
RTVSPropertyOp20
 70
     0
102
RTVSPropertyOp21
 70
     0
102
RTVSPropertyOp22
 70
     0
102
RTVSPropertyOp23
 70
     0
102
RTVSPropertyOp24
 70
     0
102
RTVSPropertyOp25
 70
     0
102
RTVSPropertyOp26
 70
     0
102
RTVSPropertyOp27
 70
     0
102
RTVSPropertyOp28
 70
     0
102
RTVSPropertyOp29
 70
     0
102
RTVSPropertyOp30
 70
     0
102
RTVSPropertyOp31
 70
     0
102
RTVSPropertyOp32
 70
     0
102
RTVSPropertyOp33
 70
     0
102
RTVSPropertyOp34
 70
     0
102
RTVSPropertyOp35
 70
     0
102
RTVSPropertyOp36
 70
     0
102
RTVSPropertyOp37
 70
     0
102
RTVSPropertyOp38
 70
     0
102
RTVSPropertyOp39
 70
     0
102
RTVSPropertyOp40
 70
     0
102
RTVSPropertyOp41
 70
     0
102
RTVSPropertyOp42
 70
     0
102
RTVSPropertyOp43
 70
     0
102
RTVSPropertyOp44
 70
     0
102
RTVSPropertyOp45
 70
     0
102
RTVSPropertyOp46
 70
     0
102
RTVSPropertyOp47
 70
     0
102
RTVSPropertyOp48
 70
     0
102
RTVSPropertyOp49
 70
     0
102
RTVSPropertyOp50
 70
     0
102
RTVSPropertyOp51
 70
     0
102
RTVSPropertyOp52
 70
     0
102
RTVSPropertyOp53
 70
     0
102
RTVSPropertyOp54
 70
     0
102
RTVSPropertyOp55
 70
     0
102
RTVSPropertyOp56
 70
     0
102
RTVSPropertyOp57
 70
     0
102
RTVSPost2010Prop28
280
     0
102
RTVSPost2010PropOp28
 70
     0
102
RTVSPost2010Prop29
280
     1
102
RTVSPost2010PropOp29
 70
     0
102
RTVSPost2010Prop30
280
     1
102
RTVSPost2010PropOp30
 70
     0
102
RTVSPost2010Prop31
280
     0
102
RTVSPost2010PropOp31
 70
     0
102
RTVSPost2010Prop32
280
     0
102
RTVSPost2010PropOp32
 70
     0
102
RTVSPost2010Prop33
280
     0
102
RTVSPost2010PropOp33
 70
     0
102
RTVSPost2010Prop34
280
     0
102
RTVSPost2010PropOp34
 70
     0
102
RTVSPost2010Prop35
280
     0
102
RTVSPost2010PropOp35
 70
     0
102
RTVSPost2010Prop36
280
     0
102
RTVSPost2010PropOp36
 70
     0
102
RTVSPost2010Prop37
 90
       50
102
RTVSPost2010PropOp37
 70
     0
102
RTVSPost2010Prop38
140
0.0
102
RTVSPost2010PropOp38
 70
     0
102
RTVSPost2010Prop39
140
1.0
102
RTVSPost2010PropOp39
 70
     0
102
RTVSPost2010Prop40
 90
        0
102
RTVSPost2010PropOp40
 70
     0
102
RTVSPost2010Prop41ColorIndex
 90
       18
102
RTVSPost2010Prop41ColorRGB
 90
        0
102
RTVSPost2010PropOp41
 70
     0
102
RTVSPost2010Prop42
 90
       50
102
RTVSPost2010PropOp42
 70
     0
102
RTVSPost2010Prop43
 90
        3
102
RTVSPost2010PropOp43
 70
     0
102
RTVSPost2010Prop44ColorIndex
 90
        5
102
RTVSPost2010Prop44ColorRGB
 90
      255
102
RTVSPost2010PropOp44
 70
     0
102
RTVSPost2010Prop45
280
     0
102
RTVSPost2010PropOp45
 70
     0
102
RTVSPost2010Prop46
 90
       50
102
RTVSPost2010PropOp46
 70
     0
102
RTVSPost2010Prop47
 90
       50
102
RTVSPost2010PropOp47
 70
     0
102
RTVSPost2010Prop48
 90
       50
102
RTVSPost2010PropOp48
 70
     0
102
RTVSPost2010Prop49
280
     0
102
RTVSPost2010PropOp49
 70
     0
102
RTVSPost2010Prop50
 90
       50
102
RTVSPost2010PropOp50
 70
     0
102
RTVSPost2010Prop51ColorIndex
 90
      256
102
RTVSPost2010Prop51ColorRGB
 90
-16777216
102
RTVSPost2010PropOp51
 70
     0
102
RTVSPost2010Prop52
140
1.0
102
RTVSPost2010PropOp52
 70
     0
102
RTVSPost2010Prop53
 90
        2
102
RTVSPost2010PropOp53
 70
     0
102
RTVSPost2010Prop54
  1
strokes_ogs.tif
102
RTVSPost2010PropOp54
 70
     0
102
RTVSPost2010Prop55
280
     0
102
RTVSPost2010PropOp55
 70
     0
102
RTVSPost2010Prop56
140
1.0
102
RTVSPost2010PropOp56
 70
     0
102
RTVSPost2010Prop57
140
1.0
102
RTVSPost2010PropOp57
 70
     0
  0
XRECORD
  5
33E
102
{ACAD_REACTORS
330
33D
102
}
330
33D
100
AcDbXrecord
280
     1
102
RTVSPropertyOp0
 70
     1
102
RTVSPropertyOp1
 70
     1
102
RTVSPropertyOp2
 70
     1
102
RTVSPropertyOp3
 70
     1
102
RTVSPropertyOp4
 70
     1
102
RTVSPropertyOp5
 70
     1
102
RTVSPropertyOp6
 70
     1
102
RTVSPropertyOp7
 70
     1
102
RTVSPropertyOp8
 70
     1
102
RTVSPropertyOp9
 70
     1
102
RTVSPropertyOp10
 70
     1
102
RTVSPropertyOp11
 70
     1
102
RTVSPropertyOp12
 70
     1
102
RTVSPropertyOp13
 70
     1
102
RTVSPropertyOp14
 70
     1
102
RTVSPropertyOp15
 70
     1
102
RTVSPropertyOp16
 70
     1
102
RTVSPropertyOp17
 70
     1
102
RTVSPropertyOp18
 70
     1
102
RTVSPropertyOp19
 70
     1
102
RTVSPropertyOp20
 70
     1
102
RTVSPropertyOp21
 70
     1
102
RTVSPropertyOp22
 70
     1
102
RTVSPropertyOp23
 70
     1
102
RTVSPropertyOp24
 70
     1
102
RTVSPropertyOp25
 70
     1
102
RTVSPropertyOp26
 70
     1
102
RTVSPropertyOp27
 70
     1
102
RTVSPropertyOp28
 70
     1
102
RTVSPropertyOp29
 70
     1
102
RTVSPropertyOp30
 70
     1
102
RTVSPropertyOp31
 70
     1
102
RTVSPropertyOp32
 70
     1
102
RTVSPropertyOp33
 70
     1
102
RTVSPropertyOp34
 70
     1
102
RTVSPropertyOp35
 70
     1
102
RTVSPropertyOp36
 70
     1
102
RTVSPropertyOp37
 70
     1
102
RTVSPropertyOp38
 70
     1
102
RTVSPropertyOp39
 70
     1
102
RTVSPropertyOp40
 70
     1
102
RTVSPropertyOp41
 70
     1
102
RTVSPropertyOp42
 70
     1
102
RTVSPropertyOp43
 70
     1
102
RTVSPropertyOp44
 70
     1
102
RTVSPropertyOp45
 70
     1
102
RTVSPropertyOp46
 70
     1
102
RTVSPropertyOp47
 70
     1
102
RTVSPropertyOp48
 70
     1
102
RTVSPropertyOp49
 70
     1
102
RTVSPropertyOp50
 70
     1
102
RTVSPropertyOp51
 70
     0
102
RTVSPropertyOp52
 70
     0
102
RTVSPropertyOp53
 70
     1
102
RTVSPropertyOp54
 70
     1
102
RTVSPropertyOp55
 70
     1
102
RTVSPropertyOp56
 70
     1
102
RTVSPropertyOp57
 70
     1
102
RTVSPost2010Prop28
280
     0
102
RTVSPost2010PropOp28
 70
     1
102
RTVSPost2010Prop29
280
     1
102
RTVSPost2010PropOp29
 70
     1
102
RTVSPost2010Prop30
280
     1
102
RTVSPost2010PropOp30
 70
     1
102
RTVSPost2010Prop31
280
     0
102
RTVSPost2010PropOp31
 70
     1
102
RTVSPost2010Prop32
280
     0
102
RTVSPost2010PropOp32
 70
     1
102
RTVSPost2010Prop33
280
     0
102
RTVSPost2010PropOp33
 70
     1
102
RTVSPost2010Prop34
280
     0
102
RTVSPost2010PropOp34
 70
     1
102
RTVSPost2010Prop35
280
     0
102
RTVSPost2010PropOp35
 70
     1
102
RTVSPost2010Prop36
280
     0
102
RTVSPost2010PropOp36
 70
     1
102
RTVSPost2010Prop37
 90
       50
102
RTVSPost2010PropOp37
 70
     1
102
RTVSPost2010Prop38
140
0.0
102
RTVSPost2010PropOp38
 70
     1
102
RTVSPost2010Prop39
140
1.0
102
RTVSPost2010PropOp39
 70
     1
102
RTVSPost2010Prop40
 90
        0
102
RTVSPost2010PropOp40
 70
     1
102
RTVSPost2010Prop41ColorIndex
 90
       18
102
RTVSPost2010Prop41ColorRGB
 90
        0
102
RTVSPost2010PropOp41
 70
     1
102
RTVSPost2010Prop42
 90
       50
102
RTVSPost2010PropOp42
 70
     1
102
RTVSPost2010Prop43
 90
        3
102
RTVSPost2010PropOp43
 70
     1
102
RTVSPost2010Prop44ColorIndex
 90
        5
102
RTVSPost2010Prop44ColorRGB
 90
      255
102
RTVSPost2010PropOp44
 70
     1
102
RTVSPost2010Prop45
280
     0
102
RTVSPost2010PropOp45
 70
     1
102
RTVSPost2010Prop46
 90
       50
102
RTVSPost2010PropOp46
 70
     1
102
RTVSPost2010Prop47
 90
       50
102
RTVSPost2010PropOp47
 70
     1
102
RTVSPost2010Prop48
 90
       50
102
RTVSPost2010PropOp48
 70
     1
102
RTVSPost2010Prop49
280
     0
102
RTVSPost2010PropOp49
 70
     1
102
RTVSPost2010Prop50
 90
       50
102
RTVSPost2010PropOp50
 70
     1
102
RTVSPost2010Prop51ColorIndex
 90
      256
102
RTVSPost2010Prop51ColorRGB
 90
-16777216
102
RTVSPost2010PropOp51
 70
     0
102
RTVSPost2010Prop52
140
1.0
102
RTVSPost2010PropOp52
 70
     0
102
RTVSPost2010Prop53
 90
        2
102
RTVSPost2010PropOp53
 70
     1
102
RTVSPost2010Prop54
  1
strokes_ogs.tif
102
RTVSPost2010PropOp54
 70
     1
102
RTVSPost2010Prop55
280
     0
102
RTVSPost2010PropOp55
 70
     1
102
RTVSPost2010Prop56
140
1.0
102
RTVSPost2010PropOp56
 70
     1
102
RTVSPost2010Prop57
140
1.0
102
RTVSPost2010PropOp57
 70
     1
  0
XRECORD
  5
322
102
{ACAD_REACTORS
330
321
102
}
330
321
100
AcDbXrecord
280
     1
102
RTVSPropertyOp0
 70
     1
102
RTVSPropertyOp1
 70
     1
102
RTVSPropertyOp2
 70
     1
102
RTVSPropertyOp3
 70
     1
102
RTVSPropertyOp4
 70
     1
102
RTVSPropertyOp5
 70
     1
102
RTVSPropertyOp6
 70
     1
102
RTVSPropertyOp7
 70
     1
102
RTVSPropertyOp8
 70
     1
102
RTVSPropertyOp9
 70
     1
102
RTVSPropertyOp10
 70
     1
102
RTVSPropertyOp11
 70
     1
102
RTVSPropertyOp12
 70
     1
102
RTVSPropertyOp13
 70
     1
102
RTVSPropertyOp14
 70
     1
102
RTVSPropertyOp15
 70
     1
102
RTVSPropertyOp16
 70
     1
102
RTVSPropertyOp17
 70
     1
102
RTVSPropertyOp18
 70
     1
102
RTVSPropertyOp19
 70
     1
102
RTVSPropertyOp20
 70
     1
102
RTVSPropertyOp21
 70
     1
102
RTVSPropertyOp22
 70
     1
102
RTVSPropertyOp23
 70
     1
102
RTVSPropertyOp24
 70
     1
102
RTVSPropertyOp25
 70
     1
102
RTVSPropertyOp26
 70
     1
102
RTVSPropertyOp27
 70
     1
102
RTVSPropertyOp28
 70
     1
102
RTVSPropertyOp29
 70
     1
102
RTVSPropertyOp30
 70
     1
102
RTVSPropertyOp31
 70
     1
102
RTVSPropertyOp32
 70
     1
102
RTVSPropertyOp33
 70
     1
102
RTVSPropertyOp34
 70
     1
102
RTVSPropertyOp35
 70
     1
102
RTVSPropertyOp36
 70
     1
102
RTVSPropertyOp37
 70
     1
102
RTVSPropertyOp38
 70
     1
102
RTVSPropertyOp39
 70
     1
102
RTVSPropertyOp40
 70
     1
102
RTVSPropertyOp41
 70
     1
102
RTVSPropertyOp42
 70
     1
102
RTVSPropertyOp43
 70
     1
102
RTVSPropertyOp44
 70
     1
102
RTVSPropertyOp45
 70
     1
102
RTVSPropertyOp46
 70
     1
102
RTVSPropertyOp47
 70
     1
102
RTVSPropertyOp48
 70
     1
102
RTVSPropertyOp49
 70
     1
102
RTVSPropertyOp50
 70
     1
102
RTVSPropertyOp51
 70
     0
102
RTVSPropertyOp52
 70
     0
102
RTVSPropertyOp53
 70
     1
102
RTVSPropertyOp54
 70
     1
102
RTVSPropertyOp55
 70
     1
102
RTVSPropertyOp56
 70
     1
102
RTVSPropertyOp57
 70
     1
102
RTVSPost2010Prop28
280
     0
102
RTVSPost2010PropOp28
 70
     1
102
RTVSPost2010Prop29
280
     1
102
RTVSPost2010PropOp29
 70
     1
102
RTVSPost2010Prop30
280
     1
102
RTVSPost2010PropOp30
 70
     1
102
RTVSPost2010Prop31
280
     0
102
RTVSPost2010PropOp31
 70
     1
102
RTVSPost2010Prop32
280
     0
102
RTVSPost2010PropOp32
 70
     1
102
RTVSPost2010Prop33
280
     0
102
RTVSPost2010PropOp33
 70
     1
102
RTVSPost2010Prop34
280
     0
102
RTVSPost2010PropOp34
 70
     1
102
RTVSPost2010Prop35
280
     0
102
RTVSPost2010PropOp35
 70
     1
102
RTVSPost2010Prop36
280
     0
102
RTVSPost2010PropOp36
 70
     1
102
RTVSPost2010Prop37
 90
       50
102
RTVSPost2010PropOp37
 70
     1
102
RTVSPost2010Prop38
140
0.0
102
RTVSPost2010PropOp38
 70
     1
102
RTVSPost2010Prop39
140
1.0
102
RTVSPost2010PropOp39
 70
     1
102
RTVSPost2010Prop40
 90
        0
102
RTVSPost2010PropOp40
 70
     1
102
RTVSPost2010Prop41ColorIndex
 90
       18
102
RTVSPost2010Prop41ColorRGB
 90
        0
102
RTVSPost2010PropOp41
 70
     1
102
RTVSPost2010Prop42
 90
       50
102
RTVSPost2010PropOp42
 70
     1
102
RTVSPost2010Prop43
 90
        3
102
RTVSPost2010PropOp43
 70
     1
102
RTVSPost2010Prop44ColorIndex
 90
        5
102
RTVSPost2010Prop44ColorRGB
 90
      255
102
RTVSPost2010PropOp44
 70
     1
102
RTVSPost2010Prop45
280
     0
102
RTVSPost2010PropOp45
 70
     1
102
RTVSPost2010Prop46
 90
       50
102
RTVSPost2010PropOp46
 70
     1
102
RTVSPost2010Prop47
 90
       50
102
RTVSPost2010PropOp47
 70
     1
102
RTVSPost2010Prop48
 90
       50
102
RTVSPost2010PropOp48
 70
     1
102
RTVSPost2010Prop49
280
     0
102
RTVSPost2010PropOp49
 70
     1
102
RTVSPost2010Prop50
 90
       50
102
RTVSPost2010PropOp50
 70
     1
102
RTVSPost2010Prop51ColorIndex
 90
      256
102
RTVSPost2010Prop51ColorRGB
 90
-16777216
102
RTVSPost2010PropOp51
 70
     0
102
RTVSPost2010Prop52
140
1.0
102
RTVSPost2010PropOp52
 70
     0
102
RTVSPost2010Prop53
 90
        2
102
RTVSPost2010PropOp53
 70
     1
102
RTVSPost2010Prop54
  1
strokes_ogs.tif
102
RTVSPost2010PropOp54
 70
     1
102
RTVSPost2010Prop55
280
     0
102
RTVSPost2010PropOp55
 70
     1
102
RTVSPost2010Prop56
140
1.0
102
RTVSPost2010PropOp56
 70
     1
102
RTVSPost2010Prop57
140
1.0
102
RTVSPost2010PropOp57
 70
     1
  0
XRECORD
  5
324
102
{ACAD_REACTORS
330
323
102
}
330
323
100
AcDbXrecord
280
     1
102
RTVSPropertyOp0
 70
     1
102
RTVSPropertyOp1
 70
     1
102
RTVSPropertyOp2
 70
     1
102
RTVSPropertyOp3
 70
     1
102
RTVSPropertyOp4
 70
     1
102
RTVSPropertyOp5
 70
     1
102
RTVSPropertyOp6
 70
     1
102
RTVSPropertyOp7
 70
     1
102
RTVSPropertyOp8
 70
     1
102
RTVSPropertyOp9
 70
     1
102
RTVSPropertyOp10
 70
     1
102
RTVSPropertyOp11
 70
     1
102
RTVSPropertyOp12
 70
     1
102
RTVSPropertyOp13
 70
     1
102
RTVSPropertyOp14
 70
     1
102
RTVSPropertyOp15
 70
     1
102
RTVSPropertyOp16
 70
     1
102
RTVSPropertyOp17
 70
     1
102
RTVSPropertyOp18
 70
     1
102
RTVSPropertyOp19
 70
     1
102
RTVSPropertyOp20
 70
     1
102
RTVSPropertyOp21
 70
     1
102
RTVSPropertyOp22
 70
     1
102
RTVSPropertyOp23
 70
     1
102
RTVSPropertyOp24
 70
     1
102
RTVSPropertyOp25
 70
     1
102
RTVSPropertyOp26
 70
     1
102
RTVSPropertyOp27
 70
     1
102
RTVSPropertyOp28
 70
     1
102
RTVSPropertyOp29
 70
     1
102
RTVSPropertyOp30
 70
     1
102
RTVSPropertyOp31
 70
     1
102
RTVSPropertyOp32
 70
     1
102
RTVSPropertyOp33
 70
     1
102
RTVSPropertyOp34
 70
     1
102
RTVSPropertyOp35
 70
     1
102
RTVSPropertyOp36
 70
     1
102
RTVSPropertyOp37
 70
     1
102
RTVSPropertyOp38
 70
     1
102
RTVSPropertyOp39
 70
     1
102
RTVSPropertyOp40
 70
     1
102
RTVSPropertyOp41
 70
     1
102
RTVSPropertyOp42
 70
     1
102
RTVSPropertyOp43
 70
     1
102
RTVSPropertyOp44
 70
     1
102
RTVSPropertyOp45
 70
     1
102
RTVSPropertyOp46
 70
     1
102
RTVSPropertyOp47
 70
     1
102
RTVSPropertyOp48
 70
     1
102
RTVSPropertyOp49
 70
     1
102
RTVSPropertyOp50
 70
     1
102
RTVSPropertyOp51
 70
     0
102
RTVSPropertyOp52
 70
     0
102
RTVSPropertyOp53
 70
     1
102
RTVSPropertyOp54
 70
     1
102
RTVSPropertyOp55
 70
     1
102
RTVSPropertyOp56
 70
     1
102
RTVSPropertyOp57
 70
     1
102
RTVSPost2010Prop28
280
     0
102
RTVSPost2010PropOp28
 70
     1
102
RTVSPost2010Prop29
280
     1
102
RTVSPost2010PropOp29
 70
     1
102
RTVSPost2010Prop30
280
     1
102
RTVSPost2010PropOp30
 70
     1
102
RTVSPost2010Prop31
280
     0
102
RTVSPost2010PropOp31
 70
     1
102
RTVSPost2010Prop32
280
     0
102
RTVSPost2010PropOp32
 70
     1
102
RTVSPost2010Prop33
280
     0
102
RTVSPost2010PropOp33
 70
     1
102
RTVSPost2010Prop34
280
     0
102
RTVSPost2010PropOp34
 70
     1
102
RTVSPost2010Prop35
280
     0
102
RTVSPost2010PropOp35
 70
     1
102
RTVSPost2010Prop36
280
     0
102
RTVSPost2010PropOp36
 70
     1
102
RTVSPost2010Prop37
 90
       50
102
RTVSPost2010PropOp37
 70
     1
102
RTVSPost2010Prop38
140
0.0
102
RTVSPost2010PropOp38
 70
     1
102
RTVSPost2010Prop39
140
1.0
102
RTVSPost2010PropOp39
 70
     1
102
RTVSPost2010Prop40
 90
        0
102
RTVSPost2010PropOp40
 70
     1
102
RTVSPost2010Prop41ColorIndex
 90
       18
102
RTVSPost2010Prop41ColorRGB
 90
        0
102
RTVSPost2010PropOp41
 70
     1
102
RTVSPost2010Prop42
 90
       50
102
RTVSPost2010PropOp42
 70
     1
102
RTVSPost2010Prop43
 90
        3
102
RTVSPost2010PropOp43
 70
     1
102
RTVSPost2010Prop44ColorIndex
 90
        5
102
RTVSPost2010Prop44ColorRGB
 90
      255
102
RTVSPost2010PropOp44
 70
     1
102
RTVSPost2010Prop45
280
     0
102
RTVSPost2010PropOp45
 70
     1
102
RTVSPost2010Prop46
 90
       50
102
RTVSPost2010PropOp46
 70
     1
102
RTVSPost2010Prop47
 90
       50
102
RTVSPost2010PropOp47
 70
     1
102
RTVSPost2010Prop48
 90
       50
102
RTVSPost2010PropOp48
 70
     1
102
RTVSPost2010Prop49
280
     0
102
RTVSPost2010PropOp49
 70
     1
102
RTVSPost2010Prop50
 90
       50
102
RTVSPost2010PropOp50
 70
     1
102
RTVSPost2010Prop51ColorIndex
 90
      256
102
RTVSPost2010Prop51ColorRGB
 90
-16777216
102
RTVSPost2010PropOp51
 70
     0
102
RTVSPost2010Prop52
140
1.0
102
RTVSPost2010PropOp52
 70
     0
102
RTVSPost2010Prop53
 90
        2
102
RTVSPost2010PropOp53
 70
     1
102
RTVSPost2010Prop54
  1
strokes_ogs.tif
102
RTVSPost2010PropOp54
 70
     1
102
RTVSPost2010Prop55
280
     0
102
RTVSPost2010PropOp55
 70
     1
102
RTVSPost2010Prop56
140
1.0
102
RTVSPost2010PropOp56
 70
     1
102
RTVSPost2010Prop57
140
1.0
102
RTVSPost2010PropOp57
 70
     1
  0
XRECORD
  5
326
102
{ACAD_REACTORS
330
325
102
}
330
325
100
AcDbXrecord
280
     1
102
RTVSPropertyOp0
 70
     1
102
RTVSPropertyOp1
 70
     1
102
RTVSPropertyOp2
 70
     1
102
RTVSPropertyOp3
 70
     1
102
RTVSPropertyOp4
 70
     1
102
RTVSPropertyOp5
 70
     1
102
RTVSPropertyOp6
 70
     1
102
RTVSPropertyOp7
 70
     1
102
RTVSPropertyOp8
 70
     1
102
RTVSPropertyOp9
 70
     1
102
RTVSPropertyOp10
 70
     1
102
RTVSPropertyOp11
 70
     1
102
RTVSPropertyOp12
 70
     1
102
RTVSPropertyOp13
 70
     1
102
RTVSPropertyOp14
 70
     1
102
RTVSPropertyOp15
 70
     1
102
RTVSPropertyOp16
 70
     1
102
RTVSPropertyOp17
 70
     1
102
RTVSPropertyOp18
 70
     1
102
RTVSPropertyOp19
 70
     1
102
RTVSPropertyOp20
 70
     1
102
RTVSPropertyOp21
 70
     1
102
RTVSPropertyOp22
 70
     1
102
RTVSPropertyOp23
 70
     1
102
RTVSPropertyOp24
 70
     1
102
RTVSPropertyOp25
 70
     1
102
RTVSPropertyOp26
 70
     1
102
RTVSPropertyOp27
 70
     1
102
RTVSPropertyOp28
 70
     1
102
RTVSPropertyOp29
 70
     1
102
RTVSPropertyOp30
 70
     1
102
RTVSPropertyOp31
 70
     1
102
RTVSPropertyOp32
 70
     1
102
RTVSPropertyOp33
 70
     1
102
RTVSPropertyOp34
 70
     1
102
RTVSPropertyOp35
 70
     1
102
RTVSPropertyOp36
 70
     1
102
RTVSPropertyOp37
 70
     1
102
RTVSPropertyOp38
 70
     1
102
RTVSPropertyOp39
 70
     1
102
RTVSPropertyOp40
 70
     1
102
RTVSPropertyOp41
 70
     1
102
RTVSPropertyOp42
 70
     1
102
RTVSPropertyOp43
 70
     1
102
RTVSPropertyOp44
 70
     1
102
RTVSPropertyOp45
 70
     1
102
RTVSPropertyOp46
 70
     1
102
RTVSPropertyOp47
 70
     1
102
RTVSPropertyOp48
 70
     1
102
RTVSPropertyOp49
 70
     1
102
RTVSPropertyOp50
 70
     1
102
RTVSPropertyOp51
 70
     0
102
RTVSPropertyOp52
 70
     0
102
RTVSPropertyOp53
 70
     1
102
RTVSPropertyOp54
 70
     1
102
RTVSPropertyOp55
 70
     1
102
RTVSPropertyOp56
 70
     1
102
RTVSPropertyOp57
 70
     1
102
RTVSPost2010Prop28
280
     0
102
RTVSPost2010PropOp28
 70
     1
102
RTVSPost2010Prop29
280
     1
102
RTVSPost2010PropOp29
 70
     1
102
RTVSPost2010Prop30
280
     1
102
RTVSPost2010PropOp30
 70
     1
102
RTVSPost2010Prop31
280
     0
102
RTVSPost2010PropOp31
 70
     1
102
RTVSPost2010Prop32
280
     0
102
RTVSPost2010PropOp32
 70
     1
102
RTVSPost2010Prop33
280
     0
102
RTVSPost2010PropOp33
 70
     1
102
RTVSPost2010Prop34
280
     0
102
RTVSPost2010PropOp34
 70
     1
102
RTVSPost2010Prop35
280
     0
102
RTVSPost2010PropOp35
 70
     1
102
RTVSPost2010Prop36
280
     0
102
RTVSPost2010PropOp36
 70
     1
102
RTVSPost2010Prop37
 90
       50
102
RTVSPost2010PropOp37
 70
     1
102
RTVSPost2010Prop38
140
0.0
102
RTVSPost2010PropOp38
 70
     1
102
RTVSPost2010Prop39
140
1.0
102
RTVSPost2010PropOp39
 70
     1
102
RTVSPost2010Prop40
 90
        0
102
RTVSPost2010PropOp40
 70
     1
102
RTVSPost2010Prop41ColorIndex
 90
       18
102
RTVSPost2010Prop41ColorRGB
 90
        0
102
RTVSPost2010PropOp41
 70
     1
102
RTVSPost2010Prop42
 90
       50
102
RTVSPost2010PropOp42
 70
     1
102
RTVSPost2010Prop43
 90
        3
102
RTVSPost2010PropOp43
 70
     1
102
RTVSPost2010Prop44ColorIndex
 90
        5
102
RTVSPost2010Prop44ColorRGB
 90
      255
102
RTVSPost2010PropOp44
 70
     1
102
RTVSPost2010Prop45
280
     0
102
RTVSPost2010PropOp45
 70
     1
102
RTVSPost2010Prop46
 90
       50
102
RTVSPost2010PropOp46
 70
     1
102
RTVSPost2010Prop47
 90
       50
102
RTVSPost2010PropOp47
 70
     1
102
RTVSPost2010Prop48
 90
       50
102
RTVSPost2010PropOp48
 70
     1
102
RTVSPost2010Prop49
280
     0
102
RTVSPost2010PropOp49
 70
     1
102
RTVSPost2010Prop50
 90
       50
102
RTVSPost2010PropOp50
 70
     1
102
RTVSPost2010Prop51ColorIndex
 90
      256
102
RTVSPost2010Prop51ColorRGB
 90
-16777216
102
RTVSPost2010PropOp51
 70
     0
102
RTVSPost2010Prop52
140
1.0
102
RTVSPost2010PropOp52
 70
     0
102
RTVSPost2010Prop53
 90
        2
102
RTVSPost2010PropOp53
 70
     1
102
RTVSPost2010Prop54
  1
strokes_ogs.tif
102
RTVSPost2010PropOp54
 70
     1
102
RTVSPost2010Prop55
280
     0
102
RTVSPost2010PropOp55
 70
     1
102
RTVSPost2010Prop56
140
1.0
102
RTVSPost2010PropOp56
 70
     1
102
RTVSPost2010Prop57
140
1.0
102
RTVSPost2010PropOp57
 70
     1
  0
XRECORD
  5
328
102
{ACAD_REACTORS
330
327
102
}
330
327
100
AcDbXrecord
280
     1
102
RTVSPropertyOp0
 70
     1
102
RTVSPropertyOp1
 70
     1
102
RTVSPropertyOp2
 70
     1
102
RTVSPropertyOp3
 70
     1
102
RTVSPropertyOp4
 70
     1
102
RTVSPropertyOp5
 70
     1
102
RTVSPropertyOp6
 70
     1
102
RTVSPropertyOp7
 70
     1
102
RTVSPropertyOp8
 70
     1
102
RTVSPropertyOp9
 70
     1
102
RTVSPropertyOp10
 70
     1
102
RTVSPropertyOp11
 70
     1
102
RTVSPropertyOp12
 70
     1
102
RTVSPropertyOp13
 70
     1
102
RTVSPropertyOp14
 70
     1
102
RTVSPropertyOp15
 70
     1
102
RTVSPropertyOp16
 70
     1
102
RTVSPropertyOp17
 70
     1
102
RTVSPropertyOp18
 70
     1
102
RTVSPropertyOp19
 70
     1
102
RTVSPropertyOp20
 70
     1
102
RTVSPropertyOp21
 70
     1
102
RTVSPropertyOp22
 70
     1
102
RTVSPropertyOp23
 70
     1
102
RTVSPropertyOp24
 70
     1
102
RTVSPropertyOp25
 70
     1
102
RTVSPropertyOp26
 70
     1
102
RTVSPropertyOp27
 70
     1
102
RTVSPropertyOp28
 70
     1
102
RTVSPropertyOp29
 70
     1
102
RTVSPropertyOp30
 70
     1
102
RTVSPropertyOp31
 70
     1
102
RTVSPropertyOp32
 70
     1
102
RTVSPropertyOp33
 70
     1
102
RTVSPropertyOp34
 70
     1
102
RTVSPropertyOp35
 70
     1
102
RTVSPropertyOp36
 70
     1
102
RTVSPropertyOp37
 70
     1
102
RTVSPropertyOp38
 70
     1
102
RTVSPropertyOp39
 70
     1
102
RTVSPropertyOp40
 70
     1
102
RTVSPropertyOp41
 70
     1
102
RTVSPropertyOp42
 70
     1
102
RTVSPropertyOp43
 70
     1
102
RTVSPropertyOp44
 70
     1
102
RTVSPropertyOp45
 70
     1
102
RTVSPropertyOp46
 70
     1
102
RTVSPropertyOp47
 70
     1
102
RTVSPropertyOp48
 70
     1
102
RTVSPropertyOp49
 70
     1
102
RTVSPropertyOp50
 70
     1
102
RTVSPropertyOp51
 70
     0
102
RTVSPropertyOp52
 70
     0
102
RTVSPropertyOp53
 70
     1
102
RTVSPropertyOp54
 70
     1
102
RTVSPropertyOp55
 70
     1
102
RTVSPropertyOp56
 70
     1
102
RTVSPropertyOp57
 70
     1
102
RTVSPost2010Prop28
280
     0
102
RTVSPost2010PropOp28
 70
     1
102
RTVSPost2010Prop29
280
     1
102
RTVSPost2010PropOp29
 70
     1
102
RTVSPost2010Prop30
280
     1
102
RTVSPost2010PropOp30
 70
     1
102
RTVSPost2010Prop31
280
     0
102
RTVSPost2010PropOp31
 70
     1
102
RTVSPost2010Prop32
280
     0
102
RTVSPost2010PropOp32
 70
     1
102
RTVSPost2010Prop33
280
     0
102
RTVSPost2010PropOp33
 70
     1
102
RTVSPost2010Prop34
280
     0
102
RTVSPost2010PropOp34
 70
     1
102
RTVSPost2010Prop35
280
     0
102
RTVSPost2010PropOp35
 70
     1
102
RTVSPost2010Prop36
280
     0
102
RTVSPost2010PropOp36
 70
     1
102
RTVSPost2010Prop37
 90
       50
102
RTVSPost2010PropOp37
 70
     1
102
RTVSPost2010Prop38
140
0.0
102
RTVSPost2010PropOp38
 70
     1
102
RTVSPost2010Prop39
140
1.0
102
RTVSPost2010PropOp39
 70
     1
102
RTVSPost2010Prop40
 90
        0
102
RTVSPost2010PropOp40
 70
     1
102
RTVSPost2010Prop41ColorIndex
 90
       18
102
RTVSPost2010Prop41ColorRGB
 90
        0
102
RTVSPost2010PropOp41
 70
     1
102
RTVSPost2010Prop42
 90
       50
102
RTVSPost2010PropOp42
 70
     1
102
RTVSPost2010Prop43
 90
        3
102
RTVSPost2010PropOp43
 70
     1
102
RTVSPost2010Prop44ColorIndex
 90
        5
102
RTVSPost2010Prop44ColorRGB
 90
      255
102
RTVSPost2010PropOp44
 70
     1
102
RTVSPost2010Prop45
280
     0
102
RTVSPost2010PropOp45
 70
     1
102
RTVSPost2010Prop46
 90
       50
102
RTVSPost2010PropOp46
 70
     1
102
RTVSPost2010Prop47
 90
       50
102
RTVSPost2010PropOp47
 70
     1
102
RTVSPost2010Prop48
 90
       50
102
RTVSPost2010PropOp48
 70
     1
102
RTVSPost2010Prop49
280
     0
102
RTVSPost2010PropOp49
 70
     1
102
RTVSPost2010Prop50
 90
       50
102
RTVSPost2010PropOp50
 70
     1
102
RTVSPost2010Prop51ColorIndex
 90
      256
102
RTVSPost2010Prop51ColorRGB
 90
-16777216
102
RTVSPost2010PropOp51
 70
     0
102
RTVSPost2010Prop52
140
1.0
102
RTVSPost2010PropOp52
 70
     0
102
RTVSPost2010Prop53
 90
        2
102
RTVSPost2010PropOp53
 70
     1
102
RTVSPost2010Prop54
  1
strokes_ogs.tif
102
RTVSPost2010PropOp54
 70
     1
102
RTVSPost2010Prop55
280
     0
102
RTVSPost2010PropOp55
 70
     1
102
RTVSPost2010Prop56
140
1.0
102
RTVSPost2010PropOp56
 70
     1
102
RTVSPost2010Prop57
140
1.0
102
RTVSPost2010PropOp57
 70
     1
  0
XRECORD
  5
32E
102
{ACAD_REACTORS
330
32D
102
}
330
32D
100
AcDbXrecord
280
     1
102
RTVSPropertyOp0
 70
     1
102
RTVSPropertyOp1
 70
     1
102
RTVSPropertyOp2
 70
     1
102
RTVSPropertyOp3
 70
     1
102
RTVSPropertyOp4
 70
     1
102
RTVSPropertyOp5
 70
     1
102
RTVSPropertyOp6
 70
     1
102
RTVSPropertyOp7
 70
     1
102
RTVSPropertyOp8
 70
     1
102
RTVSPropertyOp9
 70
     1
102
RTVSPropertyOp10
 70
     1
102
RTVSPropertyOp11
 70
     1
102
RTVSPropertyOp12
 70
     1
102
RTVSPropertyOp13
 70
     1
102
RTVSPropertyOp14
 70
     1
102
RTVSPropertyOp15
 70
     1
102
RTVSPropertyOp16
 70
     1
102
RTVSPropertyOp17
 70
     1
102
RTVSPropertyOp18
 70
     1
102
RTVSPropertyOp19
 70
     1
102
RTVSPropertyOp20
 70
     1
102
RTVSPropertyOp21
 70
     1
102
RTVSPropertyOp22
 70
     1
102
RTVSPropertyOp23
 70
     1
102
RTVSPropertyOp24
 70
     1
102
RTVSPropertyOp25
 70
     1
102
RTVSPropertyOp26
 70
     1
102
RTVSPropertyOp27
 70
     1
102
RTVSPropertyOp28
 70
     1
102
RTVSPropertyOp29
 70
     1
102
RTVSPropertyOp30
 70
     1
102
RTVSPropertyOp31
 70
     1
102
RTVSPropertyOp32
 70
     1
102
RTVSPropertyOp33
 70
     1
102
RTVSPropertyOp34
 70
     1
102
RTVSPropertyOp35
 70
     1
102
RTVSPropertyOp36
 70
     1
102
RTVSPropertyOp37
 70
     1
102
RTVSPropertyOp38
 70
     1
102
RTVSPropertyOp39
 70
     1
102
RTVSPropertyOp40
 70
     1
102
RTVSPropertyOp41
 70
     1
102
RTVSPropertyOp42
 70
     1
102
RTVSPropertyOp43
 70
     1
102
RTVSPropertyOp44
 70
     1
102
RTVSPropertyOp45
 70
     1
102
RTVSPropertyOp46
 70
     1
102
RTVSPropertyOp47
 70
     1
102
RTVSPropertyOp48
 70
     1
102
RTVSPropertyOp49
 70
     1
102
RTVSPropertyOp50
 70
     1
102
RTVSPropertyOp51
 70
     0
102
RTVSPropertyOp52
 70
     0
102
RTVSPropertyOp53
 70
     1
102
RTVSPropertyOp54
 70
     1
102
RTVSPropertyOp55
 70
     1
102
RTVSPropertyOp56
 70
     1
102
RTVSPropertyOp57
 70
     1
102
RTVSPost2010Prop28
280
     0
102
RTVSPost2010PropOp28
 70
     1
102
RTVSPost2010Prop29
280
     1
102
RTVSPost2010PropOp29
 70
     1
102
RTVSPost2010Prop30
280
     1
102
RTVSPost2010PropOp30
 70
     1
102
RTVSPost2010Prop31
280
     0
102
RTVSPost2010PropOp31
 70
     1
102
RTVSPost2010Prop32
280
     0
102
RTVSPost2010PropOp32
 70
     1
102
RTVSPost2010Prop33
280
     0
102
RTVSPost2010PropOp33
 70
     1
102
RTVSPost2010Prop34
280
     0
102
RTVSPost2010PropOp34
 70
     1
102
RTVSPost2010Prop35
280
     0
102
RTVSPost2010PropOp35
 70
     1
102
RTVSPost2010Prop36
280
     0
102
RTVSPost2010PropOp36
 70
     1
102
RTVSPost2010Prop37
 90
       50
102
RTVSPost2010PropOp37
 70
     1
102
RTVSPost2010Prop38
140
0.0
102
RTVSPost2010PropOp38
 70
     1
102
RTVSPost2010Prop39
140
1.0
102
RTVSPost2010PropOp39
 70
     1
102
RTVSPost2010Prop40
 90
        0
102
RTVSPost2010PropOp40
 70
     1
102
RTVSPost2010Prop41ColorIndex
 90
       18
102
RTVSPost2010Prop41ColorRGB
 90
        0
102
RTVSPost2010PropOp41
 70
     1
102
RTVSPost2010Prop42
 90
       50
102
RTVSPost2010PropOp42
 70
     1
102
RTVSPost2010Prop43
 90
        3
102
RTVSPost2010PropOp43
 70
     1
102
RTVSPost2010Prop44ColorIndex
 90
        5
102
RTVSPost2010Prop44ColorRGB
 90
      255
102
RTVSPost2010PropOp44
 70
     1
102
RTVSPost2010Prop45
280
     0
102
RTVSPost2010PropOp45
 70
     1
102
RTVSPost2010Prop46
 90
       50
102
RTVSPost2010PropOp46
 70
     1
102
RTVSPost2010Prop47
 90
       50
102
RTVSPost2010PropOp47
 70
     1
102
RTVSPost2010Prop48
 90
       50
102
RTVSPost2010PropOp48
 70
     1
102
RTVSPost2010Prop49
280
     0
102
RTVSPost2010PropOp49
 70
     1
102
RTVSPost2010Prop50
 90
       50
102
RTVSPost2010PropOp50
 70
     1
102
RTVSPost2010Prop51ColorIndex
 90
      256
102
RTVSPost2010Prop51ColorRGB
 90
-16777216
102
RTVSPost2010PropOp51
 70
     0
102
RTVSPost2010Prop52
140
1.0
102
RTVSPost2010PropOp52
 70
     0
102
RTVSPost2010Prop53
 90
        2
102
RTVSPost2010PropOp53
 70
     1
102
RTVSPost2010Prop54
  1
strokes_ogs.tif
102
RTVSPost2010PropOp54
 70
     1
102
RTVSPost2010Prop55
280
     0
102
RTVSPost2010PropOp55
 70
     1
102
RTVSPost2010Prop56
140
1.0
102
RTVSPost2010PropOp56
 70
     1
102
RTVSPost2010Prop57
140
1.0
102
RTVSPost2010PropOp57
 70
     1
  0
XRECORD
  5
342
102
{ACAD_REACTORS
330
341
102
}
330
341
100
AcDbXrecord
280
     1
102
RTVSPropertyOp0
 70
     0
102
RTVSPropertyOp1
 70
     0
102
RTVSPropertyOp2
 70
     0
102
RTVSPropertyOp3
 70
     0
102
RTVSPropertyOp4
 70
     0
102
RTVSPropertyOp5
 70
     0
102
RTVSPropertyOp6
 70
     0
102
RTVSPropertyOp7
 70
     0
102
RTVSPropertyOp8
 70
     0
102
RTVSPropertyOp9
 70
     0
102
RTVSPropertyOp10
 70
     0
102
RTVSPropertyOp11
 70
     0
102
RTVSPropertyOp12
 70
     0
102
RTVSPropertyOp13
 70
     0
102
RTVSPropertyOp14
 70
     2
102
RTVSPropertyOp15
 70
     0
102
RTVSPropertyOp16
 70
     0
102
RTVSPropertyOp17
 70
     0
102
RTVSPropertyOp18
 70
     0
102
RTVSPropertyOp19
 70
     0
102
RTVSPropertyOp20
 70
     0
102
RTVSPropertyOp21
 70
     0
102
RTVSPropertyOp22
 70
     0
102
RTVSPropertyOp23
 70
     0
102
RTVSPropertyOp24
 70
     0
102
RTVSPropertyOp25
 70
     0
102
RTVSPropertyOp26
 70
     0
102
RTVSPropertyOp27
 70
     0
102
RTVSPropertyOp28
 70
     0
102
RTVSPropertyOp29
 70
     0
102
RTVSPropertyOp30
 70
     0
102
RTVSPropertyOp31
 70
     0
102
RTVSPropertyOp32
 70
     0
102
RTVSPropertyOp33
 70
     0
102
RTVSPropertyOp34
 70
     0
102
RTVSPropertyOp35
 70
     0
102
RTVSPropertyOp36
 70
     0
102
RTVSPropertyOp37
 70
     0
102
RTVSPropertyOp38
 70
     0
102
RTVSPropertyOp39
 70
     0
102
RTVSPropertyOp40
 70
     0
102
RTVSPropertyOp41
 70
     0
102
RTVSPropertyOp42
 70
     0
102
RTVSPropertyOp43
 70
     0
102
RTVSPropertyOp44
 70
     0
102
RTVSPropertyOp45
 70
     0
102
RTVSPropertyOp46
 70
     0
102
RTVSPropertyOp47
 70
     0
102
RTVSPropertyOp48
 70
     0
102
RTVSPropertyOp49
 70
     0
102
RTVSPropertyOp50
 70
     0
102
RTVSPropertyOp51
 70
     0
102
RTVSPropertyOp52
 70
     0
102
RTVSPropertyOp53
 70
     0
102
RTVSPropertyOp54
 70
     0
102
RTVSPropertyOp55
 70
     0
102
RTVSPropertyOp56
 70
     0
102
RTVSPropertyOp57
 70
     0
102
RTVSPost2010Prop28
280
     0
102
RTVSPost2010PropOp28
 70
     0
102
RTVSPost2010Prop29
280
     1
102
RTVSPost2010PropOp29
 70
     0
102
RTVSPost2010Prop30
280
     1
102
RTVSPost2010PropOp30
 70
     0
102
RTVSPost2010Prop31
280
     0
102
RTVSPost2010PropOp31
 70
     0
102
RTVSPost2010Prop32
280
     0
102
RTVSPost2010PropOp32
 70
     0
102
RTVSPost2010Prop33
280
     0
102
RTVSPost2010PropOp33
 70
     0
102
RTVSPost2010Prop34
280
     0
102
RTVSPost2010PropOp34
 70
     0
102
RTVSPost2010Prop35
280
     0
102
RTVSPost2010PropOp35
 70
     0
102
RTVSPost2010Prop36
280
     0
102
RTVSPost2010PropOp36
 70
     0
102
RTVSPost2010Prop37
 90
       50
102
RTVSPost2010PropOp37
 70
     0
102
RTVSPost2010Prop38
140
0.0
102
RTVSPost2010PropOp38
 70
     0
102
RTVSPost2010Prop39
140
1.0
102
RTVSPost2010PropOp39
 70
     0
102
RTVSPost2010Prop40
 90
        0
102
RTVSPost2010PropOp40
 70
     0
102
RTVSPost2010Prop41ColorIndex
 90
       18
102
RTVSPost2010Prop41ColorRGB
 90
        0
102
RTVSPost2010PropOp41
 70
     0
102
RTVSPost2010Prop42
 90
       50
102
RTVSPost2010PropOp42
 70
     0
102
RTVSPost2010Prop43
 90
        3
102
RTVSPost2010PropOp43
 70
     0
102
RTVSPost2010Prop44ColorIndex
 90
        5
102
RTVSPost2010Prop44ColorRGB
 90
      255
102
RTVSPost2010PropOp44
 70
     0
102
RTVSPost2010Prop45
280
     0
102
RTVSPost2010PropOp45
 70
     0
102
RTVSPost2010Prop46
 90
       50
102
RTVSPost2010PropOp46
 70
     0
102
RTVSPost2010Prop47
 90
       50
102
RTVSPost2010PropOp47
 70
     0
102
RTVSPost2010Prop48
 90
       50
102
RTVSPost2010PropOp48
 70
     0
102
RTVSPost2010Prop49
280
     0
102
RTVSPost2010PropOp49
 70
     0
102
RTVSPost2010Prop50
 90
       50
102
RTVSPost2010PropOp50
 70
     0
102
RTVSPost2010Prop51ColorIndex
 90
      256
102
RTVSPost2010Prop51ColorRGB
 90
-16777216
102
RTVSPost2010PropOp51
 70
     0
102
RTVSPost2010Prop52
140
1.0
102
RTVSPost2010PropOp52
 70
     0
102
RTVSPost2010Prop53
 90
        2
102
RTVSPost2010PropOp53
 70
     0
102
RTVSPost2010Prop54
  1
strokes_ogs.tif
102
RTVSPost2010PropOp54
 70
     0
102
RTVSPost2010Prop55
280
     0
102
RTVSPost2010PropOp55
 70
     0
102
RTVSPost2010Prop56
140
1.0
102
RTVSPost2010PropOp56
 70
     0
102
RTVSPost2010Prop57
140
1.0
102
RTVSPost2010PropOp57
 70
     0
  0
XRECORD
  5
33C
102
{ACAD_REACTORS
330
33B
102
}
330
33B
100
AcDbXrecord
280
     1
102
RTVSPropertyOp0
 70
     1
102
RTVSPropertyOp1
 70
     1
102
RTVSPropertyOp2
 70
     1
102
RTVSPropertyOp3
 70
     1
102
RTVSPropertyOp4
 70
     1
102
RTVSPropertyOp5
 70
     1
102
RTVSPropertyOp6
 70
     1
102
RTVSPropertyOp7
 70
     1
102
RTVSPropertyOp8
 70
     1
102
RTVSPropertyOp9
 70
     1
102
RTVSPropertyOp10
 70
     1
102
RTVSPropertyOp11
 70
     1
102
RTVSPropertyOp12
 70
     1
102
RTVSPropertyOp13
 70
     1
102
RTVSPropertyOp14
 70
     1
102
RTVSPropertyOp15
 70
     1
102
RTVSPropertyOp16
 70
     1
102
RTVSPropertyOp17
 70
     1
102
RTVSPropertyOp18
 70
     1
102
RTVSPropertyOp19
 70
     1
102
RTVSPropertyOp20
 70
     1
102
RTVSPropertyOp21
 70
     1
102
RTVSPropertyOp22
 70
     1
102
RTVSPropertyOp23
 70
     1
102
RTVSPropertyOp24
 70
     1
102
RTVSPropertyOp25
 70
     1
102
RTVSPropertyOp26
 70
     1
102
RTVSPropertyOp27
 70
     1
102
RTVSPropertyOp28
 70
     1
102
RTVSPropertyOp29
 70
     1
102
RTVSPropertyOp30
 70
     1
102
RTVSPropertyOp31
 70
     1
102
RTVSPropertyOp32
 70
     1
102
RTVSPropertyOp33
 70
     1
102
RTVSPropertyOp34
 70
     1
102
RTVSPropertyOp35
 70
     1
102
RTVSPropertyOp36
 70
     1
102
RTVSPropertyOp37
 70
     1
102
RTVSPropertyOp38
 70
     1
102
RTVSPropertyOp39
 70
     1
102
RTVSPropertyOp40
 70
     1
102
RTVSPropertyOp41
 70
     1
102
RTVSPropertyOp42
 70
     1
102
RTVSPropertyOp43
 70
     1
102
RTVSPropertyOp44
 70
     1
102
RTVSPropertyOp45
 70
     1
102
RTVSPropertyOp46
 70
     1
102
RTVSPropertyOp47
 70
     1
102
RTVSPropertyOp48
 70
     1
102
RTVSPropertyOp49
 70
     1
102
RTVSPropertyOp50
 70
     1
102
RTVSPropertyOp51
 70
     0
102
RTVSPropertyOp52
 70
     0
102
RTVSPropertyOp53
 70
     1
102
RTVSPropertyOp54
 70
     1
102
RTVSPropertyOp55
 70
     1
102
RTVSPropertyOp56
 70
     1
102
RTVSPropertyOp57
 70
     1
102
RTVSPost2010Prop28
280
     0
102
RTVSPost2010PropOp28
 70
     1
102
RTVSPost2010Prop29
280
     1
102
RTVSPost2010PropOp29
 70
     1
102
RTVSPost2010Prop30
280
     1
102
RTVSPost2010PropOp30
 70
     1
102
RTVSPost2010Prop31
280
     0
102
RTVSPost2010PropOp31
 70
     1
102
RTVSPost2010Prop32
280
     0
102
RTVSPost2010PropOp32
 70
     1
102
RTVSPost2010Prop33
280
     0
102
RTVSPost2010PropOp33
 70
     1
102
RTVSPost2010Prop34
280
     0
102
RTVSPost2010PropOp34
 70
     1
102
RTVSPost2010Prop35
280
     0
102
RTVSPost2010PropOp35
 70
     1
102
RTVSPost2010Prop36
280
     0
102
RTVSPost2010PropOp36
 70
     1
102
RTVSPost2010Prop37
 90
       50
102
RTVSPost2010PropOp37
 70
     1
102
RTVSPost2010Prop38
140
0.0
102
RTVSPost2010PropOp38
 70
     1
102
RTVSPost2010Prop39
140
1.0
102
RTVSPost2010PropOp39
 70
     1
102
RTVSPost2010Prop40
 90
        0
102
RTVSPost2010PropOp40
 70
     1
102
RTVSPost2010Prop41ColorIndex
 90
       18
102
RTVSPost2010Prop41ColorRGB
 90
        0
102
RTVSPost2010PropOp41
 70
     1
102
RTVSPost2010Prop42
 90
       50
102
RTVSPost2010PropOp42
 70
     1
102
RTVSPost2010Prop43
 90
        3
102
RTVSPost2010PropOp43
 70
     1
102
RTVSPost2010Prop44ColorIndex
 90
        5
102
RTVSPost2010Prop44ColorRGB
 90
      255
102
RTVSPost2010PropOp44
 70
     1
102
RTVSPost2010Prop45
280
     0
102
RTVSPost2010PropOp45
 70
     1
102
RTVSPost2010Prop46
 90
       50
102
RTVSPost2010PropOp46
 70
     1
102
RTVSPost2010Prop47
 90
       50
102
RTVSPost2010PropOp47
 70
     1
102
RTVSPost2010Prop48
 90
       50
102
RTVSPost2010PropOp48
 70
     1
102
RTVSPost2010Prop49
280
     0
102
RTVSPost2010PropOp49
 70
     1
102
RTVSPost2010Prop50
 90
       50
102
RTVSPost2010PropOp50
 70
     1
102
RTVSPost2010Prop51ColorIndex
 90
      256
102
RTVSPost2010Prop51ColorRGB
 90
-16777216
102
RTVSPost2010PropOp51
 70
     0
102
RTVSPost2010Prop52
140
1.0
102
RTVSPost2010PropOp52
 70
     0
102
RTVSPost2010Prop53
 90
        2
102
RTVSPost2010PropOp53
 70
     1
102
RTVSPost2010Prop54
  1
strokes_ogs.tif
102
RTVSPost2010PropOp54
 70
     1
102
RTVSPost2010Prop55
280
     0
102
RTVSPost2010PropOp55
 70
     1
102
RTVSPost2010Prop56
140
1.0
102
RTVSPost2010PropOp56
 70
     1
102
RTVSPost2010Prop57
140
1.0
102
RTVSPost2010PropOp57
 70
     1
  0
XRECORD
  5
344
102
{ACAD_REACTORS
330
343
102
}
330
343
100
AcDbXrecord
280
     1
102
RTVSPropertyOp0
 70
     0
102
RTVSPropertyOp1
 70
     0
102
RTVSPropertyOp2
 70
     0
102
RTVSPropertyOp3
 70
     0
102
RTVSPropertyOp4
 70
     0
102
RTVSPropertyOp5
 70
     0
102
RTVSPropertyOp6
 70
     0
102
RTVSPropertyOp7
 70
     0
102
RTVSPropertyOp8
 70
     0
102
RTVSPropertyOp9
 70
     0
102
RTVSPropertyOp10
 70
     0
102
RTVSPropertyOp11
 70
     0
102
RTVSPropertyOp12
 70
     0
102
RTVSPropertyOp13
 70
     0
102
RTVSPropertyOp14
 70
     2
102
RTVSPropertyOp15
 70
     0
102
RTVSPropertyOp16
 70
     0
102
RTVSPropertyOp17
 70
     0
102
RTVSPropertyOp18
 70
     0
102
RTVSPropertyOp19
 70
     0
102
RTVSPropertyOp20
 70
     0
102
RTVSPropertyOp21
 70
     0
102
RTVSPropertyOp22
 70
     0
102
RTVSPropertyOp23
 70
     0
102
RTVSPropertyOp24
 70
     0
102
RTVSPropertyOp25
 70
     0
102
RTVSPropertyOp26
 70
     0
102
RTVSPropertyOp27
 70
     0
102
RTVSPropertyOp28
 70
     0
102
RTVSPropertyOp29
 70
     0
102
RTVSPropertyOp30
 70
     0
102
RTVSPropertyOp31
 70
     0
102
RTVSPropertyOp32
 70
     0
102
RTVSPropertyOp33
 70
     0
102
RTVSPropertyOp34
 70
     0
102
RTVSPropertyOp35
 70
     0
102
RTVSPropertyOp36
 70
     0
102
RTVSPropertyOp37
 70
     0
102
RTVSPropertyOp38
 70
     0
102
RTVSPropertyOp39
 70
     0
102
RTVSPropertyOp40
 70
     0
102
RTVSPropertyOp41
 70
     0
102
RTVSPropertyOp42
 70
     0
102
RTVSPropertyOp43
 70
     0
102
RTVSPropertyOp44
 70
     0
102
RTVSPropertyOp45
 70
     0
102
RTVSPropertyOp46
 70
     0
102
RTVSPropertyOp47
 70
     0
102
RTVSPropertyOp48
 70
     0
102
RTVSPropertyOp49
 70
     0
102
RTVSPropertyOp50
 70
     0
102
RTVSPropertyOp51
 70
     0
102
RTVSPropertyOp52
 70
     0
102
RTVSPropertyOp53
 70
     0
102
RTVSPropertyOp54
 70
     0
102
RTVSPropertyOp55
 70
     0
102
RTVSPropertyOp56
 70
     0
102
RTVSPropertyOp57
 70
     0
102
RTVSPost2010Prop28
280
     0
102
RTVSPost2010PropOp28
 70
     0
102
RTVSPost2010Prop29
280
     1
102
RTVSPost2010PropOp29
 70
     0
102
RTVSPost2010Prop30
280
     1
102
RTVSPost2010PropOp30
 70
     0
102
RTVSPost2010Prop31
280
     0
102
RTVSPost2010PropOp31
 70
     0
102
RTVSPost2010Prop32
280
     0
102
RTVSPost2010PropOp32
 70
     0
102
RTVSPost2010Prop33
280
     0
102
RTVSPost2010PropOp33
 70
     0
102
RTVSPost2010Prop34
280
     0
102
RTVSPost2010PropOp34
 70
     0
102
RTVSPost2010Prop35
280
     0
102
RTVSPost2010PropOp35
 70
     0
102
RTVSPost2010Prop36
280
     0
102
RTVSPost2010PropOp36
 70
     0
102
RTVSPost2010Prop37
 90
       50
102
RTVSPost2010PropOp37
 70
     0
102
RTVSPost2010Prop38
140
0.0
102
RTVSPost2010PropOp38
 70
     0
102
RTVSPost2010Prop39
140
1.0
102
RTVSPost2010PropOp39
 70
     0
102
RTVSPost2010Prop40
 90
        0
102
RTVSPost2010PropOp40
 70
     0
102
RTVSPost2010Prop41ColorIndex
 90
       18
102
RTVSPost2010Prop41ColorRGB
 90
        0
102
RTVSPost2010PropOp41
 70
     0
102
RTVSPost2010Prop42
 90
       50
102
RTVSPost2010PropOp42
 70
     0
102
RTVSPost2010Prop43
 90
        3
102
RTVSPost2010PropOp43
 70
     0
102
RTVSPost2010Prop44ColorIndex
 90
        5
102
RTVSPost2010Prop44ColorRGB
 90
      255
102
RTVSPost2010PropOp44
 70
     0
102
RTVSPost2010Prop45
280
     0
102
RTVSPost2010PropOp45
 70
     0
102
RTVSPost2010Prop46
 90
       50
102
RTVSPost2010PropOp46
 70
     0
102
RTVSPost2010Prop47
 90
       50
102
RTVSPost2010PropOp47
 70
     0
102
RTVSPost2010Prop48
 90
       50
102
RTVSPost2010PropOp48
 70
     0
102
RTVSPost2010Prop49
280
     0
102
RTVSPost2010PropOp49
 70
     0
102
RTVSPost2010Prop50
 90
       50
102
RTVSPost2010PropOp50
 70
     0
102
RTVSPost2010Prop51ColorIndex
 90
      256
102
RTVSPost2010Prop51ColorRGB
 90
-16777216
102
RTVSPost2010PropOp51
 70
     0
102
RTVSPost2010Prop52
140
1.0
102
RTVSPost2010PropOp52
 70
     0
102
RTVSPost2010Prop53
 90
        2
102
RTVSPost2010PropOp53
 70
     0
102
RTVSPost2010Prop54
  1
strokes_ogs.tif
102
RTVSPost2010PropOp54
 70
     0
102
RTVSPost2010Prop55
280
     0
102
RTVSPost2010PropOp55
 70
     0
102
RTVSPost2010Prop56
140
1.0
102
RTVSPost2010PropOp56
 70
     0
102
RTVSPost2010Prop57
140
1.0
102
RTVSPost2010PropOp57
 70
     0
  0
XRECORD
  5
332
102
{ACAD_REACTORS
330
331
102
}
330
331
100
AcDbXrecord
280
     1
102
RTVSPropertyOp0
 70
     1
102
RTVSPropertyOp1
 70
     1
102
RTVSPropertyOp2
 70
     1
102
RTVSPropertyOp3
 70
     1
102
RTVSPropertyOp4
 70
     1
102
RTVSPropertyOp5
 70
     1
102
RTVSPropertyOp6
 70
     1
102
RTVSPropertyOp7
 70
     1
102
RTVSPropertyOp8
 70
     1
102
RTVSPropertyOp9
 70
     1
102
RTVSPropertyOp10
 70
     1
102
RTVSPropertyOp11
 70
     1
102
RTVSPropertyOp12
 70
     1
102
RTVSPropertyOp13
 70
     1
102
RTVSPropertyOp14
 70
     1
102
RTVSPropertyOp15
 70
     1
102
RTVSPropertyOp16
 70
     1
102
RTVSPropertyOp17
 70
     1
102
RTVSPropertyOp18
 70
     1
102
RTVSPropertyOp19
 70
     1
102
RTVSPropertyOp20
 70
     1
102
RTVSPropertyOp21
 70
     1
102
RTVSPropertyOp22
 70
     1
102
RTVSPropertyOp23
 70
     1
102
RTVSPropertyOp24
 70
     1
102
RTVSPropertyOp25
 70
     1
102
RTVSPropertyOp26
 70
     1
102
RTVSPropertyOp27
 70
     1
102
RTVSPropertyOp28
 70
     1
102
RTVSPropertyOp29
 70
     1
102
RTVSPropertyOp30
 70
     1
102
RTVSPropertyOp31
 70
     1
102
RTVSPropertyOp32
 70
     1
102
RTVSPropertyOp33
 70
     1
102
RTVSPropertyOp34
 70
     1
102
RTVSPropertyOp35
 70
     1
102
RTVSPropertyOp36
 70
     1
102
RTVSPropertyOp37
 70
     1
102
RTVSPropertyOp38
 70
     1
102
RTVSPropertyOp39
 70
     1
102
RTVSPropertyOp40
 70
     1
102
RTVSPropertyOp41
 70
     1
102
RTVSPropertyOp42
 70
     1
102
RTVSPropertyOp43
 70
     1
102
RTVSPropertyOp44
 70
     1
102
RTVSPropertyOp45
 70
     1
102
RTVSPropertyOp46
 70
     1
102
RTVSPropertyOp47
 70
     1
102
RTVSPropertyOp48
 70
     1
102
RTVSPropertyOp49
 70
     1
102
RTVSPropertyOp50
 70
     1
102
RTVSPropertyOp51
 70
     0
102
RTVSPropertyOp52
 70
     0
102
RTVSPropertyOp53
 70
     1
102
RTVSPropertyOp54
 70
     1
102
RTVSPropertyOp55
 70
     1
102
RTVSPropertyOp56
 70
     1
102
RTVSPropertyOp57
 70
     1
102
RTVSPost2010Prop28
280
     0
102
RTVSPost2010PropOp28
 70
     1
102
RTVSPost2010Prop29
280
     1
102
RTVSPost2010PropOp29
 70
     1
102
RTVSPost2010Prop30
280
     1
102
RTVSPost2010PropOp30
 70
     1
102
RTVSPost2010Prop31
280
     0
102
RTVSPost2010PropOp31
 70
     1
102
RTVSPost2010Prop32
280
     0
102
RTVSPost2010PropOp32
 70
     1
102
RTVSPost2010Prop33
280
     0
102
RTVSPost2010PropOp33
 70
     1
102
RTVSPost2010Prop34
280
     0
102
RTVSPost2010PropOp34
 70
     1
102
RTVSPost2010Prop35
280
     0
102
RTVSPost2010PropOp35
 70
     1
102
RTVSPost2010Prop36
280
     0
102
RTVSPost2010PropOp36
 70
     1
102
RTVSPost2010Prop37
 90
       50
102
RTVSPost2010PropOp37
 70
     1
102
RTVSPost2010Prop38
140
0.0
102
RTVSPost2010PropOp38
 70
     1
102
RTVSPost2010Prop39
140
1.0
102
RTVSPost2010PropOp39
 70
     1
102
RTVSPost2010Prop40
 90
        0
102
RTVSPost2010PropOp40
 70
     1
102
RTVSPost2010Prop41ColorIndex
 90
       18
102
RTVSPost2010Prop41ColorRGB
 90
        0
102
RTVSPost2010PropOp41
 70
     1
102
RTVSPost2010Prop42
 90
       50
102
RTVSPost2010PropOp42
 70
     1
102
RTVSPost2010Prop43
 90
        3
102
RTVSPost2010PropOp43
 70
     1
102
RTVSPost2010Prop44ColorIndex
 90
        5
102
RTVSPost2010Prop44ColorRGB
 90
      255
102
RTVSPost2010PropOp44
 70
     1
102
RTVSPost2010Prop45
280
     0
102
RTVSPost2010PropOp45
 70
     1
102
RTVSPost2010Prop46
 90
       50
102
RTVSPost2010PropOp46
 70
     1
102
RTVSPost2010Prop47
 90
       50
102
RTVSPost2010PropOp47
 70
     1
102
RTVSPost2010Prop48
 90
       50
102
RTVSPost2010PropOp48
 70
     1
102
RTVSPost2010Prop49
280
     0
102
RTVSPost2010PropOp49
 70
     1
102
RTVSPost2010Prop50
 90
       50
102
RTVSPost2010PropOp50
 70
     1
102
RTVSPost2010Prop51ColorIndex
 90
      256
102
RTVSPost2010Prop51ColorRGB
 90
-16777216
102
RTVSPost2010PropOp51
 70
     0
102
RTVSPost2010Prop52
140
1.0
102
RTVSPost2010PropOp52
 70
     0
102
RTVSPost2010Prop53
 90
        2
102
RTVSPost2010PropOp53
 70
     1
102
RTVSPost2010Prop54
  1
strokes_ogs.tif
102
RTVSPost2010PropOp54
 70
     1
102
RTVSPost2010Prop55
280
     0
102
RTVSPost2010PropOp55
 70
     1
102
RTVSPost2010Prop56
140
1.0
102
RTVSPost2010PropOp56
 70
     1
102
RTVSPost2010Prop57
140
1.0
102
RTVSPost2010PropOp57
 70
     1
  0
XRECORD
  5
350
102
{ACAD_REACTORS
330
34F
102
}
330
34F
100
AcDbXrecord
280
     1
102
RTVSPropertyOp0
 70
     1
102
RTVSPropertyOp1
 70
     1
102
RTVSPropertyOp2
 70
     1
102
RTVSPropertyOp3
 70
     1
102
RTVSPropertyOp4
 70
     1
102
RTVSPropertyOp5
 70
     1
102
RTVSPropertyOp6
 70
     1
102
RTVSPropertyOp7
 70
     1
102
RTVSPropertyOp8
 70
     1
102
RTVSPropertyOp9
 70
     1
102
RTVSPropertyOp10
 70
     1
102
RTVSPropertyOp11
 70
     1
102
RTVSPropertyOp12
 70
     1
102
RTVSPropertyOp13
 70
     1
102
RTVSPropertyOp14
 70
     1
102
RTVSPropertyOp15
 70
     1
102
RTVSPropertyOp16
 70
     1
102
RTVSPropertyOp17
 70
     1
102
RTVSPropertyOp18
 70
     1
102
RTVSPropertyOp19
 70
     1
102
RTVSPropertyOp20
 70
     1
102
RTVSPropertyOp21
 70
     1
102
RTVSPropertyOp22
 70
     1
102
RTVSPropertyOp23
 70
     1
102
RTVSPropertyOp24
 70
     1
102
RTVSPropertyOp25
 70
     1
102
RTVSPropertyOp26
 70
     1
102
RTVSPropertyOp27
 70
     1
102
RTVSPropertyOp28
 70
     1
102
RTVSPropertyOp29
 70
     1
102
RTVSPropertyOp30
 70
     1
102
RTVSPropertyOp31
 70
     1
102
RTVSPropertyOp32
 70
     1
102
RTVSPropertyOp33
 70
     1
102
RTVSPropertyOp34
 70
     1
102
RTVSPropertyOp35
 70
     1
102
RTVSPropertyOp36
 70
     1
102
RTVSPropertyOp37
 70
     1
102
RTVSPropertyOp38
 70
     1
102
RTVSPropertyOp39
 70
     1
102
RTVSPropertyOp40
 70
     1
102
RTVSPropertyOp41
 70
     1
102
RTVSPropertyOp42
 70
     1
102
RTVSPropertyOp43
 70
     1
102
RTVSPropertyOp44
 70
     1
102
RTVSPropertyOp45
 70
     1
102
RTVSPropertyOp46
 70
     1
102
RTVSPropertyOp47
 70
     1
102
RTVSPropertyOp48
 70
     1
102
RTVSPropertyOp49
 70
     1
102
RTVSPropertyOp50
 70
     1
102
RTVSPropertyOp51
 70
     0
102
RTVSPropertyOp52
 70
     0
102
RTVSPropertyOp53
 70
     1
102
RTVSPropertyOp54
 70
     1
102
RTVSPropertyOp55
 70
     1
102
RTVSPropertyOp56
 70
     1
102
RTVSPropertyOp57
 70
     1
102
RTVSPost2010Prop28
280
     0
102
RTVSPost2010PropOp28
 70
     1
102
RTVSPost2010Prop29
280
     1
102
RTVSPost2010PropOp29
 70
     1
102
RTVSPost2010Prop30
280
     1
102
RTVSPost2010PropOp30
 70
     1
102
RTVSPost2010Prop31
280
     0
102
RTVSPost2010PropOp31
 70
     1
102
RTVSPost2010Prop32
280
     0
102
RTVSPost2010PropOp32
 70
     1
102
RTVSPost2010Prop33
280
     0
102
RTVSPost2010PropOp33
 70
     1
102
RTVSPost2010Prop34
280
     0
102
RTVSPost2010PropOp34
 70
     1
102
RTVSPost2010Prop35
280
     0
102
RTVSPost2010PropOp35
 70
     1
102
RTVSPost2010Prop36
280
     0
102
RTVSPost2010PropOp36
 70
     1
102
RTVSPost2010Prop37
 90
       50
102
RTVSPost2010PropOp37
 70
     1
102
RTVSPost2010Prop38
140
0.0
102
RTVSPost2010PropOp38
 70
     1
102
RTVSPost2010Prop39
140
1.0
102
RTVSPost2010PropOp39
 70
     1
102
RTVSPost2010Prop40
 90
        0
102
RTVSPost2010PropOp40
 70
     1
102
RTVSPost2010Prop41ColorIndex
 90
       18
102
RTVSPost2010Prop41ColorRGB
 90
        0
102
RTVSPost2010PropOp41
 70
     1
102
RTVSPost2010Prop42
 90
       50
102
RTVSPost2010PropOp42
 70
     1
102
RTVSPost2010Prop43
 90
        3
102
RTVSPost2010PropOp43
 70
     1
102
RTVSPost2010Prop44ColorIndex
 90
        5
102
RTVSPost2010Prop44ColorRGB
 90
      255
102
RTVSPost2010PropOp44
 70
     1
102
RTVSPost2010Prop45
280
     0
102
RTVSPost2010PropOp45
 70
     1
102
RTVSPost2010Prop46
 90
       50
102
RTVSPost2010PropOp46
 70
     1
102
RTVSPost2010Prop47
 90
       50
102
RTVSPost2010PropOp47
 70
     1
102
RTVSPost2010Prop48
 90
       50
102
RTVSPost2010PropOp48
 70
     1
102
RTVSPost2010Prop49
280
     0
102
RTVSPost2010PropOp49
 70
     1
102
RTVSPost2010Prop50
 90
       50
102
RTVSPost2010PropOp50
 70
     1
102
RTVSPost2010Prop51ColorIndex
 90
      256
102
RTVSPost2010Prop51ColorRGB
 90
-16777216
102
RTVSPost2010PropOp51
 70
     0
102
RTVSPost2010Prop52
140
1.0
102
RTVSPost2010PropOp52
 70
     0
102
RTVSPost2010Prop53
 90
        2
102
RTVSPost2010PropOp53
 70
     1
102
RTVSPost2010Prop54
  1
strokes_ogs.tif
102
RTVSPost2010PropOp54
 70
     1
102
RTVSPost2010Prop55
280
     0
102
RTVSPost2010PropOp55
 70
     1
102
RTVSPost2010Prop56
140
1.0
102
RTVSPost2010PropOp56
 70
     1
102
RTVSPost2010Prop57
140
1.0
102
RTVSPost2010PropOp57
 70
     1
  0
XRECORD
  5
34E
102
{ACAD_REACTORS
330
34D
102
}
330
34D
100
AcDbXrecord
280
     1
102
RTVSPropertyOp0
 70
     1
102
RTVSPropertyOp1
 70
     1
102
RTVSPropertyOp2
 70
     1
102
RTVSPropertyOp3
 70
     1
102
RTVSPropertyOp4
 70
     1
102
RTVSPropertyOp5
 70
     1
102
RTVSPropertyOp6
 70
     1
102
RTVSPropertyOp7
 70
     1
102
RTVSPropertyOp8
 70
     1
102
RTVSPropertyOp9
 70
     1
102
RTVSPropertyOp10
 70
     1
102
RTVSPropertyOp11
 70
     1
102
RTVSPropertyOp12
 70
     1
102
RTVSPropertyOp13
 70
     1
102
RTVSPropertyOp14
 70
     1
102
RTVSPropertyOp15
 70
     1
102
RTVSPropertyOp16
 70
     1
102
RTVSPropertyOp17
 70
     1
102
RTVSPropertyOp18
 70
     1
102
RTVSPropertyOp19
 70
     1
102
RTVSPropertyOp20
 70
     1
102
RTVSPropertyOp21
 70
     1
102
RTVSPropertyOp22
 70
     1
102
RTVSPropertyOp23
 70
     1
102
RTVSPropertyOp24
 70
     1
102
RTVSPropertyOp25
 70
     1
102
RTVSPropertyOp26
 70
     1
102
RTVSPropertyOp27
 70
     1
102
RTVSPropertyOp28
 70
     1
102
RTVSPropertyOp29
 70
     1
102
RTVSPropertyOp30
 70
     1
102
RTVSPropertyOp31
 70
     1
102
RTVSPropertyOp32
 70
     1
102
RTVSPropertyOp33
 70
     1
102
RTVSPropertyOp34
 70
     1
102
RTVSPropertyOp35
 70
     1
102
RTVSPropertyOp36
 70
     1
102
RTVSPropertyOp37
 70
     1
102
RTVSPropertyOp38
 70
     1
102
RTVSPropertyOp39
 70
     1
102
RTVSPropertyOp40
 70
     1
102
RTVSPropertyOp41
 70
     1
102
RTVSPropertyOp42
 70
     1
102
RTVSPropertyOp43
 70
     1
102
RTVSPropertyOp44
 70
     1
102
RTVSPropertyOp45
 70
     1
102
RTVSPropertyOp46
 70
     1
102
RTVSPropertyOp47
 70
     1
102
RTVSPropertyOp48
 70
     1
102
RTVSPropertyOp49
 70
     1
102
RTVSPropertyOp50
 70
     1
102
RTVSPropertyOp51
 70
     0
102
RTVSPropertyOp52
 70
     0
102
RTVSPropertyOp53
 70
     1
102
RTVSPropertyOp54
 70
     1
102
RTVSPropertyOp55
 70
     1
102
RTVSPropertyOp56
 70
     1
102
RTVSPropertyOp57
 70
     1
102
RTVSPost2010Prop28
280
     0
102
RTVSPost2010PropOp28
 70
     1
102
RTVSPost2010Prop29
280
     1
102
RTVSPost2010PropOp29
 70
     1
102
RTVSPost2010Prop30
280
     1
102
RTVSPost2010PropOp30
 70
     1
102
RTVSPost2010Prop31
280
     0
102
RTVSPost2010PropOp31
 70
     1
102
RTVSPost2010Prop32
280
     0
102
RTVSPost2010PropOp32
 70
     1
102
RTVSPost2010Prop33
280
     0
102
RTVSPost2010PropOp33
 70
     1
102
RTVSPost2010Prop34
280
     0
102
RTVSPost2010PropOp34
 70
     1
102
RTVSPost2010Prop35
280
     0
102
RTVSPost2010PropOp35
 70
     1
102
RTVSPost2010Prop36
280
     0
102
RTVSPost2010PropOp36
 70
     1
102
RTVSPost2010Prop37
 90
       50
102
RTVSPost2010PropOp37
 70
     1
102
RTVSPost2010Prop38
140
0.0
102
RTVSPost2010PropOp38
 70
     1
102
RTVSPost2010Prop39
140
1.0
102
RTVSPost2010PropOp39
 70
     1
102
RTVSPost2010Prop40
 90
        0
102
RTVSPost2010PropOp40
 70
     1
102
RTVSPost2010Prop41ColorIndex
 90
       18
102
RTVSPost2010Prop41ColorRGB
 90
        0
102
RTVSPost2010PropOp41
 70
     1
102
RTVSPost2010Prop42
 90
       50
102
RTVSPost2010PropOp42
 70
     1
102
RTVSPost2010Prop43
 90
        3
102
RTVSPost2010PropOp43
 70
     1
102
RTVSPost2010Prop44ColorIndex
 90
        5
102
RTVSPost2010Prop44ColorRGB
 90
      255
102
RTVSPost2010PropOp44
 70
     1
102
RTVSPost2010Prop45
280
     0
102
RTVSPost2010PropOp45
 70
     1
102
RTVSPost2010Prop46
 90
       50
102
RTVSPost2010PropOp46
 70
     1
102
RTVSPost2010Prop47
 90
       50
102
RTVSPost2010PropOp47
 70
     1
102
RTVSPost2010Prop48
 90
       50
102
RTVSPost2010PropOp48
 70
     1
102
RTVSPost2010Prop49
280
     0
102
RTVSPost2010PropOp49
 70
     1
102
RTVSPost2010Prop50
 90
       50
102
RTVSPost2010PropOp50
 70
     1
102
RTVSPost2010Prop51ColorIndex
 90
      256
102
RTVSPost2010Prop51ColorRGB
 90
-16777216
102
RTVSPost2010PropOp51
 70
     0
102
RTVSPost2010Prop52
140
1.0
102
RTVSPost2010PropOp52
 70
     0
102
RTVSPost2010Prop53
 90
        2
102
RTVSPost2010PropOp53
 70
     1
102
RTVSPost2010Prop54
  1
strokes_ogs.tif
102
RTVSPost2010PropOp54
 70
     1
102
RTVSPost2010Prop55
280
     0
102
RTVSPost2010PropOp55
 70
     1
102
RTVSPost2010Prop56
140
1.0
102
RTVSPost2010PropOp56
 70
     1
102
RTVSPost2010Prop57
140
1.0
102
RTVSPost2010PropOp57
 70
     1
  0
XRECORD
  5
348
102
{ACAD_REACTORS
330
347
102
}
330
347
100
AcDbXrecord
280
     1
102
RTVSPropertyOp0
 70
     1
102
RTVSPropertyOp1
 70
     1
102
RTVSPropertyOp2
 70
     1
102
RTVSPropertyOp3
 70
     1
102
RTVSPropertyOp4
 70
     1
102
RTVSPropertyOp5
 70
     1
102
RTVSPropertyOp6
 70
     1
102
RTVSPropertyOp7
 70
     1
102
RTVSPropertyOp8
 70
     1
102
RTVSPropertyOp9
 70
     1
102
RTVSPropertyOp10
 70
     1
102
RTVSPropertyOp11
 70
     1
102
RTVSPropertyOp12
 70
     1
102
RTVSPropertyOp13
 70
     1
102
RTVSPropertyOp14
 70
     1
102
RTVSPropertyOp15
 70
     1
102
RTVSPropertyOp16
 70
     1
102
RTVSPropertyOp17
 70
     1
102
RTVSPropertyOp18
 70
     1
102
RTVSPropertyOp19
 70
     1
102
RTVSPropertyOp20
 70
     1
102
RTVSPropertyOp21
 70
     1
102
RTVSPropertyOp22
 70
     1
102
RTVSPropertyOp23
 70
     1
102
RTVSPropertyOp24
 70
     1
102
RTVSPropertyOp25
 70
     1
102
RTVSPropertyOp26
 70
     1
102
RTVSPropertyOp27
 70
     1
102
RTVSPropertyOp28
 70
     1
102
RTVSPropertyOp29
 70
     1
102
RTVSPropertyOp30
 70
     1
102
RTVSPropertyOp31
 70
     1
102
RTVSPropertyOp32
 70
     1
102
RTVSPropertyOp33
 70
     1
102
RTVSPropertyOp34
 70
     1
102
RTVSPropertyOp35
 70
     1
102
RTVSPropertyOp36
 70
     1
102
RTVSPropertyOp37
 70
     1
102
RTVSPropertyOp38
 70
     1
102
RTVSPropertyOp39
 70
     1
102
RTVSPropertyOp40
 70
     1
102
RTVSPropertyOp41
 70
     1
102
RTVSPropertyOp42
 70
     1
102
RTVSPropertyOp43
 70
     1
102
RTVSPropertyOp44
 70
     1
102
RTVSPropertyOp45
 70
     1
102
RTVSPropertyOp46
 70
     1
102
RTVSPropertyOp47
 70
     1
102
RTVSPropertyOp48
 70
     1
102
RTVSPropertyOp49
 70
     1
102
RTVSPropertyOp50
 70
     1
102
RTVSPropertyOp51
 70
     0
102
RTVSPropertyOp52
 70
     0
102
RTVSPropertyOp53
 70
     1
102
RTVSPropertyOp54
 70
     1
102
RTVSPropertyOp55
 70
     1
102
RTVSPropertyOp56
 70
     1
102
RTVSPropertyOp57
 70
     1
102
RTVSPost2010Prop28
280
     0
102
RTVSPost2010PropOp28
 70
     1
102
RTVSPost2010Prop29
280
     1
102
RTVSPost2010PropOp29
 70
     1
102
RTVSPost2010Prop30
280
     1
102
RTVSPost2010PropOp30
 70
     1
102
RTVSPost2010Prop31
280
     0
102
RTVSPost2010PropOp31
 70
     1
102
RTVSPost2010Prop32
280
     0
102
RTVSPost2010PropOp32
 70
     1
102
RTVSPost2010Prop33
280
     0
102
RTVSPost2010PropOp33
 70
     1
102
RTVSPost2010Prop34
280
     0
102
RTVSPost2010PropOp34
 70
     1
102
RTVSPost2010Prop35
280
     0
102
RTVSPost2010PropOp35
 70
     1
102
RTVSPost2010Prop36
280
     0
102
RTVSPost2010PropOp36
 70
     1
102
RTVSPost2010Prop37
 90
       50
102
RTVSPost2010PropOp37
 70
     1
102
RTVSPost2010Prop38
140
0.0
102
RTVSPost2010PropOp38
 70
     1
102
RTVSPost2010Prop39
140
1.0
102
RTVSPost2010PropOp39
 70
     1
102
RTVSPost2010Prop40
 90
        0
102
RTVSPost2010PropOp40
 70
     1
102
RTVSPost2010Prop41ColorIndex
 90
       18
102
RTVSPost2010Prop41ColorRGB
 90
        0
102
RTVSPost2010PropOp41
 70
     1
102
RTVSPost2010Prop42
 90
       50
102
RTVSPost2010PropOp42
 70
     1
102
RTVSPost2010Prop43
 90
        3
102
RTVSPost2010PropOp43
 70
     1
102
RTVSPost2010Prop44ColorIndex
 90
        5
102
RTVSPost2010Prop44ColorRGB
 90
      255
102
RTVSPost2010PropOp44
 70
     1
102
RTVSPost2010Prop45
280
     0
102
RTVSPost2010PropOp45
 70
     1
102
RTVSPost2010Prop46
 90
       50
102
RTVSPost2010PropOp46
 70
     1
102
RTVSPost2010Prop47
 90
       50
102
RTVSPost2010PropOp47
 70
     1
102
RTVSPost2010Prop48
 90
       50
102
RTVSPost2010PropOp48
 70
     1
102
RTVSPost2010Prop49
280
     0
102
RTVSPost2010PropOp49
 70
     1
102
RTVSPost2010Prop50
 90
       50
102
RTVSPost2010PropOp50
 70
     1
102
RTVSPost2010Prop51ColorIndex
 90
      256
102
RTVSPost2010Prop51ColorRGB
 90
-16777216
102
RTVSPost2010PropOp51
 70
     0
102
RTVSPost2010Prop52
140
1.0
102
RTVSPost2010PropOp52
 70
     0
102
RTVSPost2010Prop53
 90
        2
102
RTVSPost2010PropOp53
 70
     1
102
RTVSPost2010Prop54
  1
strokes_ogs.tif
102
RTVSPost2010PropOp54
 70
     1
102
RTVSPost2010Prop55
280
     0
102
RTVSPost2010PropOp55
 70
     1
102
RTVSPost2010Prop56
140
1.0
102
RTVSPost2010PropOp56
 70
     1
102
RTVSPost2010Prop57
140
1.0
102
RTVSPost2010PropOp57
 70
     1
  0
XRECORD
  5
34A
102
{ACAD_REACTORS
330
349
102
}
330
349
100
AcDbXrecord
280
     1
102
RTVSPropertyOp0
 70
     1
102
RTVSPropertyOp1
 70
     1
102
RTVSPropertyOp2
 70
     1
102
RTVSPropertyOp3
 70
     1
102
RTVSPropertyOp4
 70
     1
102
RTVSPropertyOp5
 70
     1
102
RTVSPropertyOp6
 70
     1
102
RTVSPropertyOp7
 70
     1
102
RTVSPropertyOp8
 70
     1
102
RTVSPropertyOp9
 70
     1
102
RTVSPropertyOp10
 70
     1
102
RTVSPropertyOp11
 70
     1
102
RTVSPropertyOp12
 70
     1
102
RTVSPropertyOp13
 70
     1
102
RTVSPropertyOp14
 70
     1
102
RTVSPropertyOp15
 70
     1
102
RTVSPropertyOp16
 70
     1
102
RTVSPropertyOp17
 70
     1
102
RTVSPropertyOp18
 70
     1
102
RTVSPropertyOp19
 70
     1
102
RTVSPropertyOp20
 70
     1
102
RTVSPropertyOp21
 70
     1
102
RTVSPropertyOp22
 70
     1
102
RTVSPropertyOp23
 70
     1
102
RTVSPropertyOp24
 70
     1
102
RTVSPropertyOp25
 70
     1
102
RTVSPropertyOp26
 70
     1
102
RTVSPropertyOp27
 70
     1
102
RTVSPropertyOp28
 70
     1
102
RTVSPropertyOp29
 70
     1
102
RTVSPropertyOp30
 70
     1
102
RTVSPropertyOp31
 70
     1
102
RTVSPropertyOp32
 70
     1
102
RTVSPropertyOp33
 70
     1
102
RTVSPropertyOp34
 70
     1
102
RTVSPropertyOp35
 70
     1
102
RTVSPropertyOp36
 70
     1
102
RTVSPropertyOp37
 70
     1
102
RTVSPropertyOp38
 70
     1
102
RTVSPropertyOp39
 70
     1
102
RTVSPropertyOp40
 70
     1
102
RTVSPropertyOp41
 70
     1
102
RTVSPropertyOp42
 70
     1
102
RTVSPropertyOp43
 70
     1
102
RTVSPropertyOp44
 70
     1
102
RTVSPropertyOp45
 70
     1
102
RTVSPropertyOp46
 70
     1
102
RTVSPropertyOp47
 70
     1
102
RTVSPropertyOp48
 70
     1
102
RTVSPropertyOp49
 70
     1
102
RTVSPropertyOp50
 70
     1
102
RTVSPropertyOp51
 70
     0
102
RTVSPropertyOp52
 70
     0
102
RTVSPropertyOp53
 70
     1
102
RTVSPropertyOp54
 70
     1
102
RTVSPropertyOp55
 70
     1
102
RTVSPropertyOp56
 70
     1
102
RTVSPropertyOp57
 70
     1
102
RTVSPost2010Prop28
280
     0
102
RTVSPost2010PropOp28
 70
     1
102
RTVSPost2010Prop29
280
     1
102
RTVSPost2010PropOp29
 70
     1
102
RTVSPost2010Prop30
280
     1
102
RTVSPost2010PropOp30
 70
     1
102
RTVSPost2010Prop31
280
     0
102
RTVSPost2010PropOp31
 70
     1
102
RTVSPost2010Prop32
280
     0
102
RTVSPost2010PropOp32
 70
     1
102
RTVSPost2010Prop33
280
     0
102
RTVSPost2010PropOp33
 70
     1
102
RTVSPost2010Prop34
280
     0
102
RTVSPost2010PropOp34
 70
     1
102
RTVSPost2010Prop35
280
     0
102
RTVSPost2010PropOp35
 70
     1
102
RTVSPost2010Prop36
280
     0
102
RTVSPost2010PropOp36
 70
     1
102
RTVSPost2010Prop37
 90
       50
102
RTVSPost2010PropOp37
 70
     1
102
RTVSPost2010Prop38
140
0.0
102
RTVSPost2010PropOp38
 70
     1
102
RTVSPost2010Prop39
140
1.0
102
RTVSPost2010PropOp39
 70
     1
102
RTVSPost2010Prop40
 90
        0
102
RTVSPost2010PropOp40
 70
     1
102
RTVSPost2010Prop41ColorIndex
 90
       18
102
RTVSPost2010Prop41ColorRGB
 90
        0
102
RTVSPost2010PropOp41
 70
     1
102
RTVSPost2010Prop42
 90
       50
102
RTVSPost2010PropOp42
 70
     1
102
RTVSPost2010Prop43
 90
        3
102
RTVSPost2010PropOp43
 70
     1
102
RTVSPost2010Prop44ColorIndex
 90
        5
102
RTVSPost2010Prop44ColorRGB
 90
      255
102
RTVSPost2010PropOp44
 70
     1
102
RTVSPost2010Prop45
280
     0
102
RTVSPost2010PropOp45
 70
     1
102
RTVSPost2010Prop46
 90
       50
102
RTVSPost2010PropOp46
 70
     1
102
RTVSPost2010Prop47
 90
       50
102
RTVSPost2010PropOp47
 70
     1
102
RTVSPost2010Prop48
 90
       50
102
RTVSPost2010PropOp48
 70
     1
102
RTVSPost2010Prop49
280
     0
102
RTVSPost2010PropOp49
 70
     1
102
RTVSPost2010Prop50
 90
       50
102
RTVSPost2010PropOp50
 70
     1
102
RTVSPost2010Prop51ColorIndex
 90
      256
102
RTVSPost2010Prop51ColorRGB
 90
-16777216
102
RTVSPost2010PropOp51
 70
     0
102
RTVSPost2010Prop52
140
1.0
102
RTVSPost2010PropOp52
 70
     0
102
RTVSPost2010Prop53
 90
        2
102
RTVSPost2010PropOp53
 70
     1
102
RTVSPost2010Prop54
  1
strokes_ogs.tif
102
RTVSPost2010PropOp54
 70
     1
102
RTVSPost2010Prop55
280
     0
102
RTVSPost2010PropOp55
 70
     1
102
RTVSPost2010Prop56
140
1.0
102
RTVSPost2010PropOp56
 70
     1
102
RTVSPost2010Prop57
140
1.0
102
RTVSPost2010PropOp57
 70
     1
  0
XRECORD
  5
33A
102
{ACAD_REACTORS
330
339
102
}
330
339
100
AcDbXrecord
280
     1
102
RTVSPropertyOp0
 70
     1
102
RTVSPropertyOp1
 70
     1
102
RTVSPropertyOp2
 70
     1
102
RTVSPropertyOp3
 70
     1
102
RTVSPropertyOp4
 70
     1
102
RTVSPropertyOp5
 70
     1
102
RTVSPropertyOp6
 70
     1
102
RTVSPropertyOp7
 70
     1
102
RTVSPropertyOp8
 70
     1
102
RTVSPropertyOp9
 70
     1
102
RTVSPropertyOp10
 70
     1
102
RTVSPropertyOp11
 70
     1
102
RTVSPropertyOp12
 70
     1
102
RTVSPropertyOp13
 70
     1
102
RTVSPropertyOp14
 70
     1
102
RTVSPropertyOp15
 70
     1
102
RTVSPropertyOp16
 70
     1
102
RTVSPropertyOp17
 70
     1
102
RTVSPropertyOp18
 70
     1
102
RTVSPropertyOp19
 70
     1
102
RTVSPropertyOp20
 70
     1
102
RTVSPropertyOp21
 70
     1
102
RTVSPropertyOp22
 70
     1
102
RTVSPropertyOp23
 70
     1
102
RTVSPropertyOp24
 70
     1
102
RTVSPropertyOp25
 70
     1
102
RTVSPropertyOp26
 70
     1
102
RTVSPropertyOp27
 70
     1
102
RTVSPropertyOp28
 70
     1
102
RTVSPropertyOp29
 70
     1
102
RTVSPropertyOp30
 70
     1
102
RTVSPropertyOp31
 70
     1
102
RTVSPropertyOp32
 70
     1
102
RTVSPropertyOp33
 70
     1
102
RTVSPropertyOp34
 70
     1
102
RTVSPropertyOp35
 70
     1
102
RTVSPropertyOp36
 70
     1
102
RTVSPropertyOp37
 70
     1
102
RTVSPropertyOp38
 70
     1
102
RTVSPropertyOp39
 70
     1
102
RTVSPropertyOp40
 70
     1
102
RTVSPropertyOp41
 70
     1
102
RTVSPropertyOp42
 70
     1
102
RTVSPropertyOp43
 70
     1
102
RTVSPropertyOp44
 70
     1
102
RTVSPropertyOp45
 70
     1
102
RTVSPropertyOp46
 70
     1
102
RTVSPropertyOp47
 70
     1
102
RTVSPropertyOp48
 70
     1
102
RTVSPropertyOp49
 70
     1
102
RTVSPropertyOp50
 70
     1
102
RTVSPropertyOp51
 70
     0
102
RTVSPropertyOp52
 70
     0
102
RTVSPropertyOp53
 70
     1
102
RTVSPropertyOp54
 70
     1
102
RTVSPropertyOp55
 70
     1
102
RTVSPropertyOp56
 70
     1
102
RTVSPropertyOp57
 70
     1
102
RTVSPost2010Prop28
280
     0
102
RTVSPost2010PropOp28
 70
     1
102
RTVSPost2010Prop29
280
     1
102
RTVSPost2010PropOp29
 70
     1
102
RTVSPost2010Prop30
280
     1
102
RTVSPost2010PropOp30
 70
     1
102
RTVSPost2010Prop31
280
     0
102
RTVSPost2010PropOp31
 70
     1
102
RTVSPost2010Prop32
280
     0
102
RTVSPost2010PropOp32
 70
     1
102
RTVSPost2010Prop33
280
     0
102
RTVSPost2010PropOp33
 70
     1
102
RTVSPost2010Prop34
280
     0
102
RTVSPost2010PropOp34
 70
     1
102
RTVSPost2010Prop35
280
     0
102
RTVSPost2010PropOp35
 70
     1
102
RTVSPost2010Prop36
280
     0
102
RTVSPost2010PropOp36
 70
     1
102
RTVSPost2010Prop37
 90
       50
102
RTVSPost2010PropOp37
 70
     1
102
RTVSPost2010Prop38
140
0.0
102
RTVSPost2010PropOp38
 70
     1
102
RTVSPost2010Prop39
140
1.0
102
RTVSPost2010PropOp39
 70
     1
102
RTVSPost2010Prop40
 90
        0
102
RTVSPost2010PropOp40
 70
     1
102
RTVSPost2010Prop41ColorIndex
 90
       18
102
RTVSPost2010Prop41ColorRGB
 90
        0
102
RTVSPost2010PropOp41
 70
     1
102
RTVSPost2010Prop42
 90
       50
102
RTVSPost2010PropOp42
 70
     1
102
RTVSPost2010Prop43
 90
        3
102
RTVSPost2010PropOp43
 70
     1
102
RTVSPost2010Prop44ColorIndex
 90
        5
102
RTVSPost2010Prop44ColorRGB
 90
      255
102
RTVSPost2010PropOp44
 70
     1
102
RTVSPost2010Prop45
280
     0
102
RTVSPost2010PropOp45
 70
     1
102
RTVSPost2010Prop46
 90
       50
102
RTVSPost2010PropOp46
 70
     1
102
RTVSPost2010Prop47
 90
       50
102
RTVSPost2010PropOp47
 70
     1
102
RTVSPost2010Prop48
 90
       50
102
RTVSPost2010PropOp48
 70
     1
102
RTVSPost2010Prop49
280
     0
102
RTVSPost2010PropOp49
 70
     1
102
RTVSPost2010Prop50
 90
       50
102
RTVSPost2010PropOp50
 70
     1
102
RTVSPost2010Prop51ColorIndex
 90
      256
102
RTVSPost2010Prop51ColorRGB
 90
-16777216
102
RTVSPost2010PropOp51
 70
     0
102
RTVSPost2010Prop52
140
1.0
102
RTVSPost2010PropOp52
 70
     0
102
RTVSPost2010Prop53
 90
        2
102
RTVSPost2010PropOp53
 70
     1
102
RTVSPost2010Prop54
  1
strokes_ogs.tif
102
RTVSPost2010PropOp54
 70
     1
102
RTVSPost2010Prop55
280
     0
102
RTVSPost2010PropOp55
 70
     1
102
RTVSPost2010Prop56
140
1.0
102
RTVSPost2010PropOp56
 70
     1
102
RTVSPost2010Prop57
140
1.0
102
RTVSPost2010PropOp57
 70
     1
  0
XRECORD
  5
32C
102
{ACAD_REACTORS
330
32B
102
}
330
32B
100
AcDbXrecord
280
     1
102
RTVSPropertyOp0
 70
     1
102
RTVSPropertyOp1
 70
     1
102
RTVSPropertyOp2
 70
     1
102
RTVSPropertyOp3
 70
     1
102
RTVSPropertyOp4
 70
     1
102
RTVSPropertyOp5
 70
     1
102
RTVSPropertyOp6
 70
     1
102
RTVSPropertyOp7
 70
     1
102
RTVSPropertyOp8
 70
     1
102
RTVSPropertyOp9
 70
     1
102
RTVSPropertyOp10
 70
     1
102
RTVSPropertyOp11
 70
     1
102
RTVSPropertyOp12
 70
     1
102
RTVSPropertyOp13
 70
     1
102
RTVSPropertyOp14
 70
     1
102
RTVSPropertyOp15
 70
     1
102
RTVSPropertyOp16
 70
     1
102
RTVSPropertyOp17
 70
     1
102
RTVSPropertyOp18
 70
     1
102
RTVSPropertyOp19
 70
     1
102
RTVSPropertyOp20
 70
     1
102
RTVSPropertyOp21
 70
     1
102
RTVSPropertyOp22
 70
     1
102
RTVSPropertyOp23
 70
     1
102
RTVSPropertyOp24
 70
     1
102
RTVSPropertyOp25
 70
     1
102
RTVSPropertyOp26
 70
     1
102
RTVSPropertyOp27
 70
     1
102
RTVSPropertyOp28
 70
     1
102
RTVSPropertyOp29
 70
     1
102
RTVSPropertyOp30
 70
     1
102
RTVSPropertyOp31
 70
     1
102
RTVSPropertyOp32
 70
     1
102
RTVSPropertyOp33
 70
     1
102
RTVSPropertyOp34
 70
     1
102
RTVSPropertyOp35
 70
     1
102
RTVSPropertyOp36
 70
     1
102
RTVSPropertyOp37
 70
     1
102
RTVSPropertyOp38
 70
     1
102
RTVSPropertyOp39
 70
     1
102
RTVSPropertyOp40
 70
     1
102
RTVSPropertyOp41
 70
     1
102
RTVSPropertyOp42
 70
     1
102
RTVSPropertyOp43
 70
     1
102
RTVSPropertyOp44
 70
     1
102
RTVSPropertyOp45
 70
     1
102
RTVSPropertyOp46
 70
     1
102
RTVSPropertyOp47
 70
     1
102
RTVSPropertyOp48
 70
     1
102
RTVSPropertyOp49
 70
     1
102
RTVSPropertyOp50
 70
     1
102
RTVSPropertyOp51
 70
     0
102
RTVSPropertyOp52
 70
     0
102
RTVSPropertyOp53
 70
     1
102
RTVSPropertyOp54
 70
     1
102
RTVSPropertyOp55
 70
     1
102
RTVSPropertyOp56
 70
     1
102
RTVSPropertyOp57
 70
     1
102
RTVSPost2010Prop28
280
     0
102
RTVSPost2010PropOp28
 70
     1
102
RTVSPost2010Prop29
280
     1
102
RTVSPost2010PropOp29
 70
     1
102
RTVSPost2010Prop30
280
     1
102
RTVSPost2010PropOp30
 70
     1
102
RTVSPost2010Prop31
280
     0
102
RTVSPost2010PropOp31
 70
     1
102
RTVSPost2010Prop32
280
     0
102
RTVSPost2010PropOp32
 70
     1
102
RTVSPost2010Prop33
280
     0
102
RTVSPost2010PropOp33
 70
     1
102
RTVSPost2010Prop34
280
     0
102
RTVSPost2010PropOp34
 70
     1
102
RTVSPost2010Prop35
280
     0
102
RTVSPost2010PropOp35
 70
     1
102
RTVSPost2010Prop36
280
     0
102
RTVSPost2010PropOp36
 70
     1
102
RTVSPost2010Prop37
 90
       50
102
RTVSPost2010PropOp37
 70
     1
102
RTVSPost2010Prop38
140
0.0
102
RTVSPost2010PropOp38
 70
     1
102
RTVSPost2010Prop39
140
1.0
102
RTVSPost2010PropOp39
 70
     1
102
RTVSPost2010Prop40
 90
        0
102
RTVSPost2010PropOp40
 70
     1
102
RTVSPost2010Prop41ColorIndex
 90
       18
102
RTVSPost2010Prop41ColorRGB
 90
        0
102
RTVSPost2010PropOp41
 70
     1
102
RTVSPost2010Prop42
 90
       50
102
RTVSPost2010PropOp42
 70
     1
102
RTVSPost2010Prop43
 90
        3
102
RTVSPost2010PropOp43
 70
     1
102
RTVSPost2010Prop44ColorIndex
 90
        5
102
RTVSPost2010Prop44ColorRGB
 90
      255
102
RTVSPost2010PropOp44
 70
     1
102
RTVSPost2010Prop45
280
     0
102
RTVSPost2010PropOp45
 70
     1
102
RTVSPost2010Prop46
 90
       50
102
RTVSPost2010PropOp46
 70
     1
102
RTVSPost2010Prop47
 90
       50
102
RTVSPost2010PropOp47
 70
     1
102
RTVSPost2010Prop48
 90
       50
102
RTVSPost2010PropOp48
 70
     1
102
RTVSPost2010Prop49
280
     0
102
RTVSPost2010PropOp49
 70
     1
102
RTVSPost2010Prop50
 90
       50
102
RTVSPost2010PropOp50
 70
     1
102
RTVSPost2010Prop51ColorIndex
 90
      256
102
RTVSPost2010Prop51ColorRGB
 90
-16777216
102
RTVSPost2010PropOp51
 70
     0
102
RTVSPost2010Prop52
140
1.0
102
RTVSPost2010PropOp52
 70
     0
102
RTVSPost2010Prop53
 90
        2
102
RTVSPost2010PropOp53
 70
     1
102
RTVSPost2010Prop54
  1
strokes_ogs.tif
102
RTVSPost2010PropOp54
 70
     1
102
RTVSPost2010Prop55
280
     0
102
RTVSPost2010PropOp55
 70
     1
102
RTVSPost2010Prop56
140
1.0
102
RTVSPost2010PropOp56
 70
     1
102
RTVSPost2010Prop57
140
1.0
102
RTVSPost2010PropOp57
 70
     1
  0
XRECORD
  5
34C
102
{ACAD_REACTORS
330
34B
102
}
330
34B
100
AcDbXrecord
280
     1
102
RTVSPropertyOp0
 70
     1
102
RTVSPropertyOp1
 70
     1
102
RTVSPropertyOp2
 70
     1
102
RTVSPropertyOp3
 70
     1
102
RTVSPropertyOp4
 70
     1
102
RTVSPropertyOp5
 70
     1
102
RTVSPropertyOp6
 70
     1
102
RTVSPropertyOp7
 70
     1
102
RTVSPropertyOp8
 70
     1
102
RTVSPropertyOp9
 70
     1
102
RTVSPropertyOp10
 70
     1
102
RTVSPropertyOp11
 70
     1
102
RTVSPropertyOp12
 70
     1
102
RTVSPropertyOp13
 70
     1
102
RTVSPropertyOp14
 70
     1
102
RTVSPropertyOp15
 70
     1
102
RTVSPropertyOp16
 70
     1
102
RTVSPropertyOp17
 70
     1
102
RTVSPropertyOp18
 70
     1
102
RTVSPropertyOp19
 70
     1
102
RTVSPropertyOp20
 70
     1
102
RTVSPropertyOp21
 70
     1
102
RTVSPropertyOp22
 70
     1
102
RTVSPropertyOp23
 70
     1
102
RTVSPropertyOp24
 70
     1
102
RTVSPropertyOp25
 70
     1
102
RTVSPropertyOp26
 70
     1
102
RTVSPropertyOp27
 70
     1
102
RTVSPropertyOp28
 70
     1
102
RTVSPropertyOp29
 70
     1
102
RTVSPropertyOp30
 70
     1
102
RTVSPropertyOp31
 70
     1
102
RTVSPropertyOp32
 70
     1
102
RTVSPropertyOp33
 70
     1
102
RTVSPropertyOp34
 70
     1
102
RTVSPropertyOp35
 70
     1
102
RTVSPropertyOp36
 70
     1
102
RTVSPropertyOp37
 70
     1
102
RTVSPropertyOp38
 70
     1
102
RTVSPropertyOp39
 70
     1
102
RTVSPropertyOp40
 70
     1
102
RTVSPropertyOp41
 70
     1
102
RTVSPropertyOp42
 70
     1
102
RTVSPropertyOp43
 70
     1
102
RTVSPropertyOp44
 70
     1
102
RTVSPropertyOp45
 70
     1
102
RTVSPropertyOp46
 70
     1
102
RTVSPropertyOp47
 70
     1
102
RTVSPropertyOp48
 70
     1
102
RTVSPropertyOp49
 70
     1
102
RTVSPropertyOp50
 70
     1
102
RTVSPropertyOp51
 70
     0
102
RTVSPropertyOp52
 70
     0
102
RTVSPropertyOp53
 70
     1
102
RTVSPropertyOp54
 70
     1
102
RTVSPropertyOp55
 70
     1
102
RTVSPropertyOp56
 70
     1
102
RTVSPropertyOp57
 70
     1
102
RTVSPost2010Prop28
280
     0
102
RTVSPost2010PropOp28
 70
     1
102
RTVSPost2010Prop29
280
     1
102
RTVSPost2010PropOp29
 70
     1
102
RTVSPost2010Prop30
280
     1
102
RTVSPost2010PropOp30
 70
     1
102
RTVSPost2010Prop31
280
     0
102
RTVSPost2010PropOp31
 70
     1
102
RTVSPost2010Prop32
280
     0
102
RTVSPost2010PropOp32
 70
     1
102
RTVSPost2010Prop33
280
     0
102
RTVSPost2010PropOp33
 70
     1
102
RTVSPost2010Prop34
280
     0
102
RTVSPost2010PropOp34
 70
     1
102
RTVSPost2010Prop35
280
     0
102
RTVSPost2010PropOp35
 70
     1
102
RTVSPost2010Prop36
280
     0
102
RTVSPost2010PropOp36
 70
     1
102
RTVSPost2010Prop37
 90
       50
102
RTVSPost2010PropOp37
 70
     1
102
RTVSPost2010Prop38
140
0.0
102
RTVSPost2010PropOp38
 70
     1
102
RTVSPost2010Prop39
140
1.0
102
RTVSPost2010PropOp39
 70
     1
102
RTVSPost2010Prop40
 90
        0
102
RTVSPost2010PropOp40
 70
     1
102
RTVSPost2010Prop41ColorIndex
 90
       18
102
RTVSPost2010Prop41ColorRGB
 90
        0
102
RTVSPost2010PropOp41
 70
     1
102
RTVSPost2010Prop42
 90
       50
102
RTVSPost2010PropOp42
 70
     1
102
RTVSPost2010Prop43
 90
        3
102
RTVSPost2010PropOp43
 70
     1
102
RTVSPost2010Prop44ColorIndex
 90
        5
102
RTVSPost2010Prop44ColorRGB
 90
      255
102
RTVSPost2010PropOp44
 70
     1
102
RTVSPost2010Prop45
280
     0
102
RTVSPost2010PropOp45
 70
     1
102
RTVSPost2010Prop46
 90
       50
102
RTVSPost2010PropOp46
 70
     1
102
RTVSPost2010Prop47
 90
       50
102
RTVSPost2010PropOp47
 70
     1
102
RTVSPost2010Prop48
 90
       50
102
RTVSPost2010PropOp48
 70
     1
102
RTVSPost2010Prop49
280
     0
102
RTVSPost2010PropOp49
 70
     1
102
RTVSPost2010Prop50
 90
       50
102
RTVSPost2010PropOp50
 70
     1
102
RTVSPost2010Prop51ColorIndex
 90
      256
102
RTVSPost2010Prop51ColorRGB
 90
-16777216
102
RTVSPost2010PropOp51
 70
     0
102
RTVSPost2010Prop52
140
1.0
102
RTVSPost2010PropOp52
 70
     0
102
RTVSPost2010Prop53
 90
        2
102
RTVSPost2010PropOp53
 70
     1
102
RTVSPost2010Prop54
  1
strokes_ogs.tif
102
RTVSPost2010PropOp54
 70
     1
102
RTVSPost2010Prop55
280
     0
102
RTVSPost2010PropOp55
 70
     1
102
RTVSPost2010Prop56
140
1.0
102
RTVSPost2010PropOp56
 70
     1
102
RTVSPost2010Prop57
140
1.0
102
RTVSPost2010PropOp57
 70
     1
  0
ENDSEC
  0
EOF
