  0
SECTION
  2
HEADER
  9
$ACADVER
  1
AC1015
  9
$ACADMAINTVER
 70
     6
  9
$DWGCODEPAGE
  3
ANSI_932
  9
$INSBASE
 10
0.0
 20
0.0
 30
0.0
  9
$EXTMIN
 10
-60.81495457622364
 20
-22.54048149838889
 30
0.0
  9
$EXTMAX
 10
60.99999999999999
 20
79.81495457622373
 30
0.0
  9
$LIMMIN
 10
0.0
 20
0.0
  9
$LIMMAX
 10
12.0
 20
9.0
  9
$ORTHOMODE
 70
     0
  9
$REGENMODE
 70
     1
  9
$FILLMODE
 70
     1
  9
$QTEXTMODE
 70
     0
  9
$MIRRTEXT
 70
     1
  9
$LTSCALE
 40
1.0
  9
$ATTMODE
 70
     1
  9
$TEXTSIZE
 40
0.2
  9
$TRACEWID
 40
0.05
  9
$TEXTSTYLE
  7
Standard
  9
$CLAYER
  8
0
  9
$CELTYPE
  6
ByLayer
  9
$CECOLOR
 62
   256
  9
$CELTSCALE
 40
1.0
  9
$DISPSILH
 70
     0
  9
$DIMSCALE
 40
1.0
  9
$DIMASZ
 40
0.18
  9
$DIMEXO
 40
0.0625
  9
$DIMDLI
 40
0.38
  9
$DIMRND
 40
0.0
  9
$DIMDLE
 40
0.0
  9
$DIMEXE
 40
0.18
  9
$DIMTP
 40
0.0
  9
$DIMTM
 40
0.0
  9
$DIMTXT
 40
0.18
  9
$DIMCEN
 40
0.09
  9
$DIMTSZ
 40
0.0
  9
$DIMTOL
 70
     0
  9
$DIMLIM
 70
     0
  9
$DIMTIH
 70
     1
  9
$DIMTOH
 70
     1
  9
$DIMSE1
 70
     0
  9
$DIMSE2
 70
     0
  9
$DIMTAD
 70
     0
  9
$DIMZIN
 70
     0
  9
$DIMBLK
  1

  9
$DIMASO
 70
     1
  9
$DIMSHO
 70
     1
  9
$DIMPOST
  1

  9
$DIMAPOST
  1

  9
$DIMALT
 70
     0
  9
$DIMALTD
 70
     2
  9
$DIMALTF
 40
25.4
  9
$DIMLFAC
 40
1.0
  9
$DIMTOFL
 70
     0
  9
$DIMTVP
 40
0.0
  9
$DIMTIX
 70
     0
  9
$DIMSOXD
 70
     0
  9
$DIMSAH
 70
     0
  9
$DIMBLK1
  1

  9
$DIMBLK2
  1

  9
$DIMSTYLE
  2
Standard
  9
$DIMCLRD
 70
     0
  9
$DIMCLRE
 70
     0
  9
$DIMCLRT
 70
     0
  9
$DIMTFAC
 40
1.0
  9
$DIMGAP
 40
0.09
  9
$DIMJUST
 70
     0
  9
$DIMSD1
 70
     0
  9
$DIMSD2
 70
     0
  9
$DIMTOLJ
 70
     1
  9
$DIMTZIN
 70
     0
  9
$DIMALTZ
 70
     0
  9
$DIMALTTZ
 70
     0
  9
$DIMUPT
 70
     0
  9
$DIMDEC
 70
     4
  9
$DIMTDEC
 70
     4
  9
$DIMALTU
 70
     2
  9
$DIMALTTD
 70
     2
  9
$DIMTXSTY
  7
Standard
  9
$DIMAUNIT
 70
     0
  9
$DIMADEC
 70
     0
  9
$DIMALTRND
 40
0.0
  9
$DIMAZIN
 70
     0
  9
$DIMDSEP
 70
    46
  9
$DIMATFIT
 70
     3
  9
$DIMFRAC
 70
     0
  9
$DIMLDRBLK
  1

  9
$DIMLUNIT
 70
     2
  9
$DIMLWD
 70
    -2
  9
$DIMLWE
 70
    -2
  9
$DIMTMOVE
 70
     0
  9
$LUNITS
 70
     2
  9
$LUPREC
 70
     4
  9
$SKETCHINC
 40
0.1
  9
$FILLETRAD
 40
0.5
  9
$AUNITS
 70
     0
  9
$AUPREC
 70
     0
  9
$MENU
  1
.
  9
$ELEVATION
 40
0.0
  9
$PELEVATION
 40
0.0
  9
$THICKNESS
 40
0.0
  9
$LIMCHECK
 70
     0
  9
$CHAMFERA
 40
0.0
  9
$CHAMFERB
 40
0.0
  9
$CHAMFERC
 40
0.0
  9
$CHAMFERD
 40
0.0
  9
$SKPOLY
 70
     0
  9
$TDCREATE
 40
2458080.567468415
  9
$TDUCREATE
 40
2458080.192468415
  9
$TDUPDATE
 40
2458080.567469676
  9
$TDUUPDATE
 40
2458080.192469676
  9
$TDINDWG
 40
0.0000000116
  9
$TDUSRTIMER
 40
0.0000000116
  9
$USRTIMER
 70
     1
  9
$ANGBASE
 50
0.0
  9
$ANGDIR
 70
     0
  9
$PDMODE
 70
     0
  9
$PDSIZE
 40
0.0
  9
$PLINEWID
 40
0.0
  9
$SPLFRAME
 70
     0
  9
$SPLINETYPE
 70
     6
  9
$SPLINESEGS
 70
     8
  9
$HANDSEED
  5
37B
  9
$SURFTAB1
 70
     6
  9
$SURFTAB2
 70
     6
  9
$SURFTYPE
 70
     6
  9
$SURFU
 70
     6
  9
$SURFV
 70
     6
  9
$UCSBASE
  2

  9
$UCSNAME
  2

  9
$UCSORG
 10
0.0
 20
0.0
 30
0.0
  9
$UCSXDIR
 10
1.0
 20
0.0
 30
0.0
  9
$UCSYDIR
 10
0.0
 20
1.0
 30
0.0
  9
$UCSORTHOREF
  2

  9
$UCSORTHOVIEW
 70
     0
  9
$UCSORGTOP
 10
0.0
 20
0.0
 30
0.0
  9
$UCSORGBOTTOM
 10
0.0
 20
0.0
 30
0.0
  9
$UCSORGLEFT
 10
0.0
 20
0.0
 30
0.0
  9
$UCSORGRIGHT
 10
0.0
 20
0.0
 30
0.0
  9
$UCSORGFRONT
 10
0.0
 20
0.0
 30
0.0
  9
$UCSORGBACK
 10
0.0
 20
0.0
 30
0.0
  9
$PUCSBASE
  2

  9
$PUCSNAME
  2

  9
$PUCSORG
 10
0.0
 20
0.0
 30
0.0
  9
$PUCSXDIR
 10
1.0
 20
0.0
 30
0.0
  9
$PUCSYDIR
 10
0.0
 20
1.0
 30
0.0
  9
$PUCSORTHOREF
  2

  9
$PUCSORTHOVIEW
 70
     0
  9
$PUCSORGTOP
 10
0.0
 20
0.0
 30
0.0
  9
$PUCSORGBOTTOM
 10
0.0
 20
0.0
 30
0.0
  9
$PUCSORGLEFT
 10
0.0
 20
0.0
 30
0.0
  9
$PUCSORGRIGHT
 10
0.0
 20
0.0
 30
0.0
  9
$PUCSORGFRONT
 10
0.0
 20
0.0
 30
0.0
  9
$PUCSORGBACK
 10
0.0
 20
0.0
 30
0.0
  9
$USERI1
 70
     0
  9
$USERI2
 70
     0
  9
$USERI3
 70
     0
  9
$USERI4
 70
     0
  9
$USERI5
 70
     0
  9
$USERR1
 40
19.0
  9
$USERR2
 40
0.0
  9
$USERR3
 40
0.0
  9
$USERR4
 40
0.0
  9
$USERR5
 40
0.0
  9
$WORLDVIEW
 70
     1
  9
$SHADEDGE
 70
     3
  9
$SHADEDIF
 70
    70
  9
$TILEMODE
 70
     1
  9
$MAXACTVP
 70
    64
  9
$PINSBASE
 10
0.0
 20
0.0
 30
0.0
  9
$PLIMCHECK
 70
     0
  9
$PEXTMIN
 10
1.00000000000000E+20
 20
1.00000000000000E+20
 30
1.00000000000000E+20
  9
$PEXTMAX
 10
-1.00000000000000E+20
 20
-1.00000000000000E+20
 30
-1.00000000000000E+20
  9
$PLIMMIN
 10
0.0
 20
0.0
  9
$PLIMMAX
 10
12.0
 20
9.0
  9
$UNITMODE
 70
     0
  9
$VISRETAIN
 70
     1
  9
$PLINEGEN
 70
     0
  9
$PSLTSCALE
 70
     1
  9
$TREEDEPTH
 70
  3020
  9
$CMLSTYLE
  2
Standard
  9
$CMLJUST
 70
     0
  9
$CMLSCALE
 40
1.0
  9
$PROXYGRAPHICS
 70
     1
  9
$MEASUREMENT
 70
     1
  9
$CELWEIGHT
370
    -1
  9
$ENDCAPS
280
     0
  9
$JOINSTYLE
280
     0
  9
$LWDISPLAY
290
     0
  9
$INSUNITS
 70
     4
  9
$HYPERLINKBASE
  1

  9
$STYLESHEET
  1

  9
$XEDIT
290
     1
  9
$CEPSNTYPE
380
     0
  9
$PSTYLEMODE
290
     1
  9
$FINGERPRINTGUID
  2
{817BF64D-A540-4963-B361-FFB0B213152B}
  9
$VERSIONGUID
  2
{FAEB1C32-E019-11D5-929B-00C0DF256EC4}
  9
$EXTNAMES
290
     1
  9
$PSVPSCALE
 40
0.0
  9
$OLESTARTUP
290
     0
  0
ENDSEC
  0
SECTION
  2
CLASSES
  0
CLASS
  1
ACDBDICTIONARYWDFLT
  2
AcDbDictionaryWithDefault
  3
ObjectDBX Classes
 90
        0
280
     0
281
     0
  0
CLASS
  1
VISUALSTYLE
  2
AcDbVisualStyle
  3
ObjectDBX Classes
 90
     4095
280
     0
281
     0
  0
CLASS
  1
MATERIAL
  2
AcDbMaterial
  3
ObjectDBX Classes
 90
     1153
280
     0
281
     0
  0
CLASS
  1
SCALE
  2
AcDbScale
  3
ObjectDBX Classes
 90
     1153
280
     0
281
     0
  0
CLASS
  1
SUN
  2
AcDbSun
  3
SCENEOE
 90
     1153
280
     0
281
     0
  0
CLASS
  1
DICTIONARYVAR
  2
AcDbDictionaryVar
  3
ObjectDBX Classes
 90
        0
280
     0
281
     0
  0
CLASS
  1
ACDBPLACEHOLDER
  2
AcDbPlaceHolder
  3
ObjectDBX Classes
 90
        0
280
     0
281
     0
  0
CLASS
  1
LAYOUT
  2
AcDbLayout
  3
ObjectDBX Classes
 90
        0
280
     0
281
     0
  0
ENDSEC
  0
SECTION
  2
TABLES
  0
TABLE
  2
VPORT
  5
8
330
0
100
AcDbSymbolTable
 70
     1
  0
VPORT
  5
29
330
8
100
AcDbSymbolTableRecord
100
AcDbViewportTableRecord
  2
*Active
 70
     0
 10
0.0
 20
0.0
 11
1.0
 21
1.0
 12
0.09252271188818
 22
28.63723653891742
 13
0.0
 23
0.0
 14
0.5
 24
0.5
 15
0.5
 25
0.5
 16
0.0
 26
0.0
 36
1.0
 17
0.0
 27
0.0
 37
0.0
 40
112.5909796820739
 41
1.60267857142857
 42
50.0
 43
0.0
 44
0.0
 50
0.0
 51
0.0
 71
     0
 72
   100
 73
     1
 74
     3
 75
     0
 76
     0
 77
     0
 78
     0
281
     0
 65
     1
110
0.0
120
0.0
130
0.0
111
1.0
121
0.0
131
0.0
112
0.0
122
1.0
132
0.0
 79
     0
146
0.0
  0
ENDTAB
  0
TABLE
  2
LTYPE
  5
5
330
0
100
AcDbSymbolTable
 70
     8
  0
LTYPE
  5
14
330
5
100
AcDbSymbolTableRecord
100
AcDbLinetypeTableRecord
  2
ByBlock
 70
     0
  3

 72
    65
 73
     0
 40
0.0
  0
LTYPE
  5
15
330
5
100
AcDbSymbolTableRecord
100
AcDbLinetypeTableRecord
  2
ByLayer
 70
     0
  3

 72
    65
 73
     0
 40
0.0
  0
LTYPE
  5
16
330
5
100
AcDbSymbolTableRecord
100
AcDbLinetypeTableRecord
  2
Continuous
 70
     0
  3
Solid line
 72
    65
 73
     0
 40
0.0
  0
LTYPE
  5
6A
330
5
100
AcDbSymbolTableRecord
100
AcDbLinetypeTableRecord
  2
DASHED
 70
     0
  3
Dashed
 72
    65
 73
     2
 40
15.0
 49
7.0
 74
     0
 49
-8.0
 74
     0
  0
LTYPE
  5
6B
330
5
100
AcDbSymbolTableRecord
100
AcDbLinetypeTableRecord
  2
DOTTED
 70
     0
  3
Dotted
 72
    65
 73
     2
 40
1.0
 49
0.0
 74
     0
 49
-1.0
 74
     0
  0
LTYPE
  5
6C
330
5
100
AcDbSymbolTableRecord
100
AcDbLinetypeTableRecord
  2
DOT_CENTER
 70
     0
  3
Dot_Center
 72
    65
 73
     4
 40
14.0
 49
12.0
 74
     0
 49
-1.0
 74
     0
 49
0.0
 74
     0
 49
-1.0
 74
     0
  0
LTYPE
  5
6D
330
5
100
AcDbSymbolTableRecord
100
AcDbLinetypeTableRecord
  2
LONG_DASHED
 70
     0
  3
Long_Dashed
 72
    65
 73
     2
 40
15.0
 49
10.0
 74
     0
 49
-5.0
 74
     0
  0
LTYPE
  5
6E
330
5
100
AcDbSymbolTableRecord
100
AcDbLinetypeTableRecord
  2
DASH_CENTER
 70
     0
  3
Dash_Center
 72
    65
 73
     4
 40
14.0
 49
11.0
 74
     0
 49
-1.0
 74
     0
 49
1.0
 74
     0
 49
-1.0
 74
     0
  0
LTYPE
  5
6F
330
5
100
AcDbSymbolTableRecord
100
AcDbLinetypeTableRecord
  2
PHANTOM
 70
     0
  3
Phantom
 72
    65
 73
     6
 40
13.0
 49
10.0
 74
     0
 49
-1.0
 74
     0
 49
0.0
 74
     0
 49
-1.0
 74
     0
 49
0.0
 74
     0
 49
-1.0
 74
     0
  0
LTYPE
  5
70
330
5
100
AcDbSymbolTableRecord
100
AcDbLinetypeTableRecord
  2
CENTER_DASH_DASH
 70
     0
  3
Center_Dash_Dash
 72
    65
 73
     6
 40
14.0
 49
9.0
 74
     0
 49
-1.0
 74
     0
 49
1.0
 74
     0
 49
-1.0
 74
     0
 49
1.0
 74
     0
 49
-1.0
 74
     0
  0
ENDTAB
  0
TABLE
  2
LAYER
  5
2
330
0
100
AcDbSymbolTable
 70
     2
  0
LAYER
  5
10
330
2
100
AcDbSymbolTableRecord
100
AcDbLayerTableRecord
  2
0
 70
     0
 62
     7
  6
Continuous
370
    -3
390
F
  0
LAYER
  5
71
330
2
100
AcDbSymbolTableRecord
100
AcDbLayerTableRecord
  2
1
 70
     0
 62
     7
  6
Continuous
370
    -3
390
F
  0
ENDTAB
  0
TABLE
  2
STYLE
  5
3
330
0
100
AcDbSymbolTable
 70
     1
  0
STYLE
  5
11
330
3
100
AcDbSymbolTableRecord
100
AcDbTextStyleTableRecord
  2
Standard
 70
     0
 40
0.0
 41
1.0
 50
0.0
 71
     0
 42
0.2
  3
txt
  4

  0
ENDTAB
  0
TABLE
  2
VIEW
  5
6
330
0
100
AcDbSymbolTable
 70
     0
  0
ENDTAB
  0
TABLE
  2
UCS
  5
7
330
0
100
AcDbSymbolTable
 70
     0
  0
ENDTAB
  0
TABLE
  2
APPID
  5
9
330
0
100
AcDbSymbolTable
 70
     1
  0
APPID
  5
12
330
9
100
AcDbSymbolTableRecord
100
AcDbRegAppTableRecord
  2
ACAD
 70
     0
  0
ENDTAB
  0
TABLE
  2
DIMSTYLE
  5
A
330
0
100
AcDbSymbolTable
 70
     1
100
AcDbDimStyleTable
  0
DIMSTYLE
105
27
330
A
100
AcDbSymbolTableRecord
100
AcDbDimStyleTableRecord
  2
Standard
 70
     0
178
     0
340
11
  0
ENDTAB
  0
TABLE
  2
BLOCK_RECORD
  5
1
330
0
100
AcDbSymbolTable
 70
     1
  0
BLOCK_RECORD
  5
1F
330
1
100
AcDbSymbolTableRecord
100
AcDbBlockTableRecord
  2
*Model_Space
340
22
  0
BLOCK_RECORD
  5
1B
330
1
100
AcDbSymbolTableRecord
100
AcDbBlockTableRecord
  2
*Paper_Space
340
1E
  0
BLOCK_RECORD
  5
23
330
1
100
AcDbSymbolTableRecord
100
AcDbBlockTableRecord
  2
*Paper_Space0
340
26
  0
ENDTAB
  0
ENDSEC
  0
SECTION
  2
BLOCKS
  0
BLOCK
  5
20
330
1F
100
AcDbEntity
  8
0
100
AcDbBlockBegin
  2
*Model_Space
 70
     0
 10
0.0
 20
0.0
 30
0.0
  3
*Model_Space
  1
*Model_Space
  0
ENDBLK
  5
21
330
1F
100
AcDbEntity
  8
0
100
AcDbBlockEnd
  0
BLOCK
  5
1C
330
1B
100
AcDbEntity
 67
     1
  8
0
100
AcDbBlockBegin
  2
*Paper_Space
 70
     0
 10
0.0
 20
0.0
 30
0.0
  3
*Paper_Space
  1
*Paper_Space
  0
ENDBLK
  5
1D
330
1B
100
AcDbEntity
 67
     1
  8
0
100
AcDbBlockEnd
  0
BLOCK
  5
24
330
23
100
AcDbEntity
  8
0
100
AcDbBlockBegin
  2
*Paper_Space0
 70
     0
 10
0.0
 20
0.0
 30
0.0
  3
*Paper_Space0
  1
*Paper_Space0
  0
ENDBLK
  5
25
330
23
100
AcDbEntity
  8
0
100
AcDbBlockEnd
  0
ENDSEC
  0
SECTION
  2
ENTITIES
  0
POINT
  5
72
330
1F
100
AcDbEntity
  8
1
 62
     3
 60
     1
100
AcDbPoint
 10
-50.0
 20
36.0
 30
0.0
  0
POINT
  5
73
330
1F
100
AcDbEntity
  8
1
 62
     3
 60
     1
100
AcDbPoint
 10
-50.0
 20
-9.50000000000001
 30
0.0
  0
POINT
  5
74
330
1F
100
AcDbEntity
  8
1
 62
     3
 60
     1
100
AcDbPoint
 10
-39.18504542377635
 20
-0.00000000000002
 30
0.0
  0
POINT
  5
75
330
1F
100
AcDbEntity
  8
1
 62
     3
 60
     1
100
AcDbPoint
 10
-60.81495457622364
 20
0.0
 30
0.0
  0
POINT
  5
76
330
1F
100
AcDbEntity
  8
1
 62
     3
 60
     1
100
AcDbPoint
 10
-48.5
 20
18.1
 30
0.0
  0
POINT
  5
77
330
1F
100
AcDbEntity
  8
1
 62
     3
 60
     1
100
AcDbPoint
 10
-51.5
 20
18.1
 30
0.0
  0
POINT
  5
78
330
1F
100
AcDbEntity
  8
1
 62
     3
 60
     1
100
AcDbPoint
 10
-2.0
 20
18.1
 30
0.0
  0
POINT
  5
79
330
1F
100
AcDbEntity
  8
1
 62
     3
 60
     1
100
AcDbPoint
 10
-48.5
 20
17.9
 30
0.0
  0
POINT
  5
7A
330
1F
100
AcDbEntity
  8
1
 62
     3
 60
     1
100
AcDbPoint
 10
-48.5
 20
18.6
 30
0.0
  0
POINT
  5
7B
330
1F
100
AcDbEntity
  8
1
 62
     3
 60
     1
100
AcDbPoint
 10
-51.5
 20
18.6
 30
0.0
  0
POINT
  5
7C
330
1F
100
AcDbEntity
  8
1
 62
     3
 60
     1
100
AcDbPoint
 10
-51.5
 20
17.9
 30
0.0
  0
POINT
  5
7D
330
1F
100
AcDbEntity
  8
1
 62
     3
 60
     1
100
AcDbPoint
 10
2.0
 20
18.6
 30
0.0
  0
POINT
  5
7E
330
1F
100
AcDbEntity
  8
1
 62
     3
 60
     1
100
AcDbPoint
 10
-46.0
 20
14.25726558990816
 30
0.0
  0
POINT
  5
7F
330
1F
100
AcDbEntity
  8
1
 62
     3
 60
     1
100
AcDbPoint
 10
-54.0
 20
14.25726558990816
 30
0.0
  0
POINT
  5
80
330
1F
100
AcDbEntity
  8
1
 62
     3
 60
     1
100
AcDbPoint
 10
-50.0
 20
14.25726558990816
 30
0.0
  0
POINT
  5
81
330
1F
100
AcDbEntity
  8
1
 62
     3
 60
     1
100
AcDbPoint
 10
-54.0
 20
17.54273441009184
 30
0.0
  0
POINT
  5
82
330
1F
100
AcDbEntity
  8
1
 62
     3
 60
     1
100
AcDbPoint
 10
-50.0
 20
17.54273441009184
 30
0.0
  0
POINT
  5
83
330
1F
100
AcDbEntity
  8
1
 62
     3
 60
     1
100
AcDbPoint
 10
-46.0
 20
17.54273441009184
 30
0.0
  0
POINT
  5
84
330
1F
100
AcDbEntity
  8
1
 62
     3
 60
     1
100
AcDbPoint
 10
-44.0
 20
13.5
 30
0.0
  0
POINT
  5
85
330
1F
100
AcDbEntity
  8
1
 62
     3
 60
     1
100
AcDbPoint
 10
-50.0
 20
10.9
 30
0.0
  0
POINT
  5
86
330
1F
100
AcDbEntity
  8
1
 62
     3
 60
     1
100
AcDbPoint
 10
-56.0
 20
10.9
 30
0.0
  0
POINT
  5
87
330
1F
100
AcDbEntity
  8
1
 62
     3
 60
     1
100
AcDbPoint
 10
-50.0
 20
12.9
 30
0.0
  0
POINT
  5
88
330
1F
100
AcDbEntity
  8
1
 62
     3
 60
     1
100
AcDbPoint
 10
-55.0
 20
10.9
 30
0.0
  0
POINT
  5
89
330
1F
100
AcDbEntity
  8
1
 62
     3
 60
     1
100
AcDbPoint
 10
-47.0
 20
8.5
 30
0.0
  0
POINT
  5
8A
330
1F
100
AcDbEntity
  8
1
 62
     3
 60
     1
100
AcDbPoint
 10
-50.0
 20
0.0
 30
0.0
  0
POINT
  5
8B
330
1F
100
AcDbEntity
  8
1
 62
     3
 60
     1
100
AcDbPoint
 10
-43.0
 20
4.87564434701786
 30
0.0
  0
POINT
  5
8C
330
1F
100
AcDbEntity
  8
1
 62
     3
 60
     1
100
AcDbPoint
 10
-50.0
 20
8.5
 30
0.0
  0
POINT
  5
8D
330
1F
100
AcDbEntity
  8
1
 62
     3
 60
     1
100
AcDbPoint
 10
-8.5
 20
13.5
 30
0.0
  0
POINT
  5
8E
330
1F
100
AcDbEntity
  8
1
 62
     3
 60
     1
100
AcDbPoint
 10
0.0
 20
0.0
 30
0.0
  0
LINE
  5
8F
330
1F
100
AcDbEntity
  8
1
  6
Continuous
 62
     3
100
AcDbLine
 10
2.0
 20
68.5
 30
0.0
 11
-2.0
 21
68.5
 31
0.0
  0
LINE
  5
90
330
1F
100
AcDbEntity
  8
1
  6
Continuous
 62
     3
100
AcDbLine
 10
-2.0
 20
71.5
 30
0.0
 11
2.0
 21
71.5
 31
0.0
  0
LINE
  5
91
330
1F
100
AcDbEntity
  8
1
  6
Continuous
 62
     3
100
AcDbLine
 10
10.09958492358058
 20
75.0
 30
0.0
 11
10.09958492358058
 21
65.0
 31
0.0
  0
LINE
  5
92
330
1F
100
AcDbEntity
  8
1
  6
Continuous
 62
     3
100
AcDbLine
 10
56.43028554974586
 20
63.0
 30
0.0
 11
11.33137161448735
 21
63.0
 31
0.0
  0
LINE
  5
93
330
1F
100
AcDbEntity
  8
1
  6
Continuous
 62
     3
100
AcDbLine
 10
11.33137161448735
 20
77.0
 30
0.0
 11
56.43028554974588
 21
77.0
 31
0.0
  0
LINE
  5
94
330
1F
100
AcDbEntity
  8
1
  6
Continuous
 62
     3
100
AcDbLine
 10
10.33137161448734
 20
76.0
 30
0.0
 11
10.09958492358058
 21
76.0
 31
0.0
  0
LINE
  5
95
330
1F
100
AcDbEntity
  8
1
  6
Continuous
 62
     3
100
AcDbLine
 10
11.33137161448734
 20
75.0
 30
0.0
 11
11.33137161448734
 21
65.0
 31
0.0
  0
LINE
  5
96
330
1F
100
AcDbEntity
  8
1
  6
Continuous
 62
     3
100
AcDbLine
 10
17.07914932838774
 20
65.0
 30
0.0
 11
17.07914932838774
 21
75.0
 31
0.0
  0
LINE
  5
97
330
1F
100
AcDbEntity
  8
1
  6
Continuous
 62
     3
100
AcDbLine
 10
10.09958492358058
 20
64.0
 30
0.0
 11
10.33137161448734
 21
64.0
 31
0.0
  0
LINE
  5
98
330
1F
100
AcDbEntity
  8
1
  6
Continuous
 62
     3
100
AcDbLine
 10
10.09958492358058
 20
76.0
 30
0.0
 11
-8.0
 21
76.0
 31
0.0
  0
LINE
  5
99
330
1F
100
AcDbEntity
  8
1
  6
Continuous
 62
     3
100
AcDbLine
 10
0.0
 20
64.0
 30
0.0
 11
10.09958492358058
 21
64.0
 31
0.0
  0
LINE
  5
9A
330
1F
100
AcDbEntity
  8
1
  6
Continuous
 62
     3
100
AcDbLine
 10
-10.0
 20
74.0
 30
0.0
 11
-10.0
 21
70.5
 31
0.0
  0
LINE
  5
9B
330
1F
100
AcDbEntity
  8
1
  6
Continuous
 62
     3
100
AcDbLine
 10
-6.48074069840786
 20
70.0
 30
0.0
 11
-9.5
 21
70.0
 31
0.0
  0
LINE
  5
9C
102
{ACAD_REACTORS
330
333
102
}
330
1F
100
AcDbEntity
  8
1
  6
Continuous
 62
     3
100
AcDbLine
 10
51.78145408684825
 20
70.55393422299676
 30
0.0
 11
51.78145408684825
 21
69.00371079538982
 31
0.0
  0
LINE
  5
9D
102
{ACAD_REACTORS
330
333
102
}
330
1F
100
AcDbEntity
  8
1
  6
Continuous
 62
     3
100
AcDbLine
 10
51.04856608223768
 20
70.55393422299676
 30
0.0
 11
51.04856608223768
 21
69.00371079538982
 31
0.0
  0
LINE
  5
9E
102
{ACAD_REACTORS
330
333
102
}
330
1F
100
AcDbEntity
  8
1
  6
Continuous
 62
     3
100
AcDbLine
 10
51.04856608223768
 20
70.55393422299676
 30
0.0
 11
51.78145408684825
 21
70.55393422299676
 31
0.0
  0
LINE
  5
9F
102
{ACAD_REACTORS
330
330
102
}
330
1F
100
AcDbEntity
  8
1
  6
Continuous
 62
     3
100
AcDbLine
 10
50.57788683176973
 20
69.00371079538982
 30
0.0
 11
49.38233978623735
 21
70.9962892046102
 31
0.0
  0
LINE
  5
A0
102
{ACAD_REACTORS
330
330
102
}
330
1F
100
AcDbEntity
  8
1
  6
Continuous
 62
     3
100
AcDbLine
 10
49.48608191467225
 20
69.40222647723387
 30
0.0
 11
47.77739147164261
 21
69.40222647723387
 31
0.0
  0
LINE
  5
A1
102
{ACAD_REACTORS
330
330
102
}
330
1F
100
AcDbEntity
  8
1
  6
Continuous
 62
     3
100
AcDbLine
 10
49.27656712978979
 20
69.75092769884735
 30
0.0
 11
48.68174451016422
 21
70.74090735218357
 31
0.0
  0
LINE
  5
A2
102
{ACAD_REACTORS
330
330
102
}
330
1F
100
AcDbEntity
  8
1
  6
Continuous
 62
     3
100
AcDbLine
 10
48.01295845045241
 20
69.75092769884735
 30
0.0
 11
49.27656712978979
 21
69.75092769884735
 31
0.0
  0
LINE
  5
A3
102
{ACAD_REACTORS
330
330
102
}
330
1F
100
AcDbEntity
  8
1
  6
Continuous
 62
     3
100
AcDbLine
 10
49.7255273831093
 20
69.00371079538982
 30
0.0
 11
49.48608191467225
 21
69.40222647723387
 31
0.0
  0
LINE
  5
A4
102
{ACAD_REACTORS
330
330
102
}
330
1F
100
AcDbEntity
  8
1
  6
Continuous
 62
     3
100
AcDbLine
 10
49.7255273831093
 20
69.00371079538982
 30
0.0
 11
50.57788683176973
 21
69.00371079538982
 31
0.0
  0
LINE
  5
A5
102
{ACAD_REACTORS
330
330
102
}
330
1F
100
AcDbEntity
  8
1
  6
Continuous
 62
     3
100
AcDbLine
 10
46.94622583164469
 20
69.00371079538982
 30
0.0
 11
48.24140179763794
 21
70.9962892046102
 31
0.0
  0
LINE
  5
A6
102
{ACAD_REACTORS
330
330
102
}
330
1F
100
AcDbEntity
  8
1
  6
Continuous
 62
     3
100
AcDbLine
 10
48.24140179763794
 20
70.9962892046102
 30
0.0
 11
49.38233978623735
 21
70.9962892046102
 31
0.0
  0
LINE
  5
A7
102
{ACAD_REACTORS
330
330
102
}
330
1F
100
AcDbEntity
  8
1
  6
Continuous
 62
     3
100
AcDbLine
 10
46.94622583164469
 20
69.00371079538982
 30
0.0
 11
47.50817206728869
 21
69.00371079538982
 31
0.0
  0
LINE
  5
A8
102
{ACAD_REACTORS
330
330
102
}
330
1F
100
AcDbEntity
  8
1
  6
Continuous
 62
     3
100
AcDbLine
 10
48.01295845045241
 20
69.75092769884735
 30
0.0
 11
48.68174451016422
 21
70.74090735218357
 31
0.0
  0
LINE
  5
A9
102
{ACAD_REACTORS
330
330
102
}
330
1F
100
AcDbEntity
  8
1
  6
Continuous
 62
     3
100
AcDbLine
 10
47.77739147164261
 20
69.40222647723387
 30
0.0
 11
47.50817206728869
 21
69.00371079538982
 31
0.0
  0
LINE
  5
AA
102
{ACAD_REACTORS
330
331
102
}
330
1F
100
AcDbEntity
  8
1
  6
Continuous
 62
     3
100
AcDbLine
 10
42.4083153539651
 20
69.00371079538982
 30
0.0
 11
41.21276830843264
 21
70.9962892046102
 31
0.0
  0
LINE
  5
AB
102
{ACAD_REACTORS
330
332
102
}
330
1F
100
AcDbEntity
  8
1
  6
Continuous
 62
     3
100
AcDbLine
 10
46.5038708500311
 20
69.00371079538982
 30
0.0
 11
46.5038708500311
 21
70.9962892046102
 31
0.0
  0
LINE
  5
AC
102
{ACAD_REACTORS
330
331
102
}
330
1F
100
AcDbEntity
  8
1
  6
Continuous
 62
     3
100
AcDbLine
 10
41.31651043686777
 20
69.40222647723387
 30
0.0
 11
39.60781999383818
 21
69.40222647723387
 31
0.0
  0
LINE
  5
AD
102
{ACAD_REACTORS
330
331
102
}
330
1F
100
AcDbEntity
  8
1
  6
Continuous
 62
     3
100
AcDbLine
 10
41.10699565198519
 20
69.75092769884735
 30
0.0
 11
40.51217303235973
 21
70.74090735218357
 31
0.0
  0
LINE
  5
AE
102
{ACAD_REACTORS
330
331
102
}
330
1F
100
AcDbEntity
  8
1
  6
Continuous
 62
     3
100
AcDbLine
 10
39.84338697264793
 20
69.75092769884735
 30
0.0
 11
41.10699565198519
 21
69.75092769884735
 31
0.0
  0
LINE
  5
AF
102
{ACAD_REACTORS
330
331
102
}
330
1F
100
AcDbEntity
  8
1
  6
Continuous
 62
     3
100
AcDbLine
 10
41.55595590530482
 20
69.00371079538982
 30
0.0
 11
41.31651043686777
 21
69.40222647723387
 31
0.0
  0
LINE
  5
B0
102
{ACAD_REACTORS
330
331
102
}
330
1F
100
AcDbEntity
  8
1
  6
Continuous
 62
     3
100
AcDbLine
 10
41.55595590530482
 20
69.00371079538982
 30
0.0
 11
42.4083153539651
 21
69.00371079538982
 31
0.0
  0
LINE
  5
B1
102
{ACAD_REACTORS
330
332
102
}
330
1F
100
AcDbEntity
  8
1
  6
Continuous
 62
     3
100
AcDbLine
 10
42.85546493228134
 20
69.00371079538982
 30
0.0
 11
43.40068001550851
 21
69.00371079538982
 31
0.0
  0
LINE
  5
B2
102
{ACAD_REACTORS
330
332
102
}
330
1F
100
AcDbEntity
  8
1
  6
Continuous
 62
     3
100
AcDbLine
 10
42.85546493228134
 20
70.9962892046102
 30
0.0
 11
44.08075428846025
 21
70.9962892046102
 31
0.0
  0
LINE
  5
B3
102
{ACAD_REACTORS
330
332
102
}
330
1F
100
AcDbEntity
  8
1
  6
Continuous
 62
     3
100
AcDbLine
 10
42.85546493228134
 20
70.9962892046102
 30
0.0
 11
42.85546493228134
 21
69.00371079538982
 31
0.0
  0
LINE
  5
B4
102
{ACAD_REACTORS
330
335
102
}
330
1F
100
AcDbEntity
  8
1
  6
Continuous
 62
     3
100
AcDbLine
 10
38.39868633222645
 20
70.9962892046102
 30
0.0
 11
38.39868633222645
 21
69.00371079538982
 31
0.0
  0
LINE
  5
B5
102
{ACAD_REACTORS
330
331
102
}
330
1F
100
AcDbEntity
  8
1
  6
Continuous
 62
     3
100
AcDbLine
 10
38.77665435384018
 20
69.00371079538982
 30
0.0
 11
40.0718303198334
 21
70.9962892046102
 31
0.0
  0
LINE
  5
B6
102
{ACAD_REACTORS
330
331
102
}
330
1F
100
AcDbEntity
  8
1
  6
Continuous
 62
     3
100
AcDbLine
 10
40.0718303198334
 20
70.9962892046102
 30
0.0
 11
41.21276830843264
 21
70.9962892046102
 31
0.0
  0
LINE
  5
B7
102
{ACAD_REACTORS
330
331
102
}
330
1F
100
AcDbEntity
  8
1
  6
Continuous
 62
     3
100
AcDbLine
 10
38.77665435384018
 20
69.00371079538982
 30
0.0
 11
39.3386005894841
 21
69.00371079538982
 31
0.0
  0
LINE
  5
B8
102
{ACAD_REACTORS
330
332
102
}
330
1F
100
AcDbEntity
  8
1
  6
Continuous
 62
     3
100
AcDbLine
 10
45.65976900542078
 20
70.44833014207478
 30
0.0
 11
45.65976900542078
 21
69.00371079538982
 31
0.0
  0
LINE
  5
B9
102
{ACAD_REACTORS
330
332
102
}
330
1F
100
AcDbEntity
  8
1
  6
Continuous
 62
     3
100
AcDbLine
 10
45.65976900542078
 20
69.00371079538982
 30
0.0
 11
46.5038708500311
 21
69.00371079538982
 31
0.0
  0
LINE
  5
BA
102
{ACAD_REACTORS
330
332
102
}
330
1F
100
AcDbEntity
  8
1
  6
Continuous
 62
     3
100
AcDbLine
 10
43.40068001550851
 20
70.44833014207478
 30
0.0
 11
43.40068001550851
 21
69.00371079538982
 31
0.0
  0
LINE
  5
BB
102
{ACAD_REACTORS
330
335
102
}
330
1F
100
AcDbEntity
  8
1
  6
Continuous
 62
     3
100
AcDbLine
 10
37.53409772761629
 20
70.9962892046102
 30
0.0
 11
38.39868633222645
 21
70.9962892046102
 31
0.0
  0
LINE
  5
BC
102
{ACAD_REACTORS
330
335
102
}
330
1F
100
AcDbEntity
  8
1
  6
Continuous
 62
     3
100
AcDbLine
 10
37.53409772761629
 20
69.00371079538982
 30
0.0
 11
38.39868633222645
 21
69.00371079538982
 31
0.0
  0
LINE
  5
BD
102
{ACAD_REACTORS
330
335
102
}
330
1F
100
AcDbEntity
  8
1
  6
Continuous
 62
     3
100
AcDbLine
 10
37.53409772761629
 20
69.00371079538982
 30
0.0
 11
37.53409772761629
 21
69.82116801884726
 31
0.0
  0
LINE
  5
BE
102
{ACAD_REACTORS
330
335
102
}
330
1F
100
AcDbEntity
  8
1
  6
Continuous
 62
     3
100
AcDbLine
 10
37.53409772761629
 20
70.17883198115257
 30
0.0
 11
37.53409772761629
 21
70.9962892046102
 31
0.0
  0
LINE
  5
BF
102
{ACAD_REACTORS
330
331
102
}
330
1F
100
AcDbEntity
  8
1
  6
Continuous
 62
     3
100
AcDbLine
 10
39.84338697264793
 20
69.75092769884735
 30
0.0
 11
40.51217303235973
 21
70.74090735218357
 31
0.0
  0
LINE
  5
C0
102
{ACAD_REACTORS
330
331
102
}
330
1F
100
AcDbEntity
  8
1
  6
Continuous
 62
     3
100
AcDbLine
 10
39.60781999383818
 20
69.40222647723387
 30
0.0
 11
39.3386005894841
 21
69.00371079538982
 31
0.0
  0
LINE
  5
C1
102
{ACAD_REACTORS
330
332
102
}
330
1F
100
AcDbEntity
  8
1
  6
Continuous
 62
     3
100
AcDbLine
 10
45.65976900542078
 20
70.44833014207478
 30
0.0
 11
44.92581120657238
 21
69.00371079538982
 31
0.0
  0
LINE
  5
C2
102
{ACAD_REACTORS
330
332
102
}
330
1F
100
AcDbEntity
  8
1
  6
Continuous
 62
     3
100
AcDbLine
 10
44.92581120657238
 20
69.00371079538982
 30
0.0
 11
44.18669800608752
 21
69.00371079538982
 31
0.0
  0
LINE
  5
C3
102
{ACAD_REACTORS
330
332
102
}
330
1F
100
AcDbEntity
  8
1
  6
Continuous
 62
     3
100
AcDbLine
 10
44.18669800608752
 20
69.00371079538982
 30
0.0
 11
43.40068001550851
 21
70.44833014207478
 31
0.0
  0
LINE
  5
C4
102
{ACAD_REACTORS
330
332
102
}
330
1F
100
AcDbEntity
  8
1
  6
Continuous
 62
     3
100
AcDbLine
 10
44.68149953545265
 20
69.75092769884735
 30
0.0
 11
44.08075428846025
 21
70.9962892046102
 31
0.0
  0
LINE
  5
C5
102
{ACAD_REACTORS
330
332
102
}
330
1F
100
AcDbEntity
  8
1
  6
Continuous
 62
     3
100
AcDbLine
 10
44.68149953545265
 20
69.75092769884735
 30
0.0
 11
45.23815338817241
 21
70.9962892046102
 31
0.0
  0
LINE
  5
C6
102
{ACAD_REACTORS
330
332
102
}
330
1F
100
AcDbEntity
  8
1
  6
Continuous
 62
     3
100
AcDbLine
 10
45.23815338817241
 20
70.9962892046102
 30
0.0
 11
46.5038708500311
 21
70.9962892046102
 31
0.0
  0
LINE
  5
C7
102
{ACAD_REACTORS
330
333
102
}
330
1F
100
AcDbEntity
  8
1
  6
Continuous
 62
     3
100
AcDbLine
 10
51.04856608223768
 20
69.00371079538982
 30
0.0
 11
51.78145408684825
 21
69.00371079538982
 31
0.0
  0
LINE
  5
C8
102
{ACAD_REACTORS
330
335
102
}
330
1F
100
AcDbEntity
  8
1
  6
Continuous
 62
     3
100
AcDbLine
 10
36.17477840254509
 20
69.82116801884726
 30
0.0
 11
36.17477840254509
 21
69.00371079538982
 31
0.0
  0
LINE
  5
C9
102
{ACAD_REACTORS
330
335
102
}
330
1F
100
AcDbEntity
  8
1
  6
Continuous
 62
     3
100
AcDbLine
 10
36.17477840254509
 20
70.9962892046102
 30
0.0
 11
36.17477840254509
 21
70.17883198115257
 31
0.0
  0
LINE
  5
CA
102
{ACAD_REACTORS
330
335
102
}
330
1F
100
AcDbEntity
  8
1
  6
Continuous
 62
     3
100
AcDbLine
 10
37.53409772761629
 20
70.17883198115257
 30
0.0
 11
36.17477840254509
 21
70.17883198115257
 31
0.0
  0
LINE
  5
CB
102
{ACAD_REACTORS
330
335
102
}
330
1F
100
AcDbEntity
  8
1
  6
Continuous
 62
     3
100
AcDbLine
 10
37.53409772761629
 20
69.82116801884726
 30
0.0
 11
36.17477840254509
 21
69.82116801884726
 31
0.0
  0
LINE
  5
CC
102
{ACAD_REACTORS
330
335
102
}
330
1F
100
AcDbEntity
  8
1
  6
Continuous
 62
     3
100
AcDbLine
 10
36.17477840254509
 20
69.00371079538982
 30
0.0
 11
35.31018979793468
 21
69.00371079538982
 31
0.0
  0
LINE
  5
CD
102
{ACAD_REACTORS
330
335
102
}
330
1F
100
AcDbEntity
  8
1
  6
Continuous
 62
     3
100
AcDbLine
 10
36.17477840254509
 20
70.9962892046102
 30
0.0
 11
35.31018979793468
 21
70.9962892046102
 31
0.0
  0
LINE
  5
CE
102
{ACAD_REACTORS
330
334
102
}
330
1F
100
AcDbEntity
  8
1
  6
Continuous
 62
     3
100
AcDbLine
 10
30.32898043793458
 20
71.84
 30
0.0
 11
31.67525323793451
 21
71.84
 31
0.0
  0
LINE
  5
CF
102
{ACAD_REACTORS
330
334
102
}
330
1F
100
AcDbEntity
  8
1
  6
Continuous
 62
     3
100
AcDbLine
 10
30.32898043793458
 20
68.0
 30
0.0
 11
31.67525323793451
 21
68.0
 31
0.0
  0
LINE
  5
D0
102
{ACAD_REACTORS
330
334
102
}
330
1F
100
AcDbEntity
  8
1
  6
Continuous
 62
     3
100
AcDbLine
 10
30.32898043793458
 20
68.0
 30
0.0
 11
30.32898043793458
 21
71.84
 31
0.0
  0
LINE
  5
D1
102
{ACAD_REACTORS
330
334
102
}
330
1F
100
AcDbEntity
  8
1
  6
Continuous
 62
     3
100
AcDbLine
 10
31.67525323793451
 20
68.0
 30
0.0
 11
31.67525323793451
 21
71.84
 31
0.0
  0
LINE
  5
D2
102
{ACAD_REACTORS
330
336
102
}
330
1F
100
AcDbEntity
  8
1
  6
Continuous
 62
     3
100
AcDbLine
 10
29.39829619793472
 20
71.84
 30
0.0
 11
29.39829619793472
 21
68.0
 31
0.0
  0
LINE
  5
D3
102
{ACAD_REACTORS
330
337
102
}
330
1F
100
AcDbEntity
  8
1
  6
Continuous
 62
     3
100
AcDbLine
 10
32.60593747793451
 20
71.84
 30
0.0
 11
32.60593747793451
 21
68.0
 31
0.0
  0
LINE
  5
D4
102
{ACAD_REACTORS
330
337
102
}
330
1F
100
AcDbEntity
  8
1
  6
Continuous
 62
     3
100
AcDbLine
 10
33.95221027793469
 20
68.0
 30
0.0
 11
32.60593747793451
 21
68.0
 31
0.0
  0
LINE
  5
D5
102
{ACAD_REACTORS
330
337
102
}
330
1F
100
AcDbEntity
  8
1
  6
Continuous
 62
     3
100
AcDbLine
 10
33.95221027793469
 20
71.84
 30
0.0
 11
32.60593747793451
 21
71.84
 31
0.0
  0
LINE
  5
D6
102
{ACAD_REACTORS
330
335
102
}
330
1F
100
AcDbEntity
  8
1
  6
Continuous
 62
     3
100
AcDbLine
 10
35.31018979793468
 20
70.9962892046102
 30
0.0
 11
35.31018979793468
 21
69.00371079538982
 31
0.0
  0
LINE
  5
D7
102
{ACAD_REACTORS
330
336
102
}
330
1F
100
AcDbEntity
  8
1
  6
Continuous
 62
     3
100
AcDbLine
 10
28.05202339793468
 20
68.0
 30
0.0
 11
29.39829619793472
 21
68.0
 31
0.0
  0
LINE
  5
D8
102
{ACAD_REACTORS
330
336
102
}
330
1F
100
AcDbEntity
  8
1
  6
Continuous
 62
     3
100
AcDbLine
 10
28.05202339793468
 20
71.84
 30
0.0
 11
29.39829619793472
 21
71.84
 31
0.0
  0
LINE
  5
D9
102
{ACAD_REACTORS
330
336
102
}
330
1F
100
AcDbEntity
  8
1
  6
Continuous
 62
     3
100
AcDbLine
 10
28.05202339793468
 20
71.84
 30
0.0
 11
28.05202339793468
 21
68.0
 31
0.0
  0
LINE
  5
DA
102
{ACAD_REACTORS
330
337
102
}
330
1F
100
AcDbEntity
  8
1
  6
Continuous
 62
     3
100
AcDbLine
 10
33.95221027793469
 20
71.84
 30
0.0
 11
33.95221027793469
 21
68.0
 31
0.0
  0
LINE
  5
DB
102
{ACAD_REACTORS
330
339
102
}
330
1F
100
AcDbEntity
  8
1
  6
Continuous
 62
     3
100
AcDbLine
 10
23.76102136064765
 20
72.83069365190039
 30
0.0
 11
24.1807330302832
 21
72.93062500181381
 31
0.0
  0
LINE
  5
DC
102
{ACAD_REACTORS
330
338
102
}
330
1F
100
AcDbEntity
  8
1
  6
Continuous
 62
     3
100
AcDbLine
 10
20.55214347852618
 20
74.16416611820856
 30
0.0
 11
22.87807410311113
 21
74.16416611820856
 31
0.0
  0
LINE
  5
DD
102
{ACAD_REACTORS
330
338
102
}
330
1F
100
AcDbEntity
  8
1
  6
Continuous
 62
     3
100
AcDbLine
 10
20.25202339793467
 20
73.86404603761693
 30
0.0
 11
20.25202339793467
 21
73.33883589658157
 31
0.0
  0
LINE
  5
DE
102
{ACAD_REACTORS
330
338
102
}
330
1F
100
AcDbEntity
  8
1
  6
Continuous
 62
     3
100
AcDbLine
 10
20.55214347852618
 20
73.03871581599013
 30
0.0
 11
22.87807410311113
 21
73.03871581599013
 31
0.0
  0
LINE
  5
DF
102
{ACAD_REACTORS
330
338
102
}
330
1F
100
AcDbEntity
  8
1
  6
Continuous
 62
     3
100
AcDbLine
 10
23.17819418370275
 20
73.86404603761693
 30
0.0
 11
23.17819418370275
 21
73.33883589658157
 31
0.0
  0
LINE
  5
E0
102
{ACAD_REACTORS
330
33A
102
}
330
1F
100
AcDbEntity
  8
1
  6
Continuous
 62
     3
100
AcDbLine
 10
20.55214347852618
 20
66.96128418401008
 30
0.0
 11
21.21809982735673
 21
66.96128418401018
 31
0.0
  0
LINE
  5
E1
102
{ACAD_REACTORS
330
33A
102
}
330
1F
100
AcDbEntity
  8
1
  6
Continuous
 62
     3
100
AcDbLine
 10
20.25202339793467
 20
66.66116410341864
 30
0.0
 11
20.25202339793467
 21
66.13595396238318
 31
0.0
  0
LINE
  5
E2
102
{ACAD_REACTORS
330
33A
102
}
330
1F
100
AcDbEntity
  8
1
  6
Continuous
 62
     3
100
AcDbLine
 10
23.17819418370275
 20
66.66116410341864
 30
0.0
 11
23.17819418370275
 21
66.13595396238318
 31
0.0
  0
LINE
  5
E3
102
{ACAD_REACTORS
330
33A
102
}
330
1F
100
AcDbEntity
  8
1
  6
Continuous
 62
     3
100
AcDbLine
 10
21.93523222786903
 20
66.96128418401018
 30
0.0
 11
22.87807410311113
 21
66.96128418401008
 31
0.0
  0
LINE
  5
E4
102
{ACAD_REACTORS
330
339
102
}
330
1F
100
AcDbEntity
  8
1
  6
Continuous
 62
     3
100
AcDbLine
 10
24.1807330302832
 20
67.06937499818639
 30
0.0
 11
23.77228576380427
 21
67.166624347348
 31
0.0
  0
LINE
  5
E5
102
{ACAD_REACTORS
330
338
102
}
330
1F
100
AcDbEntity
  8
1
  6
Continuous
 62
     3
100
AcDbLine
 10
20.75378665767378
 20
73.9437654340242
 30
0.0
 11
22.67643092396364
 21
73.9437654340242
 31
0.0
  0
LINE
  5
E6
102
{ACAD_REACTORS
330
338
102
}
330
1F
100
AcDbEntity
  8
1
  6
Continuous
 62
     3
100
AcDbLine
 10
20.75378665767378
 20
73.2591165001745
 30
0.0
 11
22.67643092396364
 21
73.2591165001745
 31
0.0
  0
LINE
  5
E7
102
{ACAD_REACTORS
330
338
102
}
330
1F
100
AcDbEntity
  8
1
  6
Continuous
 62
     3
100
AcDbLine
 10
22.9577934995183
 20
73.6624028584693
 30
0.0
 11
22.9577934995183
 21
73.54047907572908
 31
0.0
  0
LINE
  5
E8
102
{ACAD_REACTORS
330
338
102
}
330
1F
100
AcDbEntity
  8
1
  6
Continuous
 62
     3
100
AcDbLine
 10
20.47242408211915
 20
73.6624028584693
 30
0.0
 11
20.47242408211915
 21
73.54047907572908
 31
0.0
  0
LINE
  5
E9
102
{ACAD_REACTORS
330
33A
102
}
330
1F
100
AcDbEntity
  8
1
  6
Continuous
 62
     3
100
AcDbLine
 10
20.75378665767378
 20
66.7408834998256
 30
0.0
 11
21.21809982735673
 21
66.74088349982583
 31
0.0
  0
LINE
  5
EA
102
{ACAD_REACTORS
330
33A
102
}
330
1F
100
AcDbEntity
  8
1
  6
Continuous
 62
     3
100
AcDbLine
 10
22.67643092396364
 20
66.05623456597613
 30
0.0
 11
22.16657012099066
 21
66.05623456597613
 31
0.0
  0
LINE
  5
EB
102
{ACAD_REACTORS
330
33A
102
}
330
1F
100
AcDbEntity
  8
1
  6
Continuous
 62
     3
100
AcDbLine
 10
22.9577934995183
 20
66.45952092427092
 30
0.0
 11
22.9577934995183
 21
66.3375971415307
 31
0.0
  0
LINE
  5
EC
102
{ACAD_REACTORS
330
33A
102
}
330
1F
100
AcDbEntity
  8
1
  6
Continuous
 62
     3
100
AcDbLine
 10
20.47242408211915
 20
66.45952092427092
 30
0.0
 11
20.47242408211915
 21
66.3375971415307
 31
0.0
  0
LINE
  5
ED
102
{ACAD_REACTORS
330
33A
102
}
330
1F
100
AcDbEntity
  8
1
  6
Continuous
 62
     3
100
AcDbLine
 10
21.91986099621031
 20
66.6762766863699
 30
0.0
 11
21.42941587793312
 21
65.91336205793894
 31
0.0
  0
LINE
  5
EE
102
{ACAD_REACTORS
330
33A
102
}
330
1F
100
AcDbEntity
  8
1
  6
Continuous
 62
     3
100
AcDbLine
 10
22.03819906737699
 20
66.74088349982583
 30
0.0
 11
22.67643092396364
 21
66.7408834998256
 31
0.0
  0
LINE
  5
EF
102
{ACAD_REACTORS
330
33A
102
}
330
1F
100
AcDbEntity
  8
1
  6
Continuous
 62
     3
100
AcDbLine
 10
21.1825150184748
 20
66.05623456597613
 30
0.0
 11
20.75378665767378
 21
66.05623456597613
 31
0.0
  0
LINE
  5
F0
102
{ACAD_REACTORS
330
33A
102
}
330
1F
100
AcDbEntity
  8
1
  6
Continuous
 62
     3
100
AcDbLine
 10
21.28741019253335
 20
65.83583388179166
 30
0.0
 11
20.55214347852618
 21
65.83583388179166
 31
0.0
  0
LINE
  5
F1
102
{ACAD_REACTORS
330
33A
102
}
330
1F
100
AcDbEntity
  8
1
  6
Continuous
 62
     3
100
AcDbLine
 10
21.93523222786903
 20
66.96128418401018
 30
0.0
 11
21.93415274409708
 21
66.96128418401018
 31
0.0
  0
LINE
  5
F2
102
{ACAD_REACTORS
330
33A
102
}
330
1F
100
AcDbEntity
  8
1
  6
Continuous
 62
     3
100
AcDbLine
 10
21.79221892734109
 20
66.88386770690579
 30
0.0
 11
21.30079319910477
 21
66.12074829689651
 31
0.0
  0
LINE
  5
F3
102
{ACAD_REACTORS
330
33A
102
}
330
1F
100
AcDbEntity
  8
1
  6
Continuous
 62
     3
100
AcDbLine
 10
21.21809982735673
 20
66.96128418401018
 30
0.0
 11
21.21809982735673
 21
66.74088349982583
 31
0.0
  0
LINE
  5
F4
102
{ACAD_REACTORS
330
33A
102
}
330
1F
100
AcDbEntity
  8
1
  6
Continuous
 62
     3
100
AcDbLine
 10
22.16657012099066
 20
66.05623456597613
 30
0.0
 11
22.16657012099066
 21
65.83583388179166
 31
0.0
  0
LINE
  5
F5
102
{ACAD_REACTORS
330
33A
102
}
330
1F
100
AcDbEntity
  8
1
  6
Continuous
 62
     3
100
AcDbLine
 10
22.16657012099066
 20
65.83583388179166
 30
0.0
 11
22.87807410311113
 21
65.83583388179166
 31
0.0
  0
LINE
  5
F6
102
{ACAD_REACTORS
330
339
102
}
330
1F
100
AcDbEntity
  8
1
  6
Continuous
 62
     3
100
AcDbLine
 10
23.57210178947918
 20
74.42496997985232
 30
0.0
 11
23.76102136064765
 21
72.83069365190039
 31
0.0
  0
LINE
  5
F7
102
{ACAD_REACTORS
330
339
102
}
330
1F
100
AcDbEntity
  8
1
  6
Continuous
 62
     3
100
AcDbLine
 10
23.77228576380427
 20
67.166624347348
 30
0.0
 11
23.57210178947918
 21
65.57503002014792
 31
0.0
  0
LINE
  5
F8
330
1F
100
AcDbEntity
  8
1
  6
Continuous
 62
     3
100
AcDbLine
 10
2.3094010767585
 20
74.0
 30
0.0
 11
-2.3094010767585
 21
74.0
 31
0.0
  0
LINE
  5
F9
330
1F
100
AcDbEntity
  8
1
  6
Continuous
 62
     3
100
AcDbLine
 10
4.61880215351701
 20
70.0
 30
0.0
 11
2.3094010767585
 21
74.0
 31
0.0
  0
LINE
  5
FA
330
1F
100
AcDbEntity
  8
1
  6
Continuous
 62
     3
100
AcDbLine
 10
2.3094010767585
 20
66.0
 30
0.0
 11
4.61880215351701
 21
70.0
 31
0.0
  0
LINE
  5
FB
330
1F
100
AcDbEntity
  8
1
  6
Continuous
 62
     3
100
AcDbLine
 10
-2.3094010767585
 20
66.0
 30
0.0
 11
2.3094010767585
 21
66.0
 31
0.0
  0
LINE
  5
FC
330
1F
100
AcDbEntity
  8
1
  6
Continuous
 62
     3
100
AcDbLine
 10
-4.61880215351701
 20
70.0
 30
0.0
 11
-2.3094010767585
 21
66.0
 31
0.0
  0
LINE
  5
FD
330
1F
100
AcDbEntity
  8
1
  6
Continuous
 62
     3
100
AcDbLine
 10
-2.3094010767585
 20
74.0
 30
0.0
 11
-4.61880215351701
 21
70.0
 31
0.0
  0
LINE
  5
FE
330
1F
100
AcDbEntity
  8
1
  6
DOT_CENTER
 62
     4
100
AcDbLine
 10
-50.0
 20
14.25726558990816
 30
0.0
 11
-50.0
 21
13.0
 31
0.0
  0
LINE
  5
FF
330
1F
100
AcDbEntity
  8
1
  6
DOT_CENTER
 62
     4
100
AcDbLine
 10
-50.0
 20
17.54273441009184
 30
0.0
 11
-50.0
 21
36.0
 31
0.0
  0
LINE
  5
100
330
1F
100
AcDbEntity
  8
1
  6
DOT_CENTER
 62
     4
100
AcDbLine
 10
-50.0
 20
8.5
 30
0.0
 11
-50.0
 21
-9.50000000000001
 31
0.0
  0
LINE
  5
101
330
1F
100
AcDbEntity
  8
1
  6
DOT_CENTER
 62
     4
100
AcDbLine
 10
-60.81495457622364
 20
0.0
 30
0.0
 11
-39.18504542377635
 21
-0.00000000000002
 31
0.0
  0
LINE
  5
102
330
1F
100
AcDbEntity
  8
1
  6
Continuous
 62
     3
100
AcDbLine
 10
2.0
 20
18.1
 30
0.0
 11
2.5
 21
18.1
 31
0.0
  0
LINE
  5
103
330
1F
100
AcDbEntity
  8
1
  6
Continuous
 62
     3
100
AcDbLine
 10
1.3228756555323
 20
18.6
 30
0.0
 11
-1.3228756555323
 21
18.6
 31
0.0
  0
LINE
  5
104
330
1F
100
AcDbEntity
  8
1
  6
Continuous
 62
     3
100
AcDbLine
 10
2.0
 20
18.1
 30
0.0
 11
1.3228756555323
 21
18.6
 31
0.0
  0
LINE
  5
105
330
1F
100
AcDbEntity
  8
1
  6
Continuous
 62
     3
100
AcDbLine
 10
-2.0
 20
18.1
 30
0.0
 11
-2.0
 21
17.9
 31
0.0
  0
LINE
  5
106
330
1F
100
AcDbEntity
  8
1
  6
Continuous
 62
     3
100
AcDbLine
 10
-1.3228756555323
 20
18.6
 30
0.0
 11
-2.0
 21
18.6
 31
0.0
  0
LINE
  5
107
330
1F
100
AcDbEntity
  8
1
  6
Continuous
 62
     3
100
AcDbLine
 10
-2.0
 20
18.1
 30
0.0
 11
-1.3228756555323
 21
18.6
 31
0.0
  0
LINE
  5
108
330
1F
100
AcDbEntity
  8
1
  6
Continuous
 62
     3
100
AcDbLine
 10
-2.5
 20
18.1
 30
0.0
 11
-2.0
 21
18.1
 31
0.0
  0
LINE
  5
109
330
1F
100
AcDbEntity
  8
1
  6
Continuous
 62
     3
100
AcDbLine
 10
-2.067
 20
18.533
 30
0.0
 11
-2.5
 21
18.1
 31
0.0
  0
LINE
  5
10A
330
1F
100
AcDbEntity
  8
1
  6
Continuous
 62
     4
100
AcDbLine
 10
-2.067
 20
18.533
 30
0.0
 11
-2.067
 21
17.9
 31
0.0
  0
LINE
  5
10B
330
1F
100
AcDbEntity
  8
1
  6
Continuous
 62
     3
100
AcDbLine
 10
2.067
 20
18.533
 30
0.0
 11
2.5
 21
18.1
 31
0.0
  0
LINE
  5
10C
330
1F
100
AcDbEntity
  8
1
  6
Continuous
 62
     4
100
AcDbLine
 10
2.067
 20
18.533
 30
0.0
 11
2.067
 21
17.9
 31
0.0
  0
LINE
  5
10D
330
1F
100
AcDbEntity
  8
1
  6
Continuous
 62
     3
100
AcDbLine
 10
-2.0
 20
18.6
 30
0.0
 11
-2.067
 21
18.533
 31
0.0
  0
LINE
  5
10E
330
1F
100
AcDbEntity
  8
1
  6
Continuous
 62
     3
100
AcDbLine
 10
2.0
 20
18.6
 30
0.0
 11
2.067
 21
18.533
 31
0.0
  0
LINE
  5
10F
330
1F
100
AcDbEntity
  8
1
  6
Continuous
 62
     3
100
AcDbLine
 10
-2.5
 20
18.1
 30
0.0
 11
-2.5
 21
17.9
 31
0.0
  0
LINE
  5
110
330
1F
100
AcDbEntity
  8
1
  6
Continuous
 62
     3
100
AcDbLine
 10
2.0
 20
18.6
 30
0.0
 11
1.3228756555323
 21
18.6
 31
0.0
  0
LINE
  5
111
330
1F
100
AcDbEntity
  8
1
  6
Continuous
 62
     3
100
AcDbLine
 10
2.5
 20
17.9
 30
0.0
 11
2.5
 21
18.1
 31
0.0
  0
LINE
  5
112
330
1F
100
AcDbEntity
  8
1
  6
Continuous
 62
     3
100
AcDbLine
 10
2.0
 20
17.9
 30
0.0
 11
2.0
 21
18.1
 31
0.0
  0
LINE
  5
113
330
1F
100
AcDbEntity
  8
1
  6
Continuous
 62
     3
100
AcDbLine
 10
4.55
 20
8.5
 30
0.0
 11
4.55
 21
8.9
 31
0.0
  0
LINE
  5
114
330
1F
100
AcDbEntity
  8
1
  6
Continuous
 62
     3
100
AcDbLine
 10
4.55
 20
8.9
 30
0.0
 11
-4.55
 21
8.9
 31
0.0
  0
LINE
  5
115
330
1F
100
AcDbEntity
  8
1
  6
Continuous
 62
     3
100
AcDbLine
 10
-4.55
 20
8.9
 30
0.0
 11
-4.55
 21
8.5
 31
0.0
  0
LINE
  5
116
330
1F
100
AcDbEntity
  8
1
  6
Continuous
 62
     3
100
AcDbLine
 10
-4.5
 20
8.9
 30
0.0
 11
-4.5
 21
9.9
 31
0.0
  0
LINE
  5
117
330
1F
100
AcDbEntity
  8
1
  6
Continuous
 62
     3
100
AcDbLine
 10
4.5
 20
9.9
 30
0.0
 11
4.5
 21
8.9
 31
0.0
  0
LINE
  5
118
330
1F
100
AcDbEntity
  8
1
  6
Continuous
 62
     3
100
AcDbLine
 10
12.55991174072299
 20
13.81208357425128
 30
0.0
 11
12.45794033030479
 21
13.53191942669733
 31
0.0
  0
LINE
  5
119
330
1F
100
AcDbEntity
  8
1
  6
Continuous
 62
     3
100
AcDbLine
 10
58.0
 20
31.0
 30
0.0
 11
20.5801870194363
 21
31.0
 31
0.0
  0
LINE
  5
11A
330
1F
100
AcDbEntity
  8
1
  6
Continuous
 62
     3
100
AcDbLine
 10
20.58018701943629
 20
35.0
 30
0.0
 11
58.00000000000001
 21
35.0
 31
0.0
  0
LINE
  5
11B
330
1F
100
AcDbEntity
  8
1
  6
Continuous
 62
     3
100
AcDbLine
 10
11.45198637291553
 20
19.53949684424857
 30
0.0
 11
15.88172391550675
 21
31.71010071662834
 31
0.0
  0
LINE
  5
11C
330
1F
100
AcDbEntity
  8
1
  6
Continuous
 62
     3
100
AcDbLine
 10
19.64049439865039
 20
30.34202014332567
 30
0.0
 11
13.57751741895326
 21
13.68412779693465
 31
0.0
  0
LINE
  5
11D
330
1F
100
AcDbEntity
  8
1
  6
Continuous
 62
     3
100
AcDbLine
 10
-6.0
 20
12.9
 30
0.0
 11
8.69916984716116
 21
12.9
 31
0.0
  0
LINE
  5
11E
330
1F
100
AcDbEntity
  8
1
  6
Continuous
 62
     3
100
AcDbLine
 10
10.57855508873298
 20
14.21595971334866
 30
0.0
 11
11.7441550979752
 21
17.41841941885777
 31
0.0
  0
LINE
  5
11F
330
1F
100
AcDbEntity
  8
1
  6
Continuous
 62
     3
100
AcDbLine
 10
8.69916984716116
 20
10.9
 30
0.0
 11
-6.0
 21
10.9
 31
0.0
  0
LINE
  5
120
330
1F
100
AcDbEntity
  8
1
  6
Continuous
 62
     3
100
AcDbLine
 10
-5.0
 20
9.9
 30
0.0
 11
-5.0
 21
10.9
 31
0.0
  0
LINE
  5
121
330
1F
100
AcDbEntity
  8
1
  6
Continuous
 62
     3
100
AcDbLine
 10
5.0
 20
10.9
 30
0.0
 11
5.0
 21
9.9
 31
0.0
  0
LINE
  5
122
330
1F
100
AcDbEntity
  8
1
  6
Continuous
 62
     3
100
AcDbLine
 10
-5.0
 20
9.9
 30
0.0
 11
5.0
 21
9.9
 31
0.0
  0
LINE
  5
123
330
1F
100
AcDbEntity
  8
1
  6
Continuous
 62
     3
100
AcDbLine
 10
-4.5
 20
13.6
 30
0.0
 11
-4.5
 21
13.2
 31
0.0
  0
LINE
  5
124
330
1F
100
AcDbEntity
  8
1
  6
Continuous
 62
     3
100
AcDbLine
 10
4.5
 20
13.2
 30
0.0
 11
4.5
 21
13.6
 31
0.0
  0
LINE
  5
125
330
1F
100
AcDbEntity
  8
1
  6
Continuous
 62
     3
100
AcDbLine
 10
4.2
 20
13.9
 30
0.0
 11
-4.2
 21
13.9
 31
0.0
  0
LINE
  5
126
330
1F
100
AcDbEntity
  8
1
  6
Continuous
 62
     3
100
AcDbLine
 10
-4.61880215351701
 20
17.54273441009184
 30
0.0
 11
-4.0
 21
17.9
 31
0.0
  0
LINE
  5
127
330
1F
100
AcDbEntity
  8
1
  6
Continuous
 62
     3
100
AcDbLine
 10
-4.61880215351701
 20
14.25726558990816
 30
0.0
 11
-4.61880215351701
 21
17.54273441009184
 31
0.0
  0
LINE
  5
128
330
1F
100
AcDbEntity
  8
1
  6
Continuous
 62
     3
100
AcDbLine
 10
-4.0
 20
13.9
 30
0.0
 11
-4.61880215351701
 21
14.25726558990816
 31
0.0
  0
LINE
  5
129
330
1F
100
AcDbEntity
  8
1
  6
Continuous
 62
     3
100
AcDbLine
 10
-4.0
 20
17.9
 30
0.0
 11
4.0
 21
17.9
 31
0.0
  0
LINE
  5
12A
330
1F
100
AcDbEntity
  8
1
  6
Continuous
 62
     3
100
AcDbLine
 10
4.61880215351701
 20
14.25726558990816
 30
0.0
 11
4.0
 21
13.9
 31
0.0
  0
LINE
  5
12B
330
1F
100
AcDbEntity
  8
1
  6
Continuous
 62
     3
100
AcDbLine
 10
4.61880215351701
 20
17.54273441009184
 30
0.0
 11
4.61880215351701
 21
14.25726558990816
 31
0.0
  0
LINE
  5
12C
330
1F
100
AcDbEntity
  8
1
  6
Continuous
 62
     3
100
AcDbLine
 10
4.0
 20
17.9
 30
0.0
 11
4.61880215351701
 21
17.54273441009184
 31
0.0
  0
LINE
  5
12D
330
1F
100
AcDbEntity
  8
1
  6
Continuous
 62
     3
100
AcDbLine
 10
2.3094010767585
 20
17.54273441009183
 30
0.0
 11
2.3094010767585
 21
14.25726558990816
 31
0.0
  0
LINE
  5
12E
330
1F
100
AcDbEntity
  8
1
  6
Continuous
 62
     3
100
AcDbLine
 10
-2.3094010767585
 20
17.54273441009183
 30
0.0
 11
-2.3094010767585
 21
14.25726558990816
 31
0.0
  0
LINE
  5
12F
330
1F
100
AcDbEntity
  8
1
  6
Continuous
 62
     3
100
AcDbLine
 10
-48.5
 20
18.1
 30
0.0
 11
-48.5
 21
17.9
 31
0.0
  0
LINE
  5
130
330
1F
100
AcDbEntity
  8
1
  6
Continuous
 62
     3
100
AcDbLine
 10
-51.5
 20
18.1
 30
0.0
 11
-51.5
 21
18.6
 31
0.0
  0
LINE
  5
131
330
1F
100
AcDbEntity
  8
1
  6
Continuous
 62
     3
100
AcDbLine
 10
-51.5
 20
18.1
 30
0.0
 11
-48.5
 21
18.1
 31
0.0
  0
LINE
  5
132
330
1F
100
AcDbEntity
  8
1
  6
Continuous
 62
     3
100
AcDbLine
 10
-48.5
 20
17.9
 30
0.0
 11
-46.0
 21
17.9
 31
0.0
  0
LINE
  5
133
330
1F
100
AcDbEntity
  8
1
  6
Continuous
 62
     3
100
AcDbLine
 10
-48.5
 20
18.6
 30
0.0
 11
-48.5
 21
18.1
 31
0.0
  0
LINE
  5
134
330
1F
100
AcDbEntity
  8
1
  6
Continuous
 62
     3
100
AcDbLine
 10
-51.5
 20
18.6
 30
0.0
 11
-48.5
 21
18.6
 31
0.0
  0
LINE
  5
135
330
1F
100
AcDbEntity
  8
1
  6
Continuous
 62
     3
100
AcDbLine
 10
-51.5
 20
17.9
 30
0.0
 11
-48.5
 21
17.9
 31
0.0
  0
LINE
  5
136
330
1F
100
AcDbEntity
  8
1
  6
Continuous
 62
     3
100
AcDbLine
 10
-51.5
 20
17.9
 30
0.0
 11
-51.5
 21
18.1
 31
0.0
  0
LINE
  5
137
330
1F
100
AcDbEntity
  8
1
  6
Continuous
 62
     3
100
AcDbLine
 10
-45.5
 20
13.5
 30
0.0
 11
-45.5
 21
13.6
 31
0.0
  0
LINE
  5
138
330
1F
100
AcDbEntity
  8
1
  6
Continuous
 62
     3
100
AcDbLine
 10
-46.0
 20
13.9
 30
0.0
 11
-45.8
 21
13.9
 31
0.0
  0
LINE
  5
139
330
1F
100
AcDbEntity
  8
1
  6
Continuous
 62
     3
100
AcDbLine
 10
-54.0
 20
13.9
 30
0.0
 11
-54.2
 21
13.9
 31
0.0
  0
LINE
  5
13A
330
1F
100
AcDbEntity
  8
1
  6
Continuous
 62
     3
100
AcDbLine
 10
-54.5
 20
13.6
 30
0.0
 11
-54.5
 21
13.2
 31
0.0
  0
LINE
  5
13B
330
1F
100
AcDbEntity
  8
1
  6
Continuous
 62
     3
100
AcDbLine
 10
-50.0
 20
17.54273441009184
 30
0.0
 11
-50.0
 21
14.25726558990816
 31
0.0
  0
LINE
  5
13C
330
1F
100
AcDbEntity
  8
1
  6
Continuous
 62
     3
100
AcDbLine
 10
-46.0
 20
14.25726558990816
 30
0.0
 11
-46.0
 21
13.9
 31
0.0
  0
LINE
  5
13D
330
1F
100
AcDbEntity
  8
1
  6
Continuous
 62
     3
100
AcDbLine
 10
-54.0
 20
14.25726558990816
 30
0.0
 11
-54.0
 21
17.54273441009184
 31
0.0
  0
LINE
  5
13E
330
1F
100
AcDbEntity
  8
1
  6
Continuous
 62
     3
100
AcDbLine
 10
-54.0
 20
17.54273441009184
 30
0.0
 11
-54.0
 21
17.9
 31
0.0
  0
LINE
  5
13F
330
1F
100
AcDbEntity
  8
1
  6
Continuous
 62
     3
100
AcDbLine
 10
-46.0
 20
17.54273441009184
 30
0.0
 11
-46.0
 21
14.25726558990816
 31
0.0
  0
LINE
  5
140
330
1F
100
AcDbEntity
  8
1
  6
Continuous
 62
     3
100
AcDbLine
 10
-54.0
 20
13.9
 30
0.0
 11
-54.0
 21
14.25726558990816
 31
0.0
  0
LINE
  5
141
330
1F
100
AcDbEntity
  8
1
  6
Continuous
 62
     3
100
AcDbLine
 10
-46.0
 20
13.9
 30
0.0
 11
-54.0
 21
13.9
 31
0.0
  0
LINE
  5
142
330
1F
100
AcDbEntity
  8
1
  6
Continuous
 62
     3
100
AcDbLine
 10
-46.0
 20
17.9
 30
0.0
 11
-46.0
 21
17.54273441009184
 31
0.0
  0
LINE
  5
143
330
1F
100
AcDbEntity
  8
1
  6
Continuous
 62
     3
100
AcDbLine
 10
-54.0
 20
17.9
 30
0.0
 11
-51.5
 21
17.9
 31
0.0
  0
LINE
  5
144
330
1F
100
AcDbEntity
  8
1
  6
Continuous
 62
     3
100
AcDbLine
 10
-56.0
 20
13.35347439671639
 30
0.0
 11
-56.0
 21
15.41841941885777
 31
0.0
  0
LINE
  5
145
330
1F
100
AcDbEntity
  8
1
  6
Continuous
 62
     3
100
AcDbLine
 10
-57.0
 20
33.0
 30
0.0
 11
-57.0
 21
14.35347439671639
 31
0.0
  0
LINE
  5
146
330
1F
100
AcDbEntity
  8
1
  6
Continuous
 62
     3
100
AcDbLine
 10
-43.0
 20
33.0
 30
0.0
 11
-43.0
 21
14.35347439671639
 31
0.0
  0
LINE
  5
147
330
1F
100
AcDbEntity
  8
1
  6
Continuous
 62
     3
100
AcDbLine
 10
-55.0
 20
35.0
 30
0.0
 11
-45.0
 21
35.0
 31
0.0
  0
LINE
  5
148
330
1F
100
AcDbEntity
  8
1
  6
Continuous
 62
     3
100
AcDbLine
 10
-44.0
 20
15.41841941885777
 30
0.0
 11
-44.0
 21
13.5
 31
0.0
  0
LINE
  5
149
330
1F
100
AcDbEntity
  8
1
  6
Continuous
 62
     3
100
AcDbLine
 10
-56.0
 20
12.4
 30
0.0
 11
-56.0
 21
13.35347439671639
 31
0.0
  0
LINE
  5
14A
330
1F
100
AcDbEntity
  8
1
  6
Continuous
 62
     3
100
AcDbLine
 10
-56.0
 20
10.9
 30
0.0
 11
-50.0
 21
10.9
 31
0.0
  0
LINE
  5
14B
330
1F
100
AcDbEntity
  8
1
  6
Continuous
 62
     3
100
AcDbLine
 10
-56.0
 20
12.4
 30
0.0
 11
-56.0
 21
10.9
 31
0.0
  0
LINE
  5
14C
330
1F
100
AcDbEntity
  8
1
  6
Continuous
 62
     3
100
AcDbLine
 10
-50.0
 20
12.9
 30
0.0
 11
-55.5
 21
12.9
 31
0.0
  0
LINE
  5
14D
330
1F
100
AcDbEntity
  8
1
  6
Continuous
 62
     3
100
AcDbLine
 10
-50.0
 20
8.9
 30
0.0
 11
-54.55
 21
8.9
 31
0.0
  0
LINE
  5
14E
330
1F
100
AcDbEntity
  8
1
  6
Continuous
 62
     3
100
AcDbLine
 10
-55.0
 20
9.9
 30
0.0
 11
-50.0
 21
9.9
 31
0.0
  0
LINE
  5
14F
330
1F
100
AcDbEntity
  8
1
  6
Continuous
 62
     3
100
AcDbLine
 10
-55.0
 20
9.9
 30
0.0
 11
-55.0
 21
10.9
 31
0.0
  0
LINE
  5
150
330
1F
100
AcDbEntity
  8
1
  6
Continuous
 62
     3
100
AcDbLine
 10
-54.5
 20
8.9
 30
0.0
 11
-54.5
 21
9.9
 31
0.0
  0
LINE
  5
151
330
1F
100
AcDbEntity
  8
1
  6
Continuous
 62
     3
100
AcDbLine
 10
-54.55
 20
8.9
 30
0.0
 11
-54.55
 21
8.5
 31
0.0
  0
LINE
  5
152
330
1F
100
AcDbEntity
  8
1
  6
Continuous
 62
     3
100
AcDbLine
 10
-47.0
 20
8.5
 30
0.0
 11
-47.0
 21
13.0
 31
0.0
  0
LINE
  5
153
330
1F
100
AcDbEntity
  8
1
  6
Continuous
 62
     3
100
AcDbLine
 10
-43.0
 20
4.87564434701786
 30
0.0
 11
-45.09252271188818
 21
8.5
 31
0.0
  0
LINE
  5
154
330
1F
100
AcDbEntity
  8
1
  6
Continuous
 62
     3
100
AcDbLine
 10
-43.0
 20
13.0
 30
0.0
 11
-43.0
 21
4.87564434701786
 31
0.0
  0
LINE
  5
155
330
1F
100
AcDbEntity
  8
1
  6
Continuous
 62
     3
100
AcDbLine
 10
-49.5
 20
13.5
 30
0.0
 11
-43.5
 21
13.5
 31
0.0
  0
LINE
  5
156
330
1F
100
AcDbEntity
  8
1
  6
Continuous
 62
     3
100
AcDbLine
 10
-50.0
 20
8.5
 30
0.0
 11
-54.90747728811182
 21
8.5
 31
0.0
  0
LINE
  5
157
330
1F
100
AcDbEntity
  8
1
  6
Continuous
 62
     3
100
AcDbLine
 10
-50.0
 20
8.5
 30
0.0
 11
-50.0
 21
13.0
 31
0.0
  0
LINE
  5
158
330
1F
100
AcDbEntity
  8
1
  6
Continuous
 62
     3
100
AcDbLine
 10
-40.18504542377635
 20
-0.00000000000002
 30
0.0
 11
-43.0
 21
4.87564434701786
 31
0.0
  0
LINE
  5
159
330
1F
100
AcDbEntity
  8
1
  6
Continuous
 62
     3
100
AcDbLine
 10
-45.09252271188818
 20
-8.50000000000001
 30
0.0
 11
-40.18504542377635
 21
-0.00000000000002
 31
0.0
  0
LINE
  5
15A
330
1F
100
AcDbEntity
  8
1
  6
Continuous
 62
     3
100
AcDbLine
 10
-54.90747728811184
 20
-8.50000000000001
 30
0.0
 11
-45.09252271188818
 21
-8.50000000000001
 31
0.0
  0
LINE
  5
15B
330
1F
100
AcDbEntity
  8
1
  6
Continuous
 62
     3
100
AcDbLine
 10
-59.81495457622364
 20
0.0
 30
0.0
 11
-54.90747728811184
 21
-8.50000000000001
 31
0.0
  0
LINE
  5
15C
330
1F
100
AcDbEntity
  8
1
  6
Continuous
 62
     3
100
AcDbLine
 10
-54.90747728811182
 20
8.5
 30
0.0
 11
-59.81495457622364
 21
0.0
 31
0.0
  0
LINE
  5
15D
330
1F
100
AcDbEntity
  8
1
  6
Continuous
 62
     3
100
AcDbLine
 10
-45.09252271188818
 20
8.5
 30
0.0
 11
-50.0
 21
8.5
 31
0.0
  0
LINE
  5
15E
330
1F
100
AcDbEntity
  8
1
  6
DOT_CENTER
 62
     4
100
AcDbLine
 10
0.0
 20
-9.0
 30
0.0
 11
0.0
 21
19.3
 31
0.0
  0
LINE
  5
15F
330
1F
100
AcDbEntity
  8
1
  6
DOT_CENTER
 62
     4
100
AcDbLine
 10
-19.5
 20
0.0
 30
0.0
 11
-17.59647305414774
 21
0.0
 31
0.0
  0
LINE
  5
160
330
1F
100
AcDbEntity
  8
1
  6
DOT_CENTER
 62
     4
100
AcDbLine
 10
-12.271031467444
 20
70.0
 30
0.0
 11
19.25202339793467
 21
70.0
 31
0.0
  0
LINE
  5
161
330
1F
100
AcDbEntity
  8
1
  6
Continuous
 62
     3
100
AcDbLine
 10
-12.9324056688899
 20
71.84231019462462
 30
0.0
 11
-13.7824056688899
 21
71.84231019462462
 31
0.0
  0
LINE
  5
162
330
1F
100
AcDbEntity
  8
1
  6
Continuous
 62
     3
100
AcDbLine
 10
-12.9324056688899
 20
71.23856019462461
 30
0.0
 11
-12.9324056688899
 21
71.84231019462462
 31
0.0
  0
LINE
  5
163
330
1F
100
AcDbEntity
  8
1
  6
Continuous
 62
     3
100
AcDbLine
 10
-13.7824056688899
 20
71.84231019462462
 30
0.0
 11
-12.9324056688899
 21
71.23856019462461
 31
0.0
  0
LINE
  5
164
330
1F
100
AcDbEntity
  8
1
  6
Continuous
 62
     3
100
AcDbLine
 10
-12.9574056688899
 20
70.9498101946246
 30
0.0
 11
-14.2324056688899
 21
71.84231019462462
 31
0.0
  0
LINE
  5
165
330
1F
100
AcDbEntity
  8
1
  6
Continuous
 62
     3
100
AcDbLine
 10
-12.6824056688899
 20
70.9498101946246
 30
0.0
 11
-12.9574056688899
 21
70.9498101946246
 31
0.0
  0
LINE
  5
166
330
1F
100
AcDbEntity
  8
1
  6
Continuous
 62
     3
100
AcDbLine
 10
-12.6824056688899
 20
71.84231019462462
 30
0.0
 11
-12.6824056688899
 21
70.9498101946246
 31
0.0
  0
LINE
  5
167
330
1F
100
AcDbEntity
  8
1
  6
Continuous
 62
     3
100
AcDbLine
 10
-12.2324056688899
 20
71.84231019462462
 30
0.0
 11
-12.6824056688899
 21
71.84231019462462
 31
0.0
  0
LINE
  5
168
330
1F
100
AcDbEntity
  8
1
  6
Continuous
 62
     3
100
AcDbLine
 10
-12.2324056688899
 20
72.13106019462461
 30
0.0
 11
-12.2324056688899
 21
71.84231019462462
 31
0.0
  0
LINE
  5
169
330
1F
100
AcDbEntity
  8
1
  6
Continuous
 62
     3
100
AcDbLine
 10
-12.6824056688899
 20
72.13106019462461
 30
0.0
 11
-12.2324056688899
 21
72.13106019462461
 31
0.0
  0
LINE
  5
16A
330
1F
100
AcDbEntity
  8
1
  6
Continuous
 62
     3
100
AcDbLine
 10
-12.6824056688899
 20
72.39356019462461
 30
0.0
 11
-12.6824056688899
 21
72.13106019462461
 31
0.0
  0
LINE
  5
16B
330
1F
100
AcDbEntity
  8
1
  6
Continuous
 62
     3
100
AcDbLine
 10
-12.9324056688899
 20
72.39356019462461
 30
0.0
 11
-12.6824056688899
 21
72.39356019462461
 31
0.0
  0
LINE
  5
16C
330
1F
100
AcDbEntity
  8
1
  6
Continuous
 62
     3
100
AcDbLine
 10
-12.9324056688899
 20
72.13106019462461
 30
0.0
 11
-12.9324056688899
 21
72.39356019462461
 31
0.0
  0
LINE
  5
16D
330
1F
100
AcDbEntity
  8
1
  6
Continuous
 62
     3
100
AcDbLine
 10
-14.2324056688899
 20
72.13106019462461
 30
0.0
 11
-12.9324056688899
 21
72.13106019462461
 31
0.0
  0
LINE
  5
16E
330
1F
100
AcDbEntity
  8
1
  6
Continuous
 62
     3
100
AcDbLine
 10
-14.2324056688899
 20
71.84231019462462
 30
0.0
 11
-14.2324056688899
 21
72.13106019462461
 31
0.0
  0
LINE
  5
16F
330
1F
100
AcDbEntity
  8
1
  6
Continuous
 62
     3
100
AcDbLine
 10
-12.2324056688899
 20
70.26731019462461
 30
0.0
 11
-12.2324056688899
 21
70.52981019462462
 31
0.0
  0
LINE
  5
170
330
1F
100
AcDbEntity
  8
1
  6
Continuous
 62
     3
100
AcDbLine
 10
-13.6824056688899
 20
70.26731019462461
 30
0.0
 11
-12.2324056688899
 21
70.26731019462461
 31
0.0
  0
LINE
  5
171
330
1F
100
AcDbEntity
  8
1
  6
Continuous
 62
     3
100
AcDbLine
 10
-13.6824056688899
 20
69.76856019462461
 30
0.0
 11
-13.6824056688899
 21
70.26731019462461
 31
0.0
  0
LINE
  5
172
330
1F
100
AcDbEntity
  8
1
  6
Continuous
 62
     3
100
AcDbLine
 10
-13.8824056688899
 20
69.76856019462461
 30
0.0
 11
-13.6824056688899
 21
69.76856019462461
 31
0.0
  0
LINE
  5
173
330
1F
100
AcDbEntity
  8
1
  6
Continuous
 62
     3
100
AcDbLine
 10
-13.8824056688899
 20
69.82106019462461
 30
0.0
 11
-13.8824056688899
 21
69.76856019462461
 31
0.0
  0
LINE
  5
174
330
1F
100
AcDbEntity
  8
1
  6
Continuous
 62
     3
100
AcDbLine
 10
-13.9074056688899
 20
69.95231019462463
 30
0.0
 11
-13.8824056688899
 21
69.82106019462461
 31
0.0
  0
LINE
  5
175
330
1F
100
AcDbEntity
  8
1
  6
Continuous
 62
     3
100
AcDbLine
 10
-13.9324056688899
 20
70.03106019462462
 30
0.0
 11
-13.9074056688899
 21
69.95231019462463
 31
0.0
  0
LINE
  5
176
330
1F
100
AcDbEntity
  8
1
  6
Continuous
 62
     3
100
AcDbLine
 10
-13.9824056688899
 20
70.1360601946246
 30
0.0
 11
-13.9324056688899
 21
70.03106019462462
 31
0.0
  0
LINE
  5
177
330
1F
100
AcDbEntity
  8
1
  6
Continuous
 62
     3
100
AcDbLine
 10
-14.0574056688899
 20
70.21481019462462
 30
0.0
 11
-13.9824056688899
 21
70.1360601946246
 31
0.0
  0
LINE
  5
178
330
1F
100
AcDbEntity
  8
1
  6
Continuous
 62
     3
100
AcDbLine
 10
-14.1574056688899
 20
70.2935601946246
 30
0.0
 11
-14.0574056688899
 21
70.21481019462462
 31
0.0
  0
LINE
  5
179
330
1F
100
AcDbEntity
  8
1
  6
Continuous
 62
     3
100
AcDbLine
 10
-14.2324056688899
 20
70.31981019462462
 30
0.0
 11
-14.1574056688899
 21
70.2935601946246
 31
0.0
  0
LINE
  5
17A
330
1F
100
AcDbEntity
  8
1
  6
Continuous
 62
     3
100
AcDbLine
 10
-14.2324056688899
 20
70.52981019462462
 30
0.0
 11
-14.2324056688899
 21
70.31981019462462
 31
0.0
  0
LINE
  5
17B
330
1F
100
AcDbEntity
  8
1
  6
Continuous
 62
     3
100
AcDbLine
 10
-12.2324056688899
 20
70.52981019462462
 30
0.0
 11
-14.2324056688899
 21
70.52981019462462
 31
0.0
  0
LINE
  5
17C
330
1F
100
AcDbEntity
  8
1
  6
Continuous
 62
     3
100
AcDbLine
 10
-12.9824056688899
 20
67.58981019462462
 30
0.0
 11
-12.9824056688899
 21
67.85231019462461
 31
0.0
  0
LINE
  5
17D
330
1F
100
AcDbEntity
  8
1
  6
Continuous
 62
     3
100
AcDbLine
 10
-12.8074056688899
 20
67.61606019462461
 30
0.0
 11
-12.9824056688899
 21
67.58981019462462
 31
0.0
  0
LINE
  5
17E
330
1F
100
AcDbEntity
  8
1
  6
Continuous
 62
     3
100
AcDbLine
 10
-12.6324056688899
 20
67.69481019462461
 30
0.0
 11
-12.8074056688899
 21
67.61606019462461
 31
0.0
  0
LINE
  5
17F
330
1F
100
AcDbEntity
  8
1
  6
Continuous
 62
     3
100
AcDbLine
 10
-12.4574056688899
 20
67.8260601946246
 30
0.0
 11
-12.6324056688899
 21
67.69481019462461
 31
0.0
  0
LINE
  5
180
330
1F
100
AcDbEntity
  8
1
  6
Continuous
 62
     3
100
AcDbLine
 10
-12.3574056688899
 20
67.95731019462461
 30
0.0
 11
-12.4574056688899
 21
67.8260601946246
 31
0.0
  0
LINE
  5
181
330
1F
100
AcDbEntity
  8
1
  6
Continuous
 62
     3
100
AcDbLine
 10
-12.3074056688899
 20
68.08856019462462
 30
0.0
 11
-12.3574056688899
 21
67.95731019462461
 31
0.0
  0
LINE
  5
182
330
1F
100
AcDbEntity
  8
1
  6
Continuous
 62
     3
100
AcDbLine
 10
-12.2574056688899
 20
68.29856019462461
 30
0.0
 11
-12.3074056688899
 21
68.08856019462462
 31
0.0
  0
LINE
  5
183
330
1F
100
AcDbEntity
  8
1
  6
Continuous
 62
     3
100
AcDbLine
 10
-12.2324056688899
 20
68.42981019462462
 30
0.0
 11
-12.2574056688899
 21
68.29856019462461
 31
0.0
  0
LINE
  5
184
330
1F
100
AcDbEntity
  8
1
  6
Continuous
 62
     3
100
AcDbLine
 10
-12.2324056688899
 20
68.4823101946246
 30
0.0
 11
-12.2324056688899
 21
68.42981019462462
 31
0.0
  0
LINE
  5
185
330
1F
100
AcDbEntity
  8
1
  6
Continuous
 62
     3
100
AcDbLine
 10
-12.2324056688899
 20
68.6660601946246
 30
0.0
 11
-12.2324056688899
 21
68.4823101946246
 31
0.0
  0
LINE
  5
186
330
1F
100
AcDbEntity
  8
1
  6
Continuous
 62
     3
100
AcDbLine
 10
-12.2824056688899
 20
68.87606019462461
 30
0.0
 11
-12.2324056688899
 21
68.6660601946246
 31
0.0
  0
LINE
  5
187
330
1F
100
AcDbEntity
  8
1
  6
Continuous
 62
     3
100
AcDbLine
 10
-12.3574056688899
 20
69.05981019462462
 30
0.0
 11
-12.2824056688899
 21
68.87606019462461
 31
0.0
  0
LINE
  5
188
330
1F
100
AcDbEntity
  8
1
  6
Continuous
 62
     3
100
AcDbLine
 10
-12.4574056688899
 20
69.19106019462461
 30
0.0
 11
-12.3574056688899
 21
69.05981019462462
 31
0.0
  0
LINE
  5
189
330
1F
100
AcDbEntity
  8
1
  6
Continuous
 62
     3
100
AcDbLine
 10
-12.5574056688899
 20
69.26981019462461
 30
0.0
 11
-12.4574056688899
 21
69.19106019462461
 31
0.0
  0
LINE
  5
18A
330
1F
100
AcDbEntity
  8
1
  6
Continuous
 62
     3
100
AcDbLine
 10
-12.6824056688899
 20
69.3223101946246
 30
0.0
 11
-12.5574056688899
 21
69.26981019462461
 31
0.0
  0
LINE
  5
18B
330
1F
100
AcDbEntity
  8
1
  6
Continuous
 62
     3
100
AcDbLine
 10
-12.8324056688899
 20
69.34856019462461
 30
0.0
 11
-12.6824056688899
 21
69.3223101946246
 31
0.0
  0
LINE
  5
18C
330
1F
100
AcDbEntity
  8
1
  6
Continuous
 62
     3
100
AcDbLine
 10
-12.9574056688899
 20
69.3223101946246
 30
0.0
 11
-12.8324056688899
 21
69.34856019462461
 31
0.0
  0
LINE
  5
18D
330
1F
100
AcDbEntity
  8
1
  6
Continuous
 62
     3
100
AcDbLine
 10
-13.0324056688899
 20
69.26981019462461
 30
0.0
 11
-12.9574056688899
 21
69.3223101946246
 31
0.0
  0
LINE
  5
18E
330
1F
100
AcDbEntity
  8
1
  6
Continuous
 62
     3
100
AcDbLine
 10
-13.0824056688899
 20
69.19106019462461
 30
0.0
 11
-13.0324056688899
 21
69.26981019462461
 31
0.0
  0
LINE
  5
18F
330
1F
100
AcDbEntity
  8
1
  6
Continuous
 62
     3
100
AcDbLine
 10
-13.1324056688899
 20
69.05981019462462
 30
0.0
 11
-13.0824056688899
 21
69.19106019462461
 31
0.0
  0
LINE
  5
190
330
1F
100
AcDbEntity
  8
1
  6
Continuous
 62
     3
100
AcDbLine
 10
-13.2324056688899
 20
68.74481019462462
 30
0.0
 11
-13.1324056688899
 21
69.05981019462462
 31
0.0
  0
LINE
  5
191
330
1F
100
AcDbEntity
  8
1
  6
Continuous
 62
     3
100
AcDbLine
 10
-13.4074056688899
 20
68.11481019462461
 30
0.0
 11
-13.2324056688899
 21
68.74481019462462
 31
0.0
  0
LINE
  5
192
330
1F
100
AcDbEntity
  8
1
  6
Continuous
 62
     3
100
AcDbLine
 10
-13.5074056688899
 20
67.9310601946246
 30
0.0
 11
-13.4074056688899
 21
68.11481019462461
 31
0.0
  0
LINE
  5
193
330
1F
100
AcDbEntity
  8
1
  6
Continuous
 62
     3
100
AcDbLine
 10
-13.6074056688899
 20
67.87856019462461
 30
0.0
 11
-13.5074056688899
 21
67.9310601946246
 31
0.0
  0
LINE
  5
194
330
1F
100
AcDbEntity
  8
1
  6
Continuous
 62
     3
100
AcDbLine
 10
-13.6574056688899
 20
67.87856019462461
 30
0.0
 11
-13.6074056688899
 21
67.87856019462461
 31
0.0
  0
LINE
  5
195
330
1F
100
AcDbEntity
  8
1
  6
Continuous
 62
     3
100
AcDbLine
 10
-13.7574056688899
 20
67.90481019462462
 30
0.0
 11
-13.6574056688899
 21
67.87856019462461
 31
0.0
  0
LINE
  5
196
330
1F
100
AcDbEntity
  8
1
  6
Continuous
 62
     3
100
AcDbLine
 10
-13.8574056688899
 20
68.0098101946246
 30
0.0
 11
-13.7574056688899
 21
67.90481019462462
 31
0.0
  0
LINE
  5
197
330
1F
100
AcDbEntity
  8
1
  6
Continuous
 62
     3
100
AcDbLine
 10
-13.9074056688899
 20
68.08856019462462
 30
0.0
 11
-13.8574056688899
 21
68.0098101946246
 31
0.0
  0
LINE
  5
198
330
1F
100
AcDbEntity
  8
1
  6
Continuous
 62
     3
100
AcDbLine
 10
-13.9574056688899
 20
68.24606019462462
 30
0.0
 11
-13.9074056688899
 21
68.08856019462462
 31
0.0
  0
LINE
  5
199
330
1F
100
AcDbEntity
  8
1
  6
Continuous
 62
     3
100
AcDbLine
 10
-13.9824056688899
 20
68.40356019462462
 30
0.0
 11
-13.9574056688899
 21
68.24606019462462
 31
0.0
  0
LINE
  5
19A
330
1F
100
AcDbEntity
  8
1
  6
Continuous
 62
     3
100
AcDbLine
 10
-13.9824056688899
 20
68.53481019462461
 30
0.0
 11
-13.9824056688899
 21
68.40356019462462
 31
0.0
  0
LINE
  5
19B
330
1F
100
AcDbEntity
  8
1
  6
Continuous
 62
     3
100
AcDbLine
 10
-13.9574056688899
 20
68.69231019462461
 30
0.0
 11
-13.9824056688899
 21
68.53481019462461
 31
0.0
  0
LINE
  5
19C
330
1F
100
AcDbEntity
  8
1
  6
Continuous
 62
     3
100
AcDbLine
 10
-13.9074056688899
 20
68.84981019462461
 30
0.0
 11
-13.9574056688899
 21
68.69231019462461
 31
0.0
  0
LINE
  5
19D
330
1F
100
AcDbEntity
  8
1
  6
Continuous
 62
     3
100
AcDbLine
 10
-13.8074056688899
 20
68.9810601946246
 30
0.0
 11
-13.9074056688899
 21
68.84981019462461
 31
0.0
  0
LINE
  5
19E
330
1F
100
AcDbEntity
  8
1
  6
Continuous
 62
     3
100
AcDbLine
 10
-13.6824056688899
 20
69.03356019462461
 30
0.0
 11
-13.8074056688899
 21
68.9810601946246
 31
0.0
  0
LINE
  5
19F
330
1F
100
AcDbEntity
  8
1
  6
Continuous
 62
     3
100
AcDbLine
 10
-13.6824056688899
 20
69.2960601946246
 30
0.0
 11
-13.6824056688899
 21
69.03356019462461
 31
0.0
  0
LINE
  5
1A0
330
1F
100
AcDbEntity
  8
1
  6
Continuous
 62
     3
100
AcDbLine
 10
-13.8574056688899
 20
69.2435601946246
 30
0.0
 11
-13.6824056688899
 21
69.2960601946246
 31
0.0
  0
LINE
  5
1A1
330
1F
100
AcDbEntity
  8
1
  6
Continuous
 62
     3
100
AcDbLine
 10
-13.9824056688899
 20
69.16481019462461
 30
0.0
 11
-13.8574056688899
 21
69.2435601946246
 31
0.0
  0
LINE
  5
1A2
330
1F
100
AcDbEntity
  8
1
  6
Continuous
 62
     3
100
AcDbLine
 10
-14.1074056688899
 20
69.00731019462461
 30
0.0
 11
-13.9824056688899
 21
69.16481019462461
 31
0.0
  0
LINE
  5
1A3
330
1F
100
AcDbEntity
  8
1
  6
Continuous
 62
     3
100
AcDbLine
 10
-14.1574056688899
 20
68.87606019462461
 30
0.0
 11
-14.1074056688899
 21
69.00731019462461
 31
0.0
  0
LINE
  5
1A4
330
1F
100
AcDbEntity
  8
1
  6
Continuous
 62
     3
100
AcDbLine
 10
-14.2074056688899
 20
68.69231019462461
 30
0.0
 11
-14.1574056688899
 21
68.87606019462461
 31
0.0
  0
LINE
  5
1A5
330
1F
100
AcDbEntity
  8
1
  6
Continuous
 62
     3
100
AcDbLine
 10
-14.2324056688899
 20
68.53481019462461
 30
0.0
 11
-14.2074056688899
 21
68.69231019462461
 31
0.0
  0
LINE
  5
1A6
330
1F
100
AcDbEntity
  8
1
  6
Continuous
 62
     3
100
AcDbLine
 10
-14.2324056688899
 20
68.37731019462461
 30
0.0
 11
-14.2324056688899
 21
68.53481019462461
 31
0.0
  0
LINE
  5
1A7
330
1F
100
AcDbEntity
  8
1
  6
Continuous
 62
     3
100
AcDbLine
 10
-14.2074056688899
 20
68.21981019462461
 30
0.0
 11
-14.2324056688899
 21
68.37731019462461
 31
0.0
  0
LINE
  5
1A8
330
1F
100
AcDbEntity
  8
1
  6
Continuous
 62
     3
100
AcDbLine
 10
-14.1574056688899
 20
68.06231019462462
 30
0.0
 11
-14.2074056688899
 21
68.21981019462461
 31
0.0
  0
LINE
  5
1A9
330
1F
100
AcDbEntity
  8
1
  6
Continuous
 62
     3
100
AcDbLine
 10
-14.1074056688899
 20
67.95731019462461
 30
0.0
 11
-14.1574056688899
 21
68.06231019462462
 31
0.0
  0
LINE
  5
1AA
330
1F
100
AcDbEntity
  8
1
  6
Continuous
 62
     3
100
AcDbLine
 10
-13.9824056688899
 20
67.79981019462461
 30
0.0
 11
-14.1074056688899
 21
67.95731019462461
 31
0.0
  0
LINE
  5
1AB
330
1F
100
AcDbEntity
  8
1
  6
Continuous
 62
     3
100
AcDbLine
 10
-13.8574056688899
 20
67.69481019462461
 30
0.0
 11
-13.9824056688899
 21
67.79981019462461
 31
0.0
  0
LINE
  5
1AC
330
1F
100
AcDbEntity
  8
1
  6
Continuous
 62
     3
100
AcDbLine
 10
-13.7824056688899
 20
67.64231019462461
 30
0.0
 11
-13.8574056688899
 21
67.69481019462461
 31
0.0
  0
LINE
  5
1AD
330
1F
100
AcDbEntity
  8
1
  6
Continuous
 62
     3
100
AcDbLine
 10
-13.7074056688899
 20
67.61606019462461
 30
0.0
 11
-13.7824056688899
 21
67.64231019462461
 31
0.0
  0
LINE
  5
1AE
330
1F
100
AcDbEntity
  8
1
  6
Continuous
 62
     3
100
AcDbLine
 10
-13.6574056688899
 20
67.61606019462461
 30
0.0
 11
-13.7074056688899
 21
67.61606019462461
 31
0.0
  0
LINE
  5
1AF
330
1F
100
AcDbEntity
  8
1
  6
Continuous
 62
     3
100
AcDbLine
 10
-13.5324056688899
 20
67.64231019462461
 30
0.0
 11
-13.6574056688899
 21
67.61606019462461
 31
0.0
  0
LINE
  5
1B0
330
1F
100
AcDbEntity
  8
1
  6
Continuous
 62
     3
100
AcDbLine
 10
-13.4074056688899
 20
67.72106019462461
 30
0.0
 11
-13.5324056688899
 21
67.64231019462461
 31
0.0
  0
LINE
  5
1B1
330
1F
100
AcDbEntity
  8
1
  6
Continuous
 62
     3
100
AcDbLine
 10
-13.2574056688899
 20
67.95731019462461
 30
0.0
 11
-13.4074056688899
 21
67.72106019462461
 31
0.0
  0
LINE
  5
1B2
330
1F
100
AcDbEntity
  8
1
  6
Continuous
 62
     3
100
AcDbLine
 10
-13.1574056688899
 20
68.21981019462461
 30
0.0
 11
-13.2574056688899
 21
67.95731019462461
 31
0.0
  0
LINE
  5
1B3
330
1F
100
AcDbEntity
  8
1
  6
Continuous
 62
     3
100
AcDbLine
 10
-13.0824056688899
 20
68.50856019462461
 30
0.0
 11
-13.1574056688899
 21
68.21981019462461
 31
0.0
  0
LINE
  5
1B4
330
1F
100
AcDbEntity
  8
1
  6
Continuous
 62
     3
100
AcDbLine
 10
-12.9824056688899
 20
68.90231019462462
 30
0.0
 11
-13.0824056688899
 21
68.50856019462461
 31
0.0
  0
LINE
  5
1B5
330
1F
100
AcDbEntity
  8
1
  6
Continuous
 62
     3
100
AcDbLine
 10
-12.9324056688899
 20
69.03356019462461
 30
0.0
 11
-12.9824056688899
 21
68.90231019462462
 31
0.0
  0
LINE
  5
1B6
330
1F
100
AcDbEntity
  8
1
  6
Continuous
 62
     3
100
AcDbLine
 10
-12.8824056688899
 20
69.08606019462462
 30
0.0
 11
-12.9324056688899
 21
69.03356019462461
 31
0.0
  0
LINE
  5
1B7
330
1F
100
AcDbEntity
  8
1
  6
Continuous
 62
     3
100
AcDbLine
 10
-12.7824056688899
 20
69.11231019462461
 30
0.0
 11
-12.8824056688899
 21
69.08606019462462
 31
0.0
  0
LINE
  5
1B8
330
1F
100
AcDbEntity
  8
1
  6
Continuous
 62
     3
100
AcDbLine
 10
-12.7074056688899
 20
69.08606019462462
 30
0.0
 11
-12.7824056688899
 21
69.11231019462461
 31
0.0
  0
LINE
  5
1B9
330
1F
100
AcDbEntity
  8
1
  6
Continuous
 62
     3
100
AcDbLine
 10
-12.6074056688899
 20
69.00731019462461
 30
0.0
 11
-12.7074056688899
 21
69.08606019462462
 31
0.0
  0
LINE
  5
1BA
330
1F
100
AcDbEntity
  8
1
  6
Continuous
 62
     3
100
AcDbLine
 10
-12.5574056688899
 20
68.90231019462462
 30
0.0
 11
-12.6074056688899
 21
69.00731019462461
 31
0.0
  0
LINE
  5
1BB
330
1F
100
AcDbEntity
  8
1
  6
Continuous
 62
     3
100
AcDbLine
 10
-12.5074056688899
 20
68.74481019462462
 30
0.0
 11
-12.5574056688899
 21
68.90231019462462
 31
0.0
  0
LINE
  5
1BC
330
1F
100
AcDbEntity
  8
1
  6
Continuous
 62
     3
100
AcDbLine
 10
-12.4824056688899
 20
68.53481019462461
 30
0.0
 11
-12.5074056688899
 21
68.74481019462462
 31
0.0
  0
LINE
  5
1BD
330
1F
100
AcDbEntity
  8
1
  6
Continuous
 62
     3
100
AcDbLine
 10
-12.4824056688899
 20
68.40356019462462
 30
0.0
 11
-12.4824056688899
 21
68.53481019462461
 31
0.0
  0
LINE
  5
1BE
330
1F
100
AcDbEntity
  8
1
  6
Continuous
 62
     3
100
AcDbLine
 10
-12.5074056688899
 20
68.24606019462462
 30
0.0
 11
-12.4824056688899
 21
68.40356019462462
 31
0.0
  0
LINE
  5
1BF
330
1F
100
AcDbEntity
  8
1
  6
Continuous
 62
     3
100
AcDbLine
 10
-12.5324056688899
 20
68.14106019462463
 30
0.0
 11
-12.5074056688899
 21
68.24606019462462
 31
0.0
  0
LINE
  5
1C0
330
1F
100
AcDbEntity
  8
1
  6
Continuous
 62
     3
100
AcDbLine
 10
-12.5824056688899
 20
68.03606019462461
 30
0.0
 11
-12.5324056688899
 21
68.14106019462463
 31
0.0
  0
LINE
  5
1C1
330
1F
100
AcDbEntity
  8
1
  6
Continuous
 62
     3
100
AcDbLine
 10
-12.6824056688899
 20
67.9310601946246
 30
0.0
 11
-12.5824056688899
 21
68.03606019462461
 31
0.0
  0
LINE
  5
1C2
330
1F
100
AcDbEntity
  8
1
  6
Continuous
 62
     3
100
AcDbLine
 10
-12.8074056688899
 20
67.87856019462461
 30
0.0
 11
-12.6824056688899
 21
67.9310601946246
 31
0.0
  0
LINE
  5
1C3
330
1F
100
AcDbEntity
  8
1
  6
Continuous
 62
     3
100
AcDbLine
 10
-12.9824056688899
 20
67.85231019462461
 30
0.0
 11
-12.8074056688899
 21
67.87856019462461
 31
0.0
  0
LINE
  5
1C4
330
1F
100
AcDbEntity
  8
1
  6
Continuous
 62
     3
100
AcDbLine
 10
-15.4324056688899
 20
71.80856019462462
 30
0.0
 11
-16.2824056688899
 21
71.80856019462462
 31
0.0
  0
LINE
  5
1C5
330
1F
100
AcDbEntity
  8
1
  6
Continuous
 62
     3
100
AcDbLine
 10
-15.4324056688899
 20
71.08981019462462
 30
0.0
 11
-15.4324056688899
 21
71.80856019462462
 31
0.0
  0
LINE
  5
1C6
330
1F
100
AcDbEntity
  8
1
  6
Continuous
 62
     3
100
AcDbLine
 10
-16.2824056688899
 20
71.80856019462462
 30
0.0
 11
-15.4324056688899
 21
71.08981019462462
 31
0.0
  0
LINE
  5
1C7
330
1F
100
AcDbEntity
  8
1
  6
Continuous
 62
     3
100
AcDbLine
 10
-15.4574056688899
 20
70.74606019462462
 30
0.0
 11
-16.7324056688899
 21
71.80856019462462
 31
0.0
  0
LINE
  5
1C8
330
1F
100
AcDbEntity
  8
1
  6
Continuous
 62
     3
100
AcDbLine
 10
-15.1824056688899
 20
70.74606019462462
 30
0.0
 11
-15.4574056688899
 21
70.74606019462462
 31
0.0
  0
LINE
  5
1C9
330
1F
100
AcDbEntity
  8
1
  6
Continuous
 62
     3
100
AcDbLine
 10
-15.1824056688899
 20
71.80856019462462
 30
0.0
 11
-15.1824056688899
 21
70.74606019462462
 31
0.0
  0
LINE
  5
1CA
330
1F
100
AcDbEntity
  8
1
  6
Continuous
 62
     3
100
AcDbLine
 10
-14.7324056688899
 20
71.80856019462462
 30
0.0
 11
-15.1824056688899
 21
71.80856019462462
 31
0.0
  0
LINE
  5
1CB
330
1F
100
AcDbEntity
  8
1
  6
Continuous
 62
     3
100
AcDbLine
 10
-14.7324056688899
 20
72.15231019462462
 30
0.0
 11
-14.7324056688899
 21
71.80856019462462
 31
0.0
  0
LINE
  5
1CC
330
1F
100
AcDbEntity
  8
1
  6
Continuous
 62
     3
100
AcDbLine
 10
-15.1824056688899
 20
72.15231019462462
 30
0.0
 11
-14.7324056688899
 21
72.15231019462462
 31
0.0
  0
LINE
  5
1CD
330
1F
100
AcDbEntity
  8
1
  6
Continuous
 62
     3
100
AcDbLine
 10
-15.1824056688899
 20
72.46481019462462
 30
0.0
 11
-15.1824056688899
 21
72.15231019462462
 31
0.0
  0
LINE
  5
1CE
330
1F
100
AcDbEntity
  8
1
  6
Continuous
 62
     3
100
AcDbLine
 10
-15.4324056688899
 20
72.46481019462462
 30
0.0
 11
-15.1824056688899
 21
72.46481019462462
 31
0.0
  0
LINE
  5
1CF
330
1F
100
AcDbEntity
  8
1
  6
Continuous
 62
     3
100
AcDbLine
 10
-15.4324056688899
 20
72.15231019462462
 30
0.0
 11
-15.4324056688899
 21
72.46481019462462
 31
0.0
  0
LINE
  5
1D0
330
1F
100
AcDbEntity
  8
1
  6
Continuous
 62
     3
100
AcDbLine
 10
-16.7324056688899
 20
72.15231019462462
 30
0.0
 11
-15.4324056688899
 21
72.15231019462462
 31
0.0
  0
LINE
  5
1D1
330
1F
100
AcDbEntity
  8
1
  6
Continuous
 62
     3
100
AcDbLine
 10
-16.7324056688899
 20
71.80856019462462
 30
0.0
 11
-16.7324056688899
 21
72.15231019462462
 31
0.0
  0
LINE
  5
1D2
330
1F
100
AcDbEntity
  8
1
  6
Continuous
 62
     3
100
AcDbLine
 10
-16.2324056688899
 20
69.93356019462462
 30
0.0
 11
-14.7324056688899
 21
68.99606019462462
 31
0.0
  0
LINE
  5
1D3
330
1F
100
AcDbEntity
  8
1
  6
Continuous
 62
     3
100
AcDbLine
 10
-16.2324056688899
 20
70.24606019462462
 30
0.0
 11
-16.2324056688899
 21
69.93356019462462
 31
0.0
  0
LINE
  5
1D4
330
1F
100
AcDbEntity
  8
1
  6
Continuous
 62
     3
100
AcDbLine
 10
-14.7324056688899
 20
69.30856019462462
 30
0.0
 11
-16.2324056688899
 21
70.24606019462462
 31
0.0
  0
LINE
  5
1D5
330
1F
100
AcDbEntity
  8
1
  6
Continuous
 62
     3
100
AcDbLine
 10
-14.7324056688899
 20
68.99606019462462
 30
0.0
 11
-14.7324056688899
 21
69.30856019462462
 31
0.0
  0
LINE
  5
1D6
330
1F
100
AcDbEntity
  8
1
  6
Continuous
 62
     3
100
AcDbLine
 10
-14.7324056688899
 20
68.18356019462462
 30
0.0
 11
-14.7324056688899
 21
68.49606019462462
 31
0.0
  0
LINE
  5
1D7
330
1F
100
AcDbEntity
  8
1
  6
Continuous
 62
     3
100
AcDbLine
 10
-16.1824056688899
 20
68.18356019462462
 30
0.0
 11
-14.7324056688899
 21
68.18356019462462
 31
0.0
  0
LINE
  5
1D8
330
1F
100
AcDbEntity
  8
1
  6
Continuous
 62
     3
100
AcDbLine
 10
-16.1824056688899
 20
67.58981019462462
 30
0.0
 11
-16.1824056688899
 21
68.18356019462462
 31
0.0
  0
LINE
  5
1D9
330
1F
100
AcDbEntity
  8
1
  6
Continuous
 62
     3
100
AcDbLine
 10
-16.3824056688899
 20
67.58981019462462
 30
0.0
 11
-16.1824056688899
 21
67.58981019462462
 31
0.0
  0
LINE
  5
1DA
330
1F
100
AcDbEntity
  8
1
  6
Continuous
 62
     3
100
AcDbLine
 10
-16.3824056688899
 20
67.65231019462462
 30
0.0
 11
-16.3824056688899
 21
67.58981019462462
 31
0.0
  0
LINE
  5
1DB
330
1F
100
AcDbEntity
  8
1
  6
Continuous
 62
     3
100
AcDbLine
 10
-16.4074056688899
 20
67.80856019462462
 30
0.0
 11
-16.3824056688899
 21
67.65231019462462
 31
0.0
  0
LINE
  5
1DC
330
1F
100
AcDbEntity
  8
1
  6
Continuous
 62
     3
100
AcDbLine
 10
-16.4324056688899
 20
67.90231019462462
 30
0.0
 11
-16.4074056688899
 21
67.80856019462462
 31
0.0
  0
LINE
  5
1DD
330
1F
100
AcDbEntity
  8
1
  6
Continuous
 62
     3
100
AcDbLine
 10
-16.4824056688899
 20
68.02731019462462
 30
0.0
 11
-16.4324056688899
 21
67.90231019462462
 31
0.0
  0
LINE
  5
1DE
330
1F
100
AcDbEntity
  8
1
  6
Continuous
 62
     3
100
AcDbLine
 10
-16.5574056688899
 20
68.12106019462462
 30
0.0
 11
-16.4824056688899
 21
68.02731019462462
 31
0.0
  0
LINE
  5
1DF
330
1F
100
AcDbEntity
  8
1
  6
Continuous
 62
     3
100
AcDbLine
 10
-16.6574056688899
 20
68.21481019462462
 30
0.0
 11
-16.5574056688899
 21
68.12106019462462
 31
0.0
  0
LINE
  5
1E0
330
1F
100
AcDbEntity
  8
1
  6
Continuous
 62
     3
100
AcDbLine
 10
-16.7324056688899
 20
68.24606019462462
 30
0.0
 11
-16.6574056688899
 21
68.21481019462462
 31
0.0
  0
LINE
  5
1E1
330
1F
100
AcDbEntity
  8
1
  6
Continuous
 62
     3
100
AcDbLine
 10
-16.7324056688899
 20
68.49606019462462
 30
0.0
 11
-16.7324056688899
 21
68.24606019462462
 31
0.0
  0
LINE
  5
1E2
330
1F
100
AcDbEntity
  8
1
  6
Continuous
 62
     3
100
AcDbLine
 10
-14.7324056688899
 20
68.49606019462462
 30
0.0
 11
-16.7324056688899
 21
68.49606019462462
 31
0.0
  0
LINE
  5
1E3
330
1F
100
AcDbEntity
  8
1
  6
DOT_CENTER
 62
     4
100
AcDbLine
 10
52.78145408684825
 20
70.0
 30
0.0
 11
60.99999999999999
 21
70.0
 31
0.0
  0
LINE
  5
1E4
330
1F
100
AcDbEntity
  8
1
  6
DOT_CENTER
 62
     4
100
AcDbLine
 10
0.0
 20
61.0
 30
0.0
 11
0.0
 21
79.0
 31
0.0
  0
LINE
  5
1E5
330
1F
100
AcDbEntity
  8
1
  6
DOT_CENTER
 62
     4
100
AcDbLine
 10
-19.5
 20
70.0
 30
0.0
 11
-16.6537170418292
 21
70.0
 31
0.0
  0
LINE
  5
1E6
330
1F
100
AcDbEntity
  8
1
  6
Continuous
 62
     3
100
AcDbLine
 10
-4.20710678118655
 20
-8.5
 30
0.0
 11
-9.49999999999999
 21
-8.50000000000001
 31
0.0
  0
LINE
  5
1E7
330
1F
100
AcDbEntity
  8
1
  6
Continuous
 62
     3
100
AcDbLine
 10
-3.85355339059328
 20
-8.35355339059328
 30
0.0
 11
-3.64644660940673
 21
-8.14644660940672
 31
0.0
  0
LINE
  5
1E8
330
1F
100
AcDbEntity
  8
1
  6
Continuous
 62
     3
100
AcDbLine
 10
-3.29289321881345
 20
-8.0
 30
0.0
 11
2.29289321881344
 21
-8.0
 31
0.0
  0
LINE
  5
1E9
330
1F
100
AcDbEntity
  8
1
  6
Continuous
 62
     3
100
AcDbLine
 10
2.64644660940672
 20
-8.14644660940672
 30
0.0
 11
2.85355339059327
 21
-8.35355339059328
 31
0.0
  0
LINE
  5
1EA
330
1F
100
AcDbEntity
  8
1
  6
Continuous
 62
     3
100
AcDbLine
 10
-17.0
 20
67.5
 30
0.0
 11
-17.0
 21
72.5
 31
0.0
  0
LINE
  5
1EB
330
1F
100
AcDbEntity
  8
1
  6
Continuous
 62
     3
100
AcDbLine
 10
-13.0
 20
66.5
 30
0.0
 11
-16.0
 21
66.5
 31
0.0
  0
LINE
  5
1EC
330
1F
100
AcDbEntity
  8
1
  6
Continuous
 62
     3
100
AcDbLine
 10
-12.0
 20
72.5
 30
0.0
 11
-12.0
 21
67.5
 31
0.0
  0
LINE
  5
1ED
330
1F
100
AcDbEntity
  8
1
  6
Continuous
 62
     3
100
AcDbLine
 10
-16.0
 20
73.5
 30
0.0
 11
-13.0
 21
73.5
 31
0.0
  0
LINE
  5
1EE
330
1F
100
AcDbEntity
  8
1
  6
Continuous
 62
     3
100
AcDbLine
 10
20.5
 20
63.0
 30
0.0
 11
20.5
 21
61.75
 31
0.0
  0
LINE
  5
1EF
330
1F
100
AcDbEntity
  8
1
  6
Continuous
 62
     3
100
AcDbLine
 10
-6.0
 20
65.0925227118882
 30
0.0
 11
-3.45205252953467
 21
65.0925227118882
 31
0.0
  0
LINE
  5
1F0
330
1F
100
AcDbEntity
  8
1
  6
Continuous
 62
     3
100
AcDbLine
 10
-9.78226961247764
 20
74.90747728811182
 30
0.0
 11
-17.59647305414774
 21
74.90747728811182
 31
0.0
  0
LINE
  5
1F1
330
1F
100
AcDbEntity
  8
1
  6
Continuous
 62
     3
100
AcDbLine
 10
-11.0
 20
67.24264068711928
 30
0.0
 11
-11.0
 21
69.5
 31
0.0
  0
LINE
  5
1F2
330
1F
100
AcDbEntity
  8
1
  6
Continuous
 62
     3
100
AcDbLine
 10
-6.0
 20
66.25834261322606
 30
0.0
 11
-6.0
 21
63.5
 31
0.0
  0
LINE
  5
1F3
330
1F
100
AcDbEntity
  8
1
  6
Continuous
 62
     3
100
AcDbLine
 10
-6.5
 20
63.0
 30
0.0
 11
-8.52277442494832
 21
63.0
 31
0.0
  0
LINE
  5
1F4
330
1F
100
AcDbEntity
  8
1
  6
Continuous
 62
     3
100
AcDbLine
 10
-10.5
 20
70.0
 30
0.0
 11
-7.48331477354785
 21
70.0
 31
0.0
  0
LINE
  5
1F5
330
1F
100
AcDbEntity
  8
1
  6
Continuous
 62
     3
100
AcDbLine
 10
-17.59647305414774
 20
65.0925227118882
 30
0.0
 11
-9.4589264815209
 21
65.0925227118882
 31
0.0
  0
LINE
  5
1F6
330
1F
100
AcDbEntity
  8
1
  6
Continuous
 62
     3
100
AcDbLine
 10
11.44433756729741
 20
61.25
 30
0.0
 11
11.91485181125744
 21
60.43504542377636
 31
0.0
  0
LINE
  5
1F7
330
1F
100
AcDbEntity
  8
1
  6
Continuous
 62
     3
100
AcDbLine
 10
12.34786451314966
 20
79.81495457622364
 30
0.0
 11
19.59647305414774
 21
79.81495457622364
 31
0.0
  0
LINE
  5
1F8
330
1F
100
AcDbEntity
  8
1
  6
Continuous
 62
     3
100
AcDbLine
 10
11.01132486540519
 20
78.5
 30
0.0
 11
3.20710678118655
 21
78.5
 31
0.0
  0
LINE
  5
1F9
330
1F
100
AcDbEntity
  8
1
  6
Continuous
 62
     3
100
AcDbLine
 10
11.44433756729741
 20
78.75
 30
0.0
 11
11.91485181125745
 21
79.56495457622364
 31
0.0
  0
LINE
  5
1FA
330
1F
100
AcDbEntity
  8
1
  6
Continuous
 62
     3
100
AcDbLine
 10
-9.64433756729741
 20
61.24999999999999
 30
0.0
 11
-10.11485181125745
 21
60.43504542377634
 31
0.0
  0
LINE
  5
1FB
330
1F
100
AcDbEntity
  8
1
  6
Continuous
 62
     3
100
AcDbLine
 10
-10.11485181125745
 20
79.56495457622364
 30
0.0
 11
-9.64433756729741
 21
78.75
 31
0.0
  0
LINE
  5
1FC
330
1F
100
AcDbEntity
  8
1
  6
Continuous
 62
     3
100
AcDbLine
 10
19.59647305414774
 20
60.18504542377636
 30
0.0
 11
12.34786451314966
 21
60.18504542377636
 31
0.0
  0
LINE
  5
1FD
330
1F
100
AcDbEntity
  8
1
  6
Continuous
 62
     3
100
AcDbLine
 10
3.20710678118655
 20
61.5
 30
0.0
 11
11.01132486540519
 21
61.5
 31
0.0
  0
LINE
  5
1FE
330
1F
100
AcDbEntity
  8
1
  6
Continuous
 62
     3
100
AcDbLine
 10
2.64644660940672
 20
61.85355339059328
 30
0.0
 11
2.85355339059327
 21
61.64644660940672
 31
0.0
  0
LINE
  5
1FF
330
1F
100
AcDbEntity
  8
1
  6
Continuous
 62
     3
100
AcDbLine
 10
-3.29289321881345
 20
62.0
 30
0.0
 11
2.29289321881344
 21
62.0
 31
0.0
  0
LINE
  5
200
330
1F
100
AcDbEntity
  8
1
  6
Continuous
 62
     3
100
AcDbLine
 10
-3.85355339059328
 20
61.64644660940672
 30
0.0
 11
-3.64644660940673
 21
61.85355339059328
 31
0.0
  0
LINE
  5
201
330
1F
100
AcDbEntity
  8
1
  6
Continuous
 62
     3
100
AcDbLine
 10
-9.21132486540519
 20
61.49999999999999
 30
0.0
 11
-4.20710678118655
 21
61.5
 31
0.0
  0
LINE
  5
202
330
1F
100
AcDbEntity
  8
1
  6
Continuous
 62
     3
100
AcDbLine
 10
-4.20710678118655
 20
78.5
 30
0.0
 11
-9.21132486540519
 21
78.5
 31
0.0
  0
LINE
  5
203
330
1F
100
AcDbEntity
  8
1
  6
Continuous
 62
     3
100
AcDbLine
 10
-3.64644660940673
 20
78.14644660940672
 30
0.0
 11
-3.85355339059328
 21
78.35355339059328
 31
0.0
  0
LINE
  5
204
330
1F
100
AcDbEntity
  8
1
  6
Continuous
 62
     3
100
AcDbLine
 10
2.29289321881345
 20
78.0
 30
0.0
 11
-3.29289321881345
 21
78.0
 31
0.0
  0
LINE
  5
205
330
1F
100
AcDbEntity
  8
1
  6
Continuous
 62
     3
100
AcDbLine
 10
2.85355339059327
 20
78.35355339059328
 30
0.0
 11
2.64644660940672
 21
78.14644660940672
 31
0.0
  0
LINE
  5
206
330
1F
100
AcDbEntity
  8
1
  6
Continuous
 62
     3
100
AcDbLine
 10
-10.54786451314967
 20
60.18504542377634
 30
0.0
 11
-17.59647305414774
 21
60.18504542377636
 31
0.0
  0
LINE
  5
207
330
1F
100
AcDbEntity
  8
1
  6
Continuous
 62
     3
100
AcDbLine
 10
-17.59647305414774
 20
79.81495457622373
 30
0.0
 11
-10.54786451314966
 21
79.81495457622364
 31
0.0
  0
LINE
  5
208
330
1F
100
AcDbEntity
  8
1
  6
Continuous
 62
     3
100
AcDbLine
 10
-18.5
 20
78.25
 30
0.0
 11
-17.59647305414774
 21
79.81495457622373
 31
0.0
  0
LINE
  5
209
330
1F
100
AcDbEntity
  8
1
  6
Continuous
 62
     3
100
AcDbLine
 10
-18.5
 20
61.75
 30
0.0
 11
-18.5
 21
78.25
 31
0.0
  0
LINE
  5
20A
330
1F
100
AcDbEntity
  8
1
  6
Continuous
 62
     3
100
AcDbLine
 10
-17.59647305414774
 20
60.18504542377636
 30
0.0
 11
-18.5
 21
61.75
 31
0.0
  0
LINE
  5
20B
330
1F
100
AcDbEntity
  8
1
  6
Continuous
 62
     3
100
AcDbLine
 10
20.5
 20
61.75
 30
0.0
 11
19.59647305414774
 21
60.18504542377636
 31
0.0
  0
LINE
  5
20C
330
1F
100
AcDbEntity
  8
1
  6
Continuous
 62
     3
100
AcDbLine
 10
20.5
 20
78.25
 30
0.0
 11
20.5
 21
77.0
 31
0.0
  0
LINE
  5
20D
330
1F
100
AcDbEntity
  8
1
  6
Continuous
 62
     3
100
AcDbLine
 10
19.59647305414774
 20
79.81495457622364
 30
0.0
 11
20.5
 21
78.25
 31
0.0
  0
LINE
  5
20E
330
1F
100
AcDbEntity
  8
1
  6
Continuous
 62
     3
100
AcDbLine
 10
-18.5
 20
-8.25
 30
0.0
 11
-18.35566243270259
 21
-8.5
 31
0.0
  0
LINE
  5
20F
330
1F
100
AcDbEntity
  8
1
  6
Continuous
 62
     3
100
AcDbLine
 10
-18.35566243270259
 20
8.5
 30
0.0
 11
-17.59647305414774
 21
8.5
 31
0.0
  0
LINE
  5
210
330
1F
100
AcDbEntity
  8
1
  6
Continuous
 62
     3
100
AcDbLine
 10
-18.5
 20
8.25
 30
0.0
 11
-18.35566243270259
 21
8.5
 31
0.0
  0
LINE
  5
211
330
1F
100
AcDbEntity
  8
1
  6
Continuous
 62
     3
100
AcDbLine
 10
20.3556624327026
 20
-8.5
 30
0.0
 11
19.59647305414774
 21
-8.5
 31
0.0
  0
LINE
  5
212
330
1F
100
AcDbEntity
  8
1
  6
Continuous
 62
     3
100
AcDbLine
 10
20.3556624327026
 20
-8.5
 30
0.0
 11
20.5
 21
-8.25
 31
0.0
  0
LINE
  5
213
330
1F
100
AcDbEntity
  8
1
  6
Continuous
 62
     3
100
AcDbLine
 10
20.3556624327026
 20
8.5
 30
0.0
 11
20.5
 21
8.25
 31
0.0
  0
LINE
  5
214
330
1F
100
AcDbEntity
  8
1
  6
Continuous
 62
     3
100
AcDbLine
 10
-18.5
 20
-8.25
 30
0.0
 11
-18.5
 21
8.25
 31
0.0
  0
LINE
  5
215
330
1F
100
AcDbEntity
  8
1
  6
Continuous
 62
     3
100
AcDbLine
 10
20.5
 20
-8.25
 30
0.0
 11
20.5
 21
8.25
 31
0.0
  0
LINE
  5
216
330
1F
100
AcDbEntity
  8
1
  6
Continuous
 62
     3
100
AcDbLine
 10
-6.5
 20
13.5
 30
0.0
 11
-8.5
 21
13.5
 31
0.0
  0
LINE
  5
217
330
1F
100
AcDbEntity
  8
1
  6
Continuous
 62
     3
100
AcDbLine
 10
-11.0
 20
13.0
 30
0.0
 11
-11.0
 21
9.0
 31
0.0
  0
LINE
  5
218
330
1F
100
AcDbEntity
  8
1
  6
Continuous
 62
     3
100
AcDbLine
 10
-8.5
 20
13.5
 30
0.0
 11
-10.5
 21
13.5
 31
0.0
  0
LINE
  5
219
330
1F
100
AcDbEntity
  8
1
  6
Continuous
 62
     3
100
AcDbLine
 10
-9.0
 20
5.35902319296972
 30
0.0
 11
-9.0
 21
13.0
 31
0.0
  0
LINE
  5
21A
330
1F
100
AcDbEntity
  8
1
  6
Continuous
 62
     3
100
AcDbLine
 10
-6.0
 20
9.0
 30
0.0
 11
-6.0
 21
13.0
 31
0.0
  0
LINE
  5
21B
330
1F
100
AcDbEntity
  8
1
  6
DOT_CENTER
 62
     4
100
AcDbLine
 10
-10.25918937855485
 20
0.0
 30
0.0
 11
12.17819891341636
 21
0.0
 31
0.0
  0
LINE
  5
21C
330
1F
100
AcDbEntity
  8
1
  6
Continuous
 62
     3
100
AcDbLine
 10
-11.5
 20
8.5
 30
0.0
 11
-9.85202142182122
 21
8.5
 31
0.0
  0
LINE
  5
21D
330
1F
100
AcDbEntity
  8
1
  6
Continuous
 62
     3
100
AcDbLine
 10
-10.25918937855485
 20
-8.50000000000001
 30
0.0
 11
-17.59647305414774
 21
-8.5
 31
0.0
  0
LINE
  5
21E
330
1F
100
AcDbEntity
  8
1
  6
Continuous
 62
     3
100
AcDbLine
 10
-3.5
 20
2.89359353944898
 30
0.0
 11
-3.5
 21
-8.0
 31
0.0
  0
LINE
  5
21F
330
1F
100
AcDbEntity
  8
1
  6
Continuous
 62
     3
100
AcDbLine
 10
2.5
 20
-8.0
 30
0.0
 11
2.5
 21
2.89359353944898
 31
0.0
  0
LINE
  5
220
330
1F
100
AcDbEntity
  8
1
  6
Continuous
 62
     3
100
AcDbLine
 10
-4.00000000000001
 20
2.27756813566454
 30
0.0
 11
-4.00000000000001
 21
-8.35355339059328
 31
0.0
  0
LINE
  5
221
330
1F
100
AcDbEntity
  8
1
  6
Continuous
 62
     3
100
AcDbLine
 10
-3.21132486540519
 20
3.14359353944898
 30
0.0
 11
2.21132486540518
 21
3.14359353944898
 31
0.0
  0
LINE
  5
222
330
1F
100
AcDbEntity
  8
1
  6
Continuous
 62
     3
100
AcDbLine
 10
3.0
 20
2.27756813566454
 30
0.0
 11
3.0
 21
-8.35355339059328
 31
0.0
  0
LINE
  5
223
330
1F
100
AcDbEntity
  8
1
  6
Continuous
 62
     3
100
AcDbLine
 10
-3.8556624327026
 20
2.52756813566454
 30
0.0
 11
-3.64433756729741
 21
2.89359353944898
 31
0.0
  0
LINE
  5
224
330
1F
100
AcDbEntity
  8
1
  6
Continuous
 62
     3
100
AcDbLine
 10
2.6443375672974
 20
2.89359353944898
 30
0.0
 11
2.85566243270259
 21
2.52756813566454
 31
0.0
  0
LINE
  5
225
330
1F
100
AcDbEntity
  8
1
  6
Continuous
 62
     3
100
AcDbLine
 10
-17.59647305414774
 20
0.0
 30
0.0
 11
-10.25918937855485
 21
0.0
 31
0.0
  0
LINE
  5
226
330
1F
100
AcDbEntity
  8
1
  6
Continuous
 62
     3
100
AcDbLine
 10
-17.59647305414774
 20
8.5
 30
0.0
 11
-11.5
 21
8.5
 31
0.0
  0
LINE
  5
227
330
1F
100
AcDbEntity
  8
1
  6
Continuous
 62
     3
100
AcDbLine
 10
-17.59647305414774
 20
-8.5
 30
0.0
 11
-18.35566243270259
 21
-8.5
 31
0.0
  0
LINE
  5
228
330
1F
100
AcDbEntity
  8
1
  6
Continuous
 62
     3
100
AcDbLine
 10
-4.28867513459482
 20
2.27756813566454
 30
0.0
 11
-9.24152680181087
 21
2.27756813566454
 31
0.0
  0
LINE
  5
229
330
1F
100
AcDbEntity
  8
1
  6
Continuous
 62
     3
100
AcDbLine
 10
-9.49999999999999
 20
1.87433266854433
 30
0.0
 11
-9.49999999999999
 21
-8.50000000000001
 31
0.0
  0
LINE
  5
22A
330
1F
100
AcDbEntity
  8
1
  6
Continuous
 62
     3
100
AcDbLine
 10
-9.49999999999999
 20
-8.50000000000001
 30
0.0
 11
-10.25918937855485
 21
-8.50000000000001
 31
0.0
  0
LINE
  5
22B
330
1F
100
AcDbEntity
  8
1
  6
Continuous
 62
     3
100
AcDbLine
 10
12.17819891341636
 20
0.0
 30
0.0
 11
19.59647305414774
 21
0.0
 31
0.0
  0
LINE
  5
22C
330
1F
100
AcDbEntity
  8
1
  6
Continuous
 62
     3
100
AcDbLine
 10
12.17819891341636
 20
-8.5
 30
0.0
 11
11.3
 21
-8.5
 31
0.0
  0
LINE
  5
22D
330
1F
100
AcDbEntity
  8
1
  6
Continuous
 62
     3
100
AcDbLine
 10
19.59647305414774
 20
-8.5
 30
0.0
 11
12.17819891341636
 21
-8.5
 31
0.0
  0
LINE
  5
22E
330
1F
100
AcDbEntity
  8
1
  6
DOT_CENTER
 62
     3
100
AcDbLine
 10
19.59647305414774
 20
0.0
 30
0.0
 11
21.5
 21
0.0
 31
0.0
  0
LINE
  5
22F
330
1F
100
AcDbEntity
  8
1
  6
Continuous
 62
     3
100
AcDbLine
 10
19.59647305414774
 20
8.5
 30
0.0
 11
20.3556624327026
 21
8.5
 31
0.0
  0
LINE
  5
230
330
1F
100
AcDbEntity
  8
1
  6
Continuous
 62
     3
100
AcDbLine
 10
-5.5
 20
8.5
 30
0.0
 11
19.59647305414774
 21
8.5
 31
0.0
  0
LINE
  5
231
330
1F
100
AcDbEntity
  8
1
  6
Continuous
 62
     3
100
AcDbLine
 10
11.3
 20
-8.5
 30
0.0
 11
3.20710678118655
 21
-8.5
 31
0.0
  0
LINE
  5
232
330
1F
100
AcDbEntity
  8
1
  6
Continuous
 62
     3
100
AcDbLine
 10
3.28867513459481
 20
2.27756813566454
 30
0.0
 11
11.07572765378061
 21
2.27756813566454
 31
0.0
  0
LINE
  5
233
330
1F
100
AcDbEntity
  8
1
  6
Continuous
 62
     3
100
AcDbLine
 10
11.3
 20
1.88771903055271
 30
0.0
 11
11.3
 21
-8.5
 31
0.0
  0
LINE
  5
234
330
1F
100
AcDbEntity
  8
1
  6
Continuous
 62
     3
100
AcDbLine
 10
-6.0
 20
9.0
 30
0.0
 11
-6.0
 21
5.37564434701786
 31
0.0
  0
LINE
  5
235
330
1F
100
AcDbEntity
  8
1
  6
Continuous
 62
     3
100
AcDbLine
 10
-6.5
 20
4.87564434701786
 30
0.0
 11
-8.50831287419645
 21
4.87564434701786
 31
0.0
  0
LINE
  5
236
330
1F
100
AcDbEntity
  8
1
  6
Continuous
 62
     3
100
AcDbLine
 10
10.01999999999996
 20
-22.54048149838889
 30
0.0
 11
10.01999999999996
 21
-18.84048149838889
 31
0.0
  0
LINE
  5
237
330
1F
100
AcDbEntity
  8
1
  6
Continuous
 62
     3
100
AcDbLine
 10
10.01999999999996
 20
-18.84048149838889
 30
0.0
 11
11.21999999999995
 21
-18.84048149838889
 31
0.0
  0
LINE
  5
238
330
1F
100
AcDbEntity
  8
1
  6
Continuous
 62
     3
100
AcDbLine
 10
11.21999999999995
 20
-18.84048149838889
 30
0.0
 11
11.61999999999996
 21
-19.04048149838889
 31
0.0
  0
LINE
  5
239
330
1F
100
AcDbEntity
  8
1
  6
Continuous
 62
     3
100
AcDbLine
 10
11.61999999999996
 20
-19.04048149838889
 30
0.0
 11
11.77999999999996
 21
-19.74048149838889
 31
0.0
  0
LINE
  5
23A
330
1F
100
AcDbEntity
  8
1
  6
Continuous
 62
     3
100
AcDbLine
 10
11.77999999999996
 20
-19.74048149838889
 30
0.0
 11
11.61999999999996
 21
-20.24048149838889
 31
0.0
  0
LINE
  5
23B
330
1F
100
AcDbEntity
  8
1
  6
Continuous
 62
     3
100
AcDbLine
 10
11.61999999999996
 20
-20.24048149838889
 30
0.0
 11
11.21999999999995
 21
-20.64048149838889
 31
0.0
  0
LINE
  5
23C
330
1F
100
AcDbEntity
  8
1
  6
Continuous
 62
     3
100
AcDbLine
 10
11.21999999999995
 20
-20.64048149838889
 30
0.0
 11
10.01999999999996
 21
-20.64048149838889
 31
0.0
  0
LINE
  5
23D
330
1F
100
AcDbEntity
  8
1
  6
Continuous
 62
     3
100
AcDbLine
 10
10.01999999999996
 20
-20.64048149838889
 30
0.0
 11
11.21999999999995
 21
-20.64048149838889
 31
0.0
  0
LINE
  5
23E
330
1F
100
AcDbEntity
  8
1
  6
Continuous
 62
     3
100
AcDbLine
 10
11.21999999999995
 20
-20.64048149838889
 30
0.0
 11
11.77999999999996
 21
-20.94048149838889
 31
0.0
  0
LINE
  5
23F
330
1F
100
AcDbEntity
  8
1
  6
Continuous
 62
     3
100
AcDbLine
 10
11.77999999999996
 20
-20.94048149838889
 30
0.0
 11
11.93999999999996
 21
-21.64048149838889
 31
0.0
  0
LINE
  5
240
330
1F
100
AcDbEntity
  8
1
  6
Continuous
 62
     3
100
AcDbLine
 10
11.93999999999996
 20
-21.64048149838889
 30
0.0
 11
11.77999999999996
 21
-22.24048149838889
 31
0.0
  0
LINE
  5
241
330
1F
100
AcDbEntity
  8
1
  6
Continuous
 62
     3
100
AcDbLine
 10
11.77999999999996
 20
-22.24048149838889
 30
0.0
 11
11.21999999999995
 21
-22.54048149838889
 31
0.0
  0
LINE
  5
242
330
1F
100
AcDbEntity
  8
1
  6
Continuous
 62
     3
100
AcDbLine
 10
11.21999999999995
 20
-22.54048149838889
 30
0.0
 11
10.01999999999996
 21
-22.54048149838889
 31
0.0
  0
LINE
  5
243
330
1F
100
AcDbEntity
  8
1
  6
Continuous
 62
     3
100
AcDbLine
 10
15.53999999999996
 20
-19.34048149838889
 30
0.0
 11
15.29999999999996
 21
-18.94048149838889
 31
0.0
  0
LINE
  5
244
330
1F
100
AcDbEntity
  8
1
  6
Continuous
 62
     3
100
AcDbLine
 10
15.29999999999996
 20
-18.94048149838889
 30
0.0
 11
14.97999999999995
 21
-18.64048149838889
 31
0.0
  0
LINE
  5
245
330
1F
100
AcDbEntity
  8
1
  6
Continuous
 62
     3
100
AcDbLine
 10
14.97999999999995
 20
-18.64048149838889
 30
0.0
 11
14.57999999999995
 21
-18.64048149838889
 31
0.0
  0
LINE
  5
246
330
1F
100
AcDbEntity
  8
1
  6
Continuous
 62
     3
100
AcDbLine
 10
14.57999999999995
 20
-18.64048149838889
 30
0.0
 11
14.25999999999996
 21
-18.64048149838889
 31
0.0
  0
LINE
  5
247
330
1F
100
AcDbEntity
  8
1
  6
Continuous
 62
     3
100
AcDbLine
 10
14.25999999999996
 20
-18.64048149838889
 30
0.0
 11
14.09999999999996
 21
-18.84048149838889
 31
0.0
  0
LINE
  5
248
330
1F
100
AcDbEntity
  8
1
  6
Continuous
 62
     3
100
AcDbLine
 10
14.09999999999996
 20
-18.84048149838889
 30
0.0
 11
13.77999999999996
 21
-19.04048149838889
 31
0.0
  0
LINE
  5
249
330
1F
100
AcDbEntity
  8
1
  6
Continuous
 62
     3
100
AcDbLine
 10
13.77999999999996
 20
-19.04048149838889
 30
0.0
 11
13.69999999999996
 21
-19.44048149838889
 31
0.0
  0
LINE
  5
24A
330
1F
100
AcDbEntity
  8
1
  6
Continuous
 62
     3
100
AcDbLine
 10
13.69999999999996
 20
-19.44048149838889
 30
0.0
 11
13.77999999999996
 21
-20.04048149838889
 31
0.0
  0
LINE
  5
24B
330
1F
100
AcDbEntity
  8
1
  6
Continuous
 62
     3
100
AcDbLine
 10
13.77999999999996
 20
-20.04048149838889
 30
0.0
 11
14.01999999999995
 21
-20.24048149838889
 31
0.0
  0
LINE
  5
24C
330
1F
100
AcDbEntity
  8
1
  6
Continuous
 62
     3
100
AcDbLine
 10
14.01999999999995
 20
-20.24048149838889
 30
0.0
 11
14.17999999999995
 21
-20.44048149838889
 31
0.0
  0
LINE
  5
24D
330
1F
100
AcDbEntity
  8
1
  6
Continuous
 62
     3
100
AcDbLine
 10
14.17999999999995
 20
-20.44048149838889
 30
0.0
 11
14.57999999999995
 21
-20.54048149838889
 31
0.0
  0
LINE
  5
24E
330
1F
100
AcDbEntity
  8
1
  6
Continuous
 62
     3
100
AcDbLine
 10
14.57999999999995
 20
-20.54048149838889
 30
0.0
 11
14.97999999999995
 21
-20.54048149838889
 31
0.0
  0
LINE
  5
24F
330
1F
100
AcDbEntity
  8
1
  6
Continuous
 62
     3
100
AcDbLine
 10
14.97999999999995
 20
-20.54048149838889
 30
0.0
 11
15.21999999999995
 21
-20.64048149838889
 31
0.0
  0
LINE
  5
250
330
1F
100
AcDbEntity
  8
1
  6
Continuous
 62
     3
100
AcDbLine
 10
15.21999999999995
 20
-20.64048149838889
 30
0.0
 11
15.53999999999996
 21
-21.04048149838889
 31
0.0
  0
LINE
  5
251
330
1F
100
AcDbEntity
  8
1
  6
Continuous
 62
     3
100
AcDbLine
 10
15.53999999999996
 20
-21.04048149838889
 30
0.0
 11
15.61999999999996
 21
-21.64048149838889
 31
0.0
  0
LINE
  5
252
330
1F
100
AcDbEntity
  8
1
  6
Continuous
 62
     3
100
AcDbLine
 10
15.61999999999996
 20
-21.64048149838889
 30
0.0
 11
15.53999999999996
 21
-22.14048149838889
 31
0.0
  0
LINE
  5
253
330
1F
100
AcDbEntity
  8
1
  6
Continuous
 62
     3
100
AcDbLine
 10
15.53999999999996
 20
-22.14048149838889
 30
0.0
 11
15.21999999999995
 21
-22.44048149838889
 31
0.0
  0
LINE
  5
254
330
1F
100
AcDbEntity
  8
1
  6
Continuous
 62
     3
100
AcDbLine
 10
15.21999999999995
 20
-22.44048149838889
 30
0.0
 11
14.97999999999995
 21
-22.54048149838889
 31
0.0
  0
LINE
  5
255
330
1F
100
AcDbEntity
  8
1
  6
Continuous
 62
     3
100
AcDbLine
 10
14.97999999999995
 20
-22.54048149838889
 30
0.0
 11
14.57999999999995
 21
-22.54048149838889
 31
0.0
  0
LINE
  5
256
330
1F
100
AcDbEntity
  8
1
  6
Continuous
 62
     3
100
AcDbLine
 10
14.57999999999995
 20
-22.54048149838889
 30
0.0
 11
14.17999999999995
 21
-22.44048149838889
 31
0.0
  0
LINE
  5
257
330
1F
100
AcDbEntity
  8
1
  6
Continuous
 62
     3
100
AcDbLine
 10
14.17999999999995
 20
-22.44048149838889
 30
0.0
 11
13.93999999999996
 21
-22.14048149838889
 31
0.0
  0
LINE
  5
258
330
1F
100
AcDbEntity
  8
1
  6
Continuous
 62
     3
100
AcDbLine
 10
13.93999999999996
 20
-22.14048149838889
 30
0.0
 11
13.69999999999996
 21
-21.64048149838889
 31
0.0
  0
LINE
  5
259
330
1F
100
AcDbEntity
  8
1
  6
Continuous
 62
     3
100
AcDbLine
 10
17.29999999999996
 20
-18.64048149838889
 30
0.0
 11
18.33999999999995
 21
-18.64048149838889
 31
0.0
  0
LINE
  5
25A
330
1F
100
AcDbEntity
  8
1
  6
Continuous
 62
     3
100
AcDbLine
 10
18.33999999999995
 20
-18.64048149838889
 30
0.0
 11
18.33999999999995
 21
-22.54048149838889
 31
0.0
  0
LINE
  5
25B
330
1F
100
AcDbEntity
  8
1
  6
Continuous
 62
     3
100
AcDbLine
 10
18.33999999999995
 20
-18.64048149838889
 30
0.0
 11
19.37999999999995
 21
-18.64048149838889
 31
0.0
  0
LINE
  5
25C
330
1F
100
AcDbEntity
  8
1
  6
Continuous
 62
     3
100
AcDbLine
 10
21.21999999999996
 20
-20.54048149838889
 30
0.0
 11
22.89999999999996
 21
-20.54048149838889
 31
0.0
  0
LINE
  5
25D
330
1F
100
AcDbEntity
  8
1
  6
Continuous
 62
     3
100
AcDbLine
 10
25.85999999999995
 20
-18.54048149838889
 30
0.0
 11
25.29999999999996
 21
-18.84048149838889
 31
0.0
  0
LINE
  5
25E
330
1F
100
AcDbEntity
  8
1
  6
Continuous
 62
     3
100
AcDbLine
 10
25.29999999999996
 20
-18.84048149838889
 30
0.0
 11
24.97999999999995
 21
-19.44048149838889
 31
0.0
  0
LINE
  5
25F
330
1F
100
AcDbEntity
  8
1
  6
Continuous
 62
     3
100
AcDbLine
 10
24.97999999999995
 20
-19.44048149838889
 30
0.0
 11
24.81999999999995
 21
-20.54048149838889
 31
0.0
  0
LINE
  5
260
330
1F
100
AcDbEntity
  8
1
  6
Continuous
 62
     3
100
AcDbLine
 10
24.81999999999995
 20
-20.54048149838889
 30
0.0
 11
24.97999999999995
 21
-21.64048149838889
 31
0.0
  0
LINE
  5
261
330
1F
100
AcDbEntity
  8
1
  6
Continuous
 62
     3
100
AcDbLine
 10
24.97999999999995
 20
-21.64048149838889
 30
0.0
 11
25.29999999999996
 21
-22.24048149838889
 31
0.0
  0
LINE
  5
262
330
1F
100
AcDbEntity
  8
1
  6
Continuous
 62
     3
100
AcDbLine
 10
25.29999999999996
 20
-22.24048149838889
 30
0.0
 11
25.85999999999995
 21
-22.54048149838889
 31
0.0
  0
LINE
  5
263
330
1F
100
AcDbEntity
  8
1
  6
Continuous
 62
     3
100
AcDbLine
 10
25.85999999999995
 20
-22.54048149838889
 30
0.0
 11
26.41999999999995
 21
-22.24048149838889
 31
0.0
  0
LINE
  5
264
330
1F
100
AcDbEntity
  8
1
  6
Continuous
 62
     3
100
AcDbLine
 10
26.41999999999995
 20
-22.24048149838889
 30
0.0
 11
26.81999999999995
 21
-21.64048149838889
 31
0.0
  0
LINE
  5
265
330
1F
100
AcDbEntity
  8
1
  6
Continuous
 62
     3
100
AcDbLine
 10
26.81999999999995
 20
-21.64048149838889
 30
0.0
 11
26.89999999999996
 21
-20.54048149838889
 31
0.0
  0
LINE
  5
266
330
1F
100
AcDbEntity
  8
1
  6
Continuous
 62
     3
100
AcDbLine
 10
26.89999999999996
 20
-20.54048149838889
 30
0.0
 11
26.81999999999995
 21
-19.44048149838889
 31
0.0
  0
LINE
  5
267
330
1F
100
AcDbEntity
  8
1
  6
Continuous
 62
     3
100
AcDbLine
 10
26.81999999999995
 20
-19.44048149838889
 30
0.0
 11
26.41999999999995
 21
-18.84048149838889
 31
0.0
  0
LINE
  5
268
330
1F
100
AcDbEntity
  8
1
  6
Continuous
 62
     3
100
AcDbLine
 10
26.41999999999995
 20
-18.84048149838889
 30
0.0
 11
25.85999999999995
 21
-18.54048149838889
 31
0.0
  0
LINE
  5
269
330
1F
100
AcDbEntity
  8
1
  6
Continuous
 62
     3
100
AcDbLine
 10
29.29999999999996
 20
-18.94048149838889
 30
0.0
 11
29.77999999999996
 21
-18.54048149838889
 31
0.0
  0
LINE
  5
26A
330
1F
100
AcDbEntity
  8
1
  6
Continuous
 62
     3
100
AcDbLine
 10
29.77999999999996
 20
-18.54048149838889
 30
0.0
 11
29.77999999999996
 21
-22.54048149838889
 31
0.0
  0
LINE
  5
26B
330
1F
100
AcDbEntity
  8
1
  6
Continuous
 62
     3
100
AcDbLine
 10
32.49999999999996
 20
-20.54048149838889
 30
0.0
 11
34.17999999999996
 21
-20.54048149838889
 31
0.0
  0
LINE
  5
26C
330
1F
100
AcDbEntity
  8
1
  6
Continuous
 62
     3
100
AcDbLine
 10
37.13999999999997
 20
-18.54048149838889
 30
0.0
 11
36.57999999999996
 21
-18.84048149838889
 31
0.0
  0
LINE
  5
26D
330
1F
100
AcDbEntity
  8
1
  6
Continuous
 62
     3
100
AcDbLine
 10
36.57999999999996
 20
-18.84048149838889
 30
0.0
 11
36.25999999999996
 21
-19.44048149838889
 31
0.0
  0
LINE
  5
26E
330
1F
100
AcDbEntity
  8
1
  6
Continuous
 62
     3
100
AcDbLine
 10
36.25999999999996
 20
-19.44048149838889
 30
0.0
 11
36.09999999999996
 21
-20.54048149838889
 31
0.0
  0
LINE
  5
26F
330
1F
100
AcDbEntity
  8
1
  6
Continuous
 62
     3
100
AcDbLine
 10
36.09999999999996
 20
-20.54048149838889
 30
0.0
 11
36.25999999999996
 21
-21.64048149838889
 31
0.0
  0
LINE
  5
270
330
1F
100
AcDbEntity
  8
1
  6
Continuous
 62
     3
100
AcDbLine
 10
36.25999999999996
 20
-21.64048149838889
 30
0.0
 11
36.57999999999996
 21
-22.24048149838889
 31
0.0
  0
LINE
  5
271
330
1F
100
AcDbEntity
  8
1
  6
Continuous
 62
     3
100
AcDbLine
 10
36.57999999999996
 20
-22.24048149838889
 30
0.0
 11
37.13999999999997
 21
-22.54048149838889
 31
0.0
  0
LINE
  5
272
330
1F
100
AcDbEntity
  8
1
  6
Continuous
 62
     3
100
AcDbLine
 10
37.13999999999997
 20
-22.54048149838889
 30
0.0
 11
37.69999999999996
 21
-22.24048149838889
 31
0.0
  0
LINE
  5
273
330
1F
100
AcDbEntity
  8
1
  6
Continuous
 62
     3
100
AcDbLine
 10
37.69999999999996
 20
-22.24048149838889
 30
0.0
 11
38.09999999999997
 21
-21.64048149838889
 31
0.0
  0
LINE
  5
274
330
1F
100
AcDbEntity
  8
1
  6
Continuous
 62
     3
100
AcDbLine
 10
38.09999999999997
 20
-21.64048149838889
 30
0.0
 11
38.17999999999996
 21
-20.54048149838889
 31
0.0
  0
LINE
  5
275
330
1F
100
AcDbEntity
  8
1
  6
Continuous
 62
     3
100
AcDbLine
 10
38.17999999999996
 20
-20.54048149838889
 30
0.0
 11
38.09999999999997
 21
-19.44048149838889
 31
0.0
  0
LINE
  5
276
330
1F
100
AcDbEntity
  8
1
  6
Continuous
 62
     3
100
AcDbLine
 10
38.09999999999997
 20
-19.44048149838889
 30
0.0
 11
37.69999999999996
 21
-18.84048149838889
 31
0.0
  0
LINE
  5
277
330
1F
100
AcDbEntity
  8
1
  6
Continuous
 62
     3
100
AcDbLine
 10
37.69999999999996
 20
-18.84048149838889
 30
0.0
 11
37.13999999999997
 21
-18.54048149838889
 31
0.0
  0
LINE
  5
278
330
1F
100
AcDbEntity
  8
1
  6
Continuous
 62
     3
100
AcDbLine
 10
40.89999999999996
 20
-18.54048149838889
 30
0.0
 11
40.41999999999996
 21
-18.64048149838889
 31
0.0
  0
LINE
  5
279
330
1F
100
AcDbEntity
  8
1
  6
Continuous
 62
     3
100
AcDbLine
 10
40.41999999999996
 20
-18.64048149838889
 30
0.0
 11
40.09999999999996
 21
-19.04048149838889
 31
0.0
  0
LINE
  5
27A
330
1F
100
AcDbEntity
  8
1
  6
Continuous
 62
     3
100
AcDbLine
 10
40.09999999999996
 20
-19.04048149838889
 30
0.0
 11
40.01999999999996
 21
-19.44048149838889
 31
0.0
  0
LINE
  5
27B
330
1F
100
AcDbEntity
  8
1
  6
Continuous
 62
     3
100
AcDbLine
 10
40.01999999999996
 20
-19.44048149838889
 30
0.0
 11
40.09999999999996
 21
-19.84048149838889
 31
0.0
  0
LINE
  5
27C
330
1F
100
AcDbEntity
  8
1
  6
Continuous
 62
     3
100
AcDbLine
 10
40.09999999999996
 20
-19.84048149838889
 30
0.0
 11
40.41999999999996
 21
-20.24048149838889
 31
0.0
  0
LINE
  5
27D
330
1F
100
AcDbEntity
  8
1
  6
Continuous
 62
     3
100
AcDbLine
 10
40.41999999999996
 20
-20.24048149838889
 30
0.0
 11
40.81999999999996
 21
-20.44048149838889
 31
0.0
  0
LINE
  5
27E
330
1F
100
AcDbEntity
  8
1
  6
Continuous
 62
     3
100
AcDbLine
 10
40.81999999999996
 20
-20.44048149838889
 30
0.0
 11
41.05999999999996
 21
-20.44048149838889
 31
0.0
  0
LINE
  5
27F
330
1F
100
AcDbEntity
  8
1
  6
Continuous
 62
     3
100
AcDbLine
 10
41.05999999999996
 20
-20.44048149838889
 30
0.0
 11
41.45999999999996
 21
-20.54048149838889
 31
0.0
  0
LINE
  5
280
330
1F
100
AcDbEntity
  8
1
  6
Continuous
 62
     3
100
AcDbLine
 10
41.45999999999996
 20
-20.54048149838889
 30
0.0
 11
41.85999999999996
 21
-20.94048149838889
 31
0.0
  0
LINE
  5
281
330
1F
100
AcDbEntity
  8
1
  6
Continuous
 62
     3
100
AcDbLine
 10
41.85999999999996
 20
-20.94048149838889
 30
0.0
 11
42.01999999999996
 21
-21.44048149838889
 31
0.0
  0
LINE
  5
282
330
1F
100
AcDbEntity
  8
1
  6
Continuous
 62
     3
100
AcDbLine
 10
42.01999999999996
 20
-21.44048149838889
 30
0.0
 11
41.85999999999996
 21
-22.14048149838889
 31
0.0
  0
LINE
  5
283
330
1F
100
AcDbEntity
  8
1
  6
Continuous
 62
     3
100
AcDbLine
 10
41.85999999999996
 20
-22.14048149838889
 30
0.0
 11
41.45999999999996
 21
-22.44048149838889
 31
0.0
  0
LINE
  5
284
330
1F
100
AcDbEntity
  8
1
  6
Continuous
 62
     3
100
AcDbLine
 10
41.45999999999996
 20
-22.44048149838889
 30
0.0
 11
40.89999999999996
 21
-22.54048149838889
 31
0.0
  0
LINE
  5
285
330
1F
100
AcDbEntity
  8
1
  6
Continuous
 62
     3
100
AcDbLine
 10
40.89999999999996
 20
-22.54048149838889
 30
0.0
 11
40.33999999999996
 21
-22.44048149838889
 31
0.0
  0
LINE
  5
286
330
1F
100
AcDbEntity
  8
1
  6
Continuous
 62
     3
100
AcDbLine
 10
40.33999999999996
 20
-22.44048149838889
 30
0.0
 11
40.01999999999996
 21
-22.14048149838889
 31
0.0
  0
LINE
  5
287
330
1F
100
AcDbEntity
  8
1
  6
Continuous
 62
     3
100
AcDbLine
 10
40.01999999999996
 20
-22.14048149838889
 30
0.0
 11
39.85999999999996
 21
-21.44048149838889
 31
0.0
  0
LINE
  5
288
330
1F
100
AcDbEntity
  8
1
  6
Continuous
 62
     3
100
AcDbLine
 10
39.85999999999996
 20
-21.44048149838889
 30
0.0
 11
39.93999999999996
 21
-20.94048149838889
 31
0.0
  0
LINE
  5
289
330
1F
100
AcDbEntity
  8
1
  6
Continuous
 62
     3
100
AcDbLine
 10
39.93999999999996
 20
-20.94048149838889
 30
0.0
 11
40.25999999999996
 21
-20.64048149838889
 31
0.0
  0
LINE
  5
28A
330
1F
100
AcDbEntity
  8
1
  6
Continuous
 62
     3
100
AcDbLine
 10
40.25999999999996
 20
-20.64048149838889
 30
0.0
 11
40.41999999999996
 21
-20.54048149838889
 31
0.0
  0
LINE
  5
28B
330
1F
100
AcDbEntity
  8
1
  6
Continuous
 62
     3
100
AcDbLine
 10
40.41999999999996
 20
-20.54048149838889
 30
0.0
 11
40.81999999999996
 21
-20.44048149838889
 31
0.0
  0
LINE
  5
28C
330
1F
100
AcDbEntity
  8
1
  6
Continuous
 62
     3
100
AcDbLine
 10
40.81999999999996
 20
-20.44048149838889
 30
0.0
 11
41.05999999999996
 21
-20.44048149838889
 31
0.0
  0
LINE
  5
28D
330
1F
100
AcDbEntity
  8
1
  6
Continuous
 62
     3
100
AcDbLine
 10
41.05999999999996
 20
-20.44048149838889
 30
0.0
 11
41.45999999999996
 21
-20.24048149838889
 31
0.0
  0
LINE
  5
28E
330
1F
100
AcDbEntity
  8
1
  6
Continuous
 62
     3
100
AcDbLine
 10
41.45999999999996
 20
-20.24048149838889
 30
0.0
 11
41.69999999999996
 21
-19.84048149838889
 31
0.0
  0
LINE
  5
28F
330
1F
100
AcDbEntity
  8
1
  6
Continuous
 62
     3
100
AcDbLine
 10
41.69999999999996
 20
-19.84048149838889
 30
0.0
 11
41.85999999999996
 21
-19.44048149838889
 31
0.0
  0
LINE
  5
290
330
1F
100
AcDbEntity
  8
1
  6
Continuous
 62
     3
100
AcDbLine
 10
41.85999999999996
 20
-19.44048149838889
 30
0.0
 11
41.69999999999996
 21
-19.04048149838889
 31
0.0
  0
LINE
  5
291
330
1F
100
AcDbEntity
  8
1
  6
Continuous
 62
     3
100
AcDbLine
 10
41.69999999999996
 20
-19.04048149838889
 30
0.0
 11
41.61999999999996
 21
-18.84048149838889
 31
0.0
  0
LINE
  5
292
330
1F
100
AcDbEntity
  8
1
  6
Continuous
 62
     3
100
AcDbLine
 10
41.61999999999996
 20
-18.84048149838889
 30
0.0
 11
41.37999999999996
 21
-18.64048149838889
 31
0.0
  0
LINE
  5
293
330
1F
100
AcDbEntity
  8
1
  6
Continuous
 62
     3
100
AcDbLine
 10
41.37999999999996
 20
-18.64048149838889
 30
0.0
 11
40.89999999999996
 21
-18.54048149838889
 31
0.0
  0
ARC
  5
294
330
1F
100
AcDbEntity
  8
1
  6
Continuous
 62
     3
100
AcDbCircle
 10
47.5
 20
70.0
 30
0.0
 40
12.49999999999999
100
AcDbArc
 50
333.256316049597
 51
26.74368395040302
  0
ARC
  5
295
330
1F
100
AcDbEntity
  8
1
  6
Continuous
 62
     3
100
AcDbCircle
 10
11.33137161448734
 20
64.25864922594752
 30
0.0
 40
1.258649225947515
100
AcDbArc
 50
191.8586217523621
 51
270.0000000000005
  0
ARC
  5
296
330
1F
100
AcDbEntity
  8
1
  6
Continuous
 62
     3
100
AcDbCircle
 10
11.33137161448734
 20
75.74135077405248
 30
0.0
 40
1.258649225947522
100
AcDbArc
 50
89.99999999999952
 51
168.1413782476379
  0
ARC
  5
297
330
1F
100
AcDbEntity
  8
1
  6
Continuous
 62
     3
100
AcDbCircle
 10
0.0
 20
70.0
 30
0.0
 40
6.0
100
AcDbArc
 50
184.4117257857701
 51
270.0
  0
ARC
  5
298
102
{ACAD_REACTORS
330
339
102
}
330
1F
100
AcDbEntity
  8
1
  6
Continuous
 62
     3
100
AcDbCircle
 10
16.22699685476074
 20
70.0
 30
0.0
 40
8.71440280241773
100
AcDbArc
 50
0.0
 51
30.8095804822245
  0
ARC
  5
299
102
{ACAD_REACTORS
330
339
102
}
330
1F
100
AcDbEntity
  8
1
  6
Continuous
 62
     3
100
AcDbCircle
 10
16.06286868568726
 20
70.0
 30
0.0
 40
8.71440280241756
100
AcDbArc
 50
0.0
 51
19.23065317146084
  0
ARC
  5
29A
102
{ACAD_REACTORS
330
339
102
}
330
1F
100
AcDbEntity
  8
1
  6
Continuous
 62
     3
100
AcDbCircle
 10
16.22699685476074
 20
70.0
 30
0.0
 40
8.714402802417572
100
AcDbArc
 50
329.1904195177755
 51
0.0
  0
ARC
  5
29B
102
{ACAD_REACTORS
330
339
102
}
330
1F
100
AcDbEntity
  8
1
  6
Continuous
 62
     3
100
AcDbCircle
 10
16.06286868568726
 20
70.0
 30
0.0
 40
8.714402802417533
100
AcDbArc
 50
340.7693468285412
 51
0.0
  0
ARC
  5
29C
330
1F
100
AcDbEntity
  8
1
  6
Continuous
 62
     3
100
AcDbCircle
 10
0.0
 20
70.0
 30
0.0
 40
4.499999999999997
100
AcDbArc
 50
302.7339555492671
 51
357.2660444507327
  0
ARC
  5
29D
330
1F
100
AcDbEntity
  8
1
  6
Continuous
 62
     3
100
AcDbCircle
 10
0.0
 20
70.0
 30
0.0
 40
4.5
100
AcDbArc
 50
242.7339555492671
 51
297.2660444507329
  0
ARC
  5
29E
330
1F
100
AcDbEntity
  8
1
  6
Continuous
 62
     3
100
AcDbCircle
 10
0.0
 20
70.0
 30
0.0
 40
4.5
100
AcDbArc
 50
182.7339555492672
 51
237.2660444507327
  0
ARC
  5
29F
330
1F
100
AcDbEntity
  8
1
  6
Continuous
 62
     3
100
AcDbCircle
 10
0.0
 20
70.0
 30
0.0
 40
4.499999999999997
100
AcDbArc
 50
122.7339555492672
 51
177.2660444507328
  0
ARC
  5
2A0
330
1F
100
AcDbEntity
  8
1
  6
Continuous
 62
     3
100
AcDbCircle
 10
0.0
 20
70.0
 30
0.0
 40
4.5
100
AcDbArc
 50
62.73395554926716
 51
117.2660444507328
  0
ARC
  5
2A1
330
1F
100
AcDbEntity
  8
1
  6
Continuous
 62
     3
100
AcDbCircle
 10
0.0
 20
70.0
 30
0.0
 40
4.499999999999999
100
AcDbArc
 50
2.73395554926722
 51
57.26604445073279
  0
ARC
  5
2A2
330
1F
100
AcDbEntity
  8
1
  6
Continuous
 62
     3
100
AcDbCircle
 10
-2.36679663492361
 20
12.33107814941261
 30
0.0
 40
15.0
100
AcDbArc
 50
5.6662556745378
 51
22.5684542032935
  0
ARC
  5
2A3
330
1F
100
AcDbEntity
  8
1
  6
Continuous
 62
     3
100
AcDbCircle
 10
13.33137161448735
 20
18.85545655759723
 30
0.0
 40
2.000000000000006
100
AcDbArc
 50
159.9999999999999
 51
202.5684542032934
  0
ARC
  5
2A4
330
1F
100
AcDbEntity
  8
1
  6
Continuous
 62
     3
100
AcDbCircle
 10
13.08328890539019
 20
13.86401226479724
 30
0.0
 40
0.5259469986575608
100
AcDbArc
 50
185.6662556745373
 51
339.9999999999997
  0
ARC
  5
2A5
330
1F
100
AcDbEntity
  8
1
  6
Continuous
 62
     3
100
AcDbCircle
 10
0.0
 20
21.5316764817732
 30
0.0
 40
7.632194124694291
100
AcDbArc
 50
252.3869621790739
 51
287.613037820926
  0
ARC
  5
2A6
330
1F
100
AcDbEntity
  8
1
  6
Continuous
 62
     3
100
AcDbCircle
 10
3.99999999999999
 20
18.07863279495408
 30
0.0
 40
4.178632794954078
100
AcDbArc
 50
246.1350745839502
 51
270.0000000000001
  0
ARC
  5
2A7
330
1F
100
AcDbEntity
  8
1
  6
Continuous
 62
     3
100
AcDbCircle
 10
-3.99999999999999
 20
18.07863279495408
 30
0.0
 40
4.178632794954078
100
AcDbArc
 50
269.9999999999999
 51
293.8649254160498
  0
ARC
  5
2A8
330
1F
100
AcDbEntity
  8
1
  6
Continuous
 62
     3
100
AcDbCircle
 10
3.99999999999999
 20
13.72136720504591
 30
0.0
 40
4.178632794954089
100
AcDbArc
 50
89.99999999999989
 51
113.8649254160498
  0
ARC
  5
2A9
330
1F
100
AcDbEntity
  8
1
  6
Continuous
 62
     3
100
AcDbCircle
 10
0.0
 20
10.26832351822679
 30
0.0
 40
7.63219412469429
100
AcDbArc
 50
72.38696217907393
 51
107.6130378209261
  0
ARC
  5
2AA
330
1F
100
AcDbEntity
  8
1
  6
Continuous
 62
     3
100
AcDbCircle
 10
-3.99999999999999
 20
13.72136720504591
 30
0.0
 40
4.178632794954078
100
AcDbArc
 50
66.1350745839502
 51
90.00000000000011
  0
ARC
  5
2AB
330
1F
100
AcDbEntity
  8
1
  6
Continuous
 62
     3
100
AcDbCircle
 10
-48.0
 20
19.67670900630745
 30
0.0
 40
5.776709006307451
100
AcDbArc
 50
249.7438419995839
 51
290.2561580004162
  0
ARC
  5
2AC
330
1F
100
AcDbEntity
  8
1
  6
Continuous
 62
     3
100
AcDbCircle
 10
-52.0
 20
19.67670900630745
 30
0.0
 40
5.776709006307451
100
AcDbArc
 50
249.7438419995839
 51
290.2561580004162
  0
ARC
  5
2AD
330
1F
100
AcDbEntity
  8
1
  6
Continuous
 62
     3
100
AcDbCircle
 10
-52.0
 20
12.12329099369258
 30
0.0
 40
5.776709006307422
100
AcDbArc
 50
69.74384199958374
 51
110.2561580004163
  0
ARC
  5
2AE
330
1F
100
AcDbEntity
  8
1
  6
Continuous
 62
     3
100
AcDbCircle
 10
-48.0
 20
12.12329099369258
 30
0.0
 40
5.776709006307422
100
AcDbArc
 50
69.74384199958374
 51
110.2561580004163
  0
ARC
  5
2AF
330
1F
100
AcDbEntity
  8
1
  6
Continuous
 62
     3
100
AcDbCircle
 10
16.01076376038326
 20
62.63878406783228
 30
0.0
 40
4.344898672319329
100
AcDbArc
 50
334.3842474680411
 51
4.7688254159868
  0
ARC
  5
2B0
330
1F
100
AcDbEntity
  8
1
  6
Continuous
 62
     3
100
AcDbCircle
 10
-14.0
 20
63.0
 30
0.0
 40
5.00000000000002
100
AcDbArc
 50
5.21590857045409
 51
50.47880364135793
  0
ARC
  5
2B1
330
1F
100
AcDbEntity
  8
1
  6
Continuous
 62
     3
100
AcDbCircle
 10
0.0
 20
70.0
 30
0.0
 40
6.999999999999967
100
AcDbArc
 50
183.8225537292744
 51
209.9264348666142
  0
ARC
  5
2B2
330
1F
100
AcDbEntity
  8
1
  6
Continuous
 62
     3
100
AcDbCircle
 10
15.64489867231962
 20
62.63878406783226
 30
0.0
 40
4.344898672319619
100
AcDbArc
 50
179.9999999999997
 51
205.6157525319523
  0
ARC
  5
2B3
330
1F
100
AcDbEntity
  8
1
  6
Continuous
 62
     3
100
AcDbCircle
 10
15.64489867231962
 20
77.36121593216774
 30
0.0
 40
4.344898672319616
100
AcDbArc
 50
154.3842474680478
 51
180.0000000000004
  0
ARC
  5
2B4
330
1F
100
AcDbEntity
  8
1
  6
Continuous
 62
     3
100
AcDbCircle
 10
16.01076376038319
 20
77.36121593216777
 30
0.0
 40
4.34489867231939
100
AcDbArc
 50
355.2311745840126
 51
25.61575253195689
  0
ARC
  5
2B5
330
1F
100
AcDbEntity
  8
1
  6
Continuous
 62
     3
100
AcDbCircle
 10
-13.84489867231963
 20
77.36121593216774
 30
0.0
 40
4.34489867231963
100
AcDbArc
 50
359.9999999999997
 51
25.61575253195215
  0
ARC
  5
2B6
330
1F
100
AcDbEntity
  8
1
  6
Continuous
 62
     3
100
AcDbCircle
 10
-13.84489867231963
 20
62.63878406783226
 30
0.0
 40
4.344898672319628
100
AcDbArc
 50
334.3842474680478
 51
0.00000000000028
  0
ARC
  5
2B7
330
1F
100
AcDbEntity
  8
1
  6
Continuous
 62
     3
100
AcDbCircle
 10
-14.01076376038327
 20
62.63878406783228
 30
0.0
 40
4.344898672319325
100
AcDbArc
 50
145.6157525319578
 51
205.6157525319589
  0
ARC
  5
2B8
330
1F
100
AcDbEntity
  8
1
  6
Continuous
 62
     3
100
AcDbCircle
 10
-14.0107637603832
 20
77.36121593216777
 30
0.0
 40
4.3448986723194
100
AcDbArc
 50
154.3842474680431
 51
214.3842474680421
  0
ARC
  5
2B9
330
1F
100
AcDbEntity
  8
1
  6
Continuous
 62
     3
100
AcDbCircle
 10
-2.11485181125766
 20
70.0
 30
0.0
 40
16.24081062144494
100
AcDbArc
 50
162.412046226006
 51
197.587953773994
  0
ARC
  5
2BA
330
1F
100
AcDbEntity
  8
1
  6
Continuous
 62
     3
100
AcDbCircle
 10
-11.5
 20
9.0
 30
0.0
 40
0.5
100
AcDbArc
 50
270.0
 51
0.0
  0
ARC
  5
2BB
330
1F
100
AcDbEntity
  8
1
  6
Continuous
 62
     3
100
AcDbCircle
 10
-5.5
 20
9.0
 30
0.0
 40
0.4999999999999982
100
AcDbArc
 50
180.0
 51
270.0
  0
ARC
  5
2BC
330
1F
100
AcDbEntity
  8
1
  6
Continuous
 62
     3
100
AcDbCircle
 10
-21.77550663840316
 20
-4.25
 30
0.0
 40
12.27550663840316
100
AcDbArc
 50
339.7438419995835
 51
20.25615800041648
  0
ARC
  5
2BD
330
1F
100
AcDbEntity
  8
1
  6
Continuous
 62
     3
100
AcDbCircle
 10
-6.0801557942996
 20
4.25
 30
0.0
 40
12.275506638403
100
AcDbArc
 50
159.7438419995833
 51
200.2561580004167
  0
ARC
  5
2BE
330
1F
100
AcDbEntity
  8
1
  6
Continuous
 62
     3
100
AcDbCircle
 10
-6.0801557942996
 20
-4.25
 30
0.0
 40
12.275506638403
100
AcDbArc
 50
159.7438419995833
 51
200.2561580004167
  0
ARC
  5
2BF
330
1F
100
AcDbEntity
  8
1
  6
Continuous
 62
     3
100
AcDbCircle
 10
-21.77550663840314
 20
4.25
 30
0.0
 40
12.27550663840314
100
AcDbArc
 50
339.7438419995835
 51
348.841191493307
  0
ARC
  5
2C0
330
1F
100
AcDbEntity
  8
1
  6
Continuous
 62
     3
100
AcDbCircle
 10
22.02293135632501
 20
4.25
 30
0.0
 40
10.72293135632501
100
AcDbArc
 50
192.7267591720336
 51
203.349999771766
  0
ARC
  5
2C1
330
1F
100
AcDbEntity
  8
1
  6
Continuous
 62
     3
100
AcDbCircle
 10
22.02293135632501
 20
-4.25
 30
0.0
 40
10.72293135632501
100
AcDbArc
 50
156.6500002282339
 51
203.349999771766
  0
ARC
  5
2C2
330
1F
100
AcDbEntity
  8
1
  6
Continuous
 62
     3
100
AcDbCircle
 10
8.08015579429942
 20
-4.25
 30
0.0
 40
12.27550663840317
100
AcDbArc
 50
339.7438419995835
 51
20.25615800041644
  0
ARC
  5
2C3
330
1F
100
AcDbEntity
  8
1
  6
Continuous
 62
     3
100
AcDbCircle
 10
8.08015579429942
 20
4.25
 30
0.0
 40
12.27550663840317
100
AcDbArc
 50
339.7438419995835
 51
20.25615800041644
  0
ARC
  5
2C4
330
1F
100
AcDbEntity
  8
1
  6
Continuous
 62
     3
100
AcDbCircle
 10
-23.54107351847897
 20
4.87564434701787
 30
0.0
 40
14.54107351847897
100
AcDbArc
 50
1.90499491787537
 51
12.85681998563067
  0
CIRCLE
  5
2C5
102
{ACAD_REACTORS
330
33B
102
}
330
1F
100
AcDbEntity
  8
1
  6
Continuous
 62
     3
100
AcDbCircle
 10
51.41536883573017
 20
71.64829442519402
 30
0.0
 40
0.5846311642698261
  0
CIRCLE
  5
2C6
330
1F
100
AcDbEntity
  8
1
  6
Continuous
 62
     3
100
AcDbCircle
 10
0.0
 20
70.0
 30
0.0
 40
2.067
  0
CIRCLE
  5
2C7
330
1F
100
AcDbEntity
  8
1
  6
Continuous
 62
     3
100
AcDbCircle
 10
0.0
 20
70.0
 30
0.0
 40
2.5
  0
CIRCLE
  5
2C8
330
1F
100
AcDbEntity
  8
1
  6
Continuous
 62
     3
100
AcDbCircle
 10
0.0
 20
70.0
 30
0.0
 40
4.0
  0
CIRCLE
  5
2C9
330
1F
100
AcDbEntity
  8
1
  6
Continuous
 62
     3
100
AcDbCircle
 10
-50.0
 20
0.0
 30
0.0
 40
2.5
  0
CIRCLE
  5
2CA
330
1F
100
AcDbEntity
  8
1
  6
Continuous
 62
     3
100
AcDbCircle
 10
-50.0
 20
0.0
 30
0.0
 40
5.684514169569823
  0
CIRCLE
  5
2CB
330
1F
100
AcDbEntity
  8
1
  6
Continuous
 62
     3
100
AcDbCircle
 10
-50.0
 20
0.0
 30
0.0
 40
6.568128497254087
  0
CIRCLE
  5
2CC
330
1F
100
AcDbEntity
  8
1
  6
Continuous
 62
     3
100
AcDbCircle
 10
-50.0
 20
0.0
 30
0.0
 40
6.899999999999999
  0
CIRCLE
  5
2CD
330
1F
100
AcDbEntity
  8
1
  6
Continuous
 62
     3
100
AcDbCircle
 10
-50.0
 20
0.0
 30
0.0
 40
8.25
  0
ARC
  5
2CE
330
1F
100
AcDbEntity
  8
1
  6
Continuous
 62
     3
100
AcDbCircle
 10
56.43028554974586
 20
65.5
 30
0.0
 40
2.5
100
AcDbArc
 50
270.0
 51
333.256316049597
  0
ARC
  5
2CF
330
1F
100
AcDbEntity
  8
1
  6
Continuous
 62
     3
100
AcDbCircle
 10
56.43028554974588
 20
74.5
 30
0.0
 40
2.49999999999999
100
AcDbArc
 50
26.74368395040312
 51
90.0
  0
ARC
  5
2D0
330
1F
100
AcDbEntity
  8
1
  6
Continuous
 62
     3
100
AcDbCircle
 10
18.07914932838774
 20
65.0
 30
0.0
 40
1.0
100
AcDbArc
 50
180.0
 51
270.0
  0
ARC
  5
2D1
330
1F
100
AcDbEntity
  8
1
  6
Continuous
 62
     3
100
AcDbCircle
 10
18.07914932838774
 20
75.0
 30
0.0
 40
1.0
100
AcDbArc
 50
90.0
 51
180.0
  0
ARC
  5
2D2
330
1F
100
AcDbEntity
  8
1
  6
Continuous
 62
     3
100
AcDbCircle
 10
10.33137161448734
 20
65.0
 30
0.0
 40
1.0
100
AcDbArc
 50
270.0
 51
0.0
  0
ARC
  5
2D3
330
1F
100
AcDbEntity
  8
1
  6
Continuous
 62
     3
100
AcDbCircle
 10
10.33137161448734
 20
75.0
 30
0.0
 40
1.0
100
AcDbArc
 50
0.0
 51
90.0
  0
ARC
  5
2D4
330
1F
100
AcDbEntity
  8
1
  6
Continuous
 62
     3
100
AcDbCircle
 10
-9.5
 20
70.5
 30
0.0
 40
0.5
100
AcDbArc
 50
180.0
 51
270.0
  0
ARC
  5
2D5
330
1F
100
AcDbEntity
  8
1
  6
Continuous
 62
     3
100
AcDbCircle
 10
-6.48074069840786
 20
69.5
 30
0.0
 40
0.5000000000000006
100
AcDbArc
 50
4.41172578577118
 51
90.0
  0
ARC
  5
2D6
330
1F
100
AcDbEntity
  8
1
  6
Continuous
 62
     3
100
AcDbCircle
 10
-8.0
 20
74.0
 30
0.0
 40
2.0
100
AcDbArc
 50
90.0
 51
180.0
  0
ARC
  5
2D7
102
{ACAD_REACTORS
330
339
102
}
330
1F
100
AcDbEntity
  8
1
  6
Continuous
 62
     3
100
AcDbCircle
 10
23.64713180962711
 20
74.42496997985232
 30
0.0
 40
0.0750300201477859
100
AcDbArc
 50
30.80958048220198
 51
180.0
  0
ARC
  5
2D8
102
{ACAD_REACTORS
330
338
102
}
330
1F
100
AcDbEntity
  8
1
  6
Continuous
 62
     3
100
AcDbCircle
 10
20.55214347852618
 20
73.86404603761693
 30
0.0
 40
0.3001200805916255
100
AcDbArc
 50
90.0
 51
180.0
  0
ARC
  5
2D9
102
{ACAD_REACTORS
330
338
102
}
330
1F
100
AcDbEntity
  8
1
  6
Continuous
 62
     3
100
AcDbCircle
 10
20.55214347852618
 20
73.33883589658157
 30
0.0
 40
0.3001200805915083
100
AcDbArc
 50
180.0
 51
270.0
  0
ARC
  5
2DA
102
{ACAD_REACTORS
330
338
102
}
330
1F
100
AcDbEntity
  8
1
  6
Continuous
 62
     3
100
AcDbCircle
 10
22.87807410311113
 20
73.33883589658157
 30
0.0
 40
0.3001200805914408
100
AcDbArc
 50
270.0
 51
0.0
  0
ARC
  5
2DB
102
{ACAD_REACTORS
330
338
102
}
330
1F
100
AcDbEntity
  8
1
  6
Continuous
 62
     3
100
AcDbCircle
 10
22.87807410311113
 20
73.86404603761693
 30
0.0
 40
0.300120080591622
100
AcDbArc
 50
0.0
 51
90.0
  0
ARC
  5
2DC
102
{ACAD_REACTORS
330
33A
102
}
330
1F
100
AcDbEntity
  8
1
  6
Continuous
 62
     3
100
AcDbCircle
 10
22.87807410311113
 20
66.66116410341864
 30
0.0
 40
0.300120080591622
100
AcDbArc
 50
0.0
 51
90.0
  0
ARC
  5
2DD
102
{ACAD_REACTORS
330
33A
102
}
330
1F
100
AcDbEntity
  8
1
  6
Continuous
 62
     3
100
AcDbCircle
 10
22.87807410311113
 20
66.13595396238318
 30
0.0
 40
0.3001200805915261
100
AcDbArc
 50
270.0
 51
0.0
  0
ARC
  5
2DE
102
{ACAD_REACTORS
330
33A
102
}
330
1F
100
AcDbEntity
  8
1
  6
Continuous
 62
     3
100
AcDbCircle
 10
20.55214347852618
 20
66.13595396238318
 30
0.0
 40
0.3001200805915083
100
AcDbArc
 50
180.0
 51
270.0
  0
ARC
  5
2DF
102
{ACAD_REACTORS
330
33A
102
}
330
1F
100
AcDbEntity
  8
1
  6
Continuous
 62
     3
100
AcDbCircle
 10
20.55214347852618
 20
66.66116410341864
 30
0.0
 40
0.3001200805914408
100
AcDbArc
 50
90.0
 51
180.0
  0
ARC
  5
2E0
102
{ACAD_REACTORS
330
339
102
}
330
1F
100
AcDbEntity
  8
1
  6
Continuous
 62
     3
100
AcDbCircle
 10
24.20245614632129
 20
72.83938791445395
 30
0.0
 40
0.0937875251849363
100
AcDbArc
 50
19.23065317153132
 51
103.3924977537676
  0
ARC
  5
2E1
102
{ACAD_REACTORS
330
339
102
}
330
1F
100
AcDbEntity
  8
1
  6
Continuous
 62
     3
100
AcDbCircle
 10
23.64713180962711
 20
65.57503002014792
 30
0.0
 40
0.0750300201479277
100
AcDbArc
 50
180.0
 51
329.1904195176396
  0
ARC
  5
2E2
102
{ACAD_REACTORS
330
339
102
}
330
1F
100
AcDbEntity
  8
1
  6
Continuous
 62
     3
100
AcDbCircle
 10
24.20245614632129
 20
67.16061208554626
 30
0.0
 40
0.0937875251849475
100
AcDbArc
 50
256.6075022462344
 51
340.7693468285343
  0
ARC
  5
2E3
102
{ACAD_REACTORS
330
338
102
}
330
1F
100
AcDbEntity
  8
1
  6
Continuous
 62
     3
100
AcDbCircle
 10
22.67643092396364
 20
73.6624028584693
 30
0.0
 40
0.2813625755546596
100
AcDbArc
 50
0.0
 51
90.0
  0
ARC
  5
2E4
102
{ACAD_REACTORS
330
338
102
}
330
1F
100
AcDbEntity
  8
1
  6
Continuous
 62
     3
100
AcDbCircle
 10
22.67643092396364
 20
73.54047907572908
 30
0.0
 40
0.2813625755545814
100
AcDbArc
 50
270.0
 51
0.0
  0
ARC
  5
2E5
102
{ACAD_REACTORS
330
338
102
}
330
1F
100
AcDbEntity
  8
1
  6
Continuous
 62
     3
100
AcDbCircle
 10
20.75378665767378
 20
73.6624028584693
 30
0.0
 40
0.2813625755548941
100
AcDbArc
 50
90.0
 51
180.0
  0
ARC
  5
2E6
102
{ACAD_REACTORS
330
338
102
}
330
1F
100
AcDbEntity
  8
1
  6
Continuous
 62
     3
100
AcDbCircle
 10
20.75378665767378
 20
73.54047907572908
 30
0.0
 40
0.2813625755546276
100
AcDbArc
 50
180.0
 51
270.0
  0
ARC
  5
2E7
102
{ACAD_REACTORS
330
33A
102
}
330
1F
100
AcDbEntity
  8
1
  6
Continuous
 62
     3
100
AcDbCircle
 10
22.67643092396364
 20
66.45952092427113
 30
0.0
 40
0.2813625755546596
100
AcDbArc
 50
359.9999999999566
 51
90.0
  0
ARC
  5
2E8
102
{ACAD_REACTORS
330
33A
102
}
330
1F
100
AcDbEntity
  8
1
  6
Continuous
 62
     3
100
AcDbCircle
 10
22.67643092396364
 20
66.3375971415307
 30
0.0
 40
0.2813625755545672
100
AcDbArc
 50
270.0
 51
0.0
  0
ARC
  5
2E9
102
{ACAD_REACTORS
330
33A
102
}
330
1F
100
AcDbEntity
  8
1
  6
Continuous
 62
     3
100
AcDbCircle
 10
20.75378665767378
 20
66.45952092427113
 30
0.0
 40
0.2813625755544678
100
AcDbArc
 50
90.0
 51
180.0000000000434
  0
ARC
  5
2EA
102
{ACAD_REACTORS
330
33A
102
}
330
1F
100
AcDbEntity
  8
1
  6
Continuous
 62
     3
100
AcDbCircle
 10
20.75378665767378
 20
66.3375971415307
 30
0.0
 40
0.2813625755546276
100
AcDbArc
 50
180.0
 51
270.0
  0
ARC
  5
2EB
102
{ACAD_REACTORS
330
33A
102
}
330
1F
100
AcDbEntity
  8
1
  6
Continuous
 62
     3
100
AcDbCircle
 10
22.03819906737699
 20
66.60020221204832
 30
0.0
 40
0.140681287777511
100
AcDbArc
 50
90.0
 51
147.264773727841
  0
ARC
  5
2EC
102
{ACAD_REACTORS
330
33A
102
}
330
1F
100
AcDbEntity
  8
1
  6
Continuous
 62
     3
100
AcDbCircle
 10
21.1825150184748
 20
66.19691585375351
 30
0.0
 40
0.1406812877773831
100
AcDbArc
 50
270.0
 51
327.2196945237196
  0
ARC
  5
2ED
102
{ACAD_REACTORS
330
33A
102
}
330
1F
100
AcDbEntity
  8
1
  6
Continuous
 62
     3
100
AcDbCircle
 10
21.93415274409708
 20
66.79246663867757
 30
0.0
 40
0.1688175453326153
100
AcDbArc
 50
90.0
 51
147.2196945237753
  0
ARC
  5
2EE
102
{ACAD_REACTORS
330
33A
102
}
330
1F
100
AcDbEntity
  8
1
  6
Continuous
 62
     3
100
AcDbCircle
 10
21.28741019253335
 20
66.00465142712439
 30
0.0
 40
0.168817545332729
100
AcDbArc
 50
270.0
 51
327.2647737279266
  0
ARC
  5
2EF
330
1F
100
AcDbEntity
  8
1
  6
Continuous
 62
     3
100
AcDbCircle
 10
58.0
 20
33.0
 30
0.0
 40
2.0
100
AcDbArc
 50
270.0
 51
0.0
  0
ARC
  5
2F0
330
1F
100
AcDbEntity
  8
1
  6
Continuous
 62
     3
100
AcDbCircle
 10
58.0
 20
33.0
 30
0.0
 40
2.0
100
AcDbArc
 50
0.0
 51
89.9999999999998
  0
ARC
  5
2F1
330
1F
100
AcDbEntity
  8
1
  6
Continuous
 62
     3
100
AcDbCircle
 10
20.5801870194363
 20
30.0
 30
0.0
 40
5.0
100
AcDbArc
 50
90.00000000000009
 51
160.0000000000001
  0
ARC
  5
2F2
330
1F
100
AcDbEntity
  8
1
  6
Continuous
 62
     3
100
AcDbCircle
 10
20.5801870194363
 20
30.0
 30
0.0
 40
1.0
100
AcDbArc
 50
90.0
 51
160.0
  0
ARC
  5
2F3
330
1F
100
AcDbEntity
  8
1
  6
Continuous
 62
     3
100
AcDbCircle
 10
8.69916984716116
 20
14.9
 30
0.0
 40
4.0
100
AcDbArc
 50
270.0
 51
340.0000000000001
  0
ARC
  5
2F4
330
1F
100
AcDbEntity
  8
1
  6
Continuous
 62
     3
100
AcDbCircle
 10
8.69916984716116
 20
14.9
 30
0.0
 40
2.0
100
AcDbArc
 50
270.0000000000001
 51
339.9999999999999
  0
ARC
  5
2F5
330
1F
100
AcDbEntity
  8
1
  6
Continuous
 62
     3
100
AcDbCircle
 10
-4.2
 20
13.6
 30
0.0
 40
0.3000000000000007
100
AcDbArc
 50
90.0
 51
180.0
  0
ARC
  5
2F6
330
1F
100
AcDbEntity
  8
1
  6
Continuous
 62
     3
100
AcDbCircle
 10
-4.2
 20
13.2
 30
0.0
 40
0.2999999999999998
100
AcDbArc
 50
180.0
 51
270.0
  0
ARC
  5
2F7
330
1F
100
AcDbEntity
  8
1
  6
Continuous
 62
     3
100
AcDbCircle
 10
4.2
 20
13.2
 30
0.0
 40
0.2999999999999989
100
AcDbArc
 50
270.0
 51
0.0
  0
ARC
  5
2F8
330
1F
100
AcDbEntity
  8
1
  6
Continuous
 62
     3
100
AcDbCircle
 10
4.2
 20
13.6
 30
0.0
 40
0.2999999999999998
100
AcDbArc
 50
0.0
 51
90.0
  0
ARC
  5
2F9
330
1F
100
AcDbEntity
  8
1
  6
Continuous
 62
     3
100
AcDbCircle
 10
-45.8
 20
13.6
 30
0.0
 40
0.2999999999999972
100
AcDbArc
 50
0.0
 51
90.0
  0
ARC
  5
2FA
330
1F
100
AcDbEntity
  8
1
  6
Continuous
 62
     3
100
AcDbCircle
 10
-54.2
 20
13.2
 30
0.0
 40
0.2999999999999972
100
AcDbArc
 50
180.0
 51
270.0
  0
ARC
  5
2FB
330
1F
100
AcDbEntity
  8
1
  6
Continuous
 62
     3
100
AcDbCircle
 10
-54.2
 20
13.6
 30
0.0
 40
0.3000000000000007
100
AcDbArc
 50
90.0
 51
180.0
  0
ARC
  5
2FC
330
1F
100
AcDbEntity
  8
1
  6
Continuous
 62
     3
100
AcDbCircle
 10
-45.0
 20
33.0
 30
0.0
 40
2.0
100
AcDbArc
 50
0.0
 51
90.0
  0
ARC
  5
2FD
330
1F
100
AcDbEntity
  8
1
  6
Continuous
 62
     3
100
AcDbCircle
 10
-55.0
 20
33.0
 30
0.0
 40
2.0
100
AcDbArc
 50
90.0
 51
180.0
  0
ARC
  5
2FE
330
1F
100
AcDbEntity
  8
1
  6
Continuous
 62
     3
100
AcDbCircle
 10
-56.0
 20
14.35347439671639
 30
0.0
 40
1.0
100
AcDbArc
 50
180.0
 51
270.0
  0
ARC
  5
2FF
330
1F
100
AcDbEntity
  8
1
  6
Continuous
 62
     3
100
AcDbCircle
 10
-44.0
 20
14.35347439671639
 30
0.0
 40
1.000000000000009
100
AcDbArc
 50
301.3623766677561
 51
0.0
  0
ARC
  5
300
330
1F
100
AcDbEntity
  8
1
  6
Continuous
 62
     3
100
AcDbCircle
 10
-46.0
 20
15.41841941885777
 30
0.0
 40
2.0
100
AcDbArc
 50
0.0
 51
90.0
  0
ARC
  5
301
330
1F
100
AcDbEntity
  8
1
  6
Continuous
 62
     3
100
AcDbCircle
 10
-54.0
 20
15.41841941885777
 30
0.0
 40
2.0
100
AcDbArc
 50
90.0
 51
180.0
  0
ARC
  5
302
330
1F
100
AcDbEntity
  8
1
  6
Continuous
 62
     3
100
AcDbCircle
 10
-55.5
 20
12.4
 30
0.0
 40
0.5
100
AcDbArc
 50
90.0
 51
180.0
  0
ARC
  5
303
330
1F
100
AcDbEntity
  8
1
  6
Continuous
 62
     3
100
AcDbCircle
 10
-46.5
 20
13.0
 30
0.0
 40
0.5
100
AcDbArc
 50
90.0
 51
180.0
  0
ARC
  5
304
330
1F
100
AcDbEntity
  8
1
  6
Continuous
 62
     3
100
AcDbCircle
 10
-43.5
 20
13.0
 30
0.0
 40
0.5
100
AcDbArc
 50
0.0
 51
90.0
  0
ARC
  5
305
330
1F
100
AcDbEntity
  8
1
  6
Continuous
 62
     3
100
AcDbCircle
 10
-49.5
 20
13.0
 30
0.0
 40
0.5
100
AcDbArc
 50
90.0
 51
180.0
  0
ARC
  5
306
330
1F
100
AcDbEntity
  8
1
  6
Continuous
 62
     3
100
AcDbCircle
 10
11.07572765378061
 20
1.77756813566454
 30
0.0
 40
0.4999999999999988
100
AcDbArc
 50
12.72675917203363
 51
90.0
  0
ARC
  5
307
330
1F
100
AcDbEntity
  8
1
  6
Continuous
 62
     3
100
AcDbCircle
 10
-9.24152680181087
 20
1.77756813566454
 30
0.0
 40
0.5
100
AcDbArc
 50
90.0
 51
168.841191493307
  0
ARC
  5
308
330
1F
100
AcDbEntity
  8
1
  6
Continuous
 62
     3
100
AcDbCircle
 10
3.28867513459481
 20
2.77756813566454
 30
0.0
 40
0.5
100
AcDbArc
 50
210.0000000000002
 51
270.0
  0
ARC
  5
309
330
1F
100
AcDbEntity
  8
1
  6
Continuous
 62
     3
100
AcDbCircle
 10
2.21132486540518
 20
2.64359353944898
 30
0.0
 40
0.500000000000001
100
AcDbArc
 50
30.00000000000023
 51
90.0
  0
ARC
  5
30A
330
1F
100
AcDbEntity
  8
1
  6
Continuous
 62
     3
100
AcDbCircle
 10
-3.21132486540519
 20
2.64359353944898
 30
0.0
 40
0.5
100
AcDbArc
 50
90.0
 51
149.9999999999997
  0
ARC
  5
30B
330
1F
100
AcDbEntity
  8
1
  6
Continuous
 62
     3
100
AcDbCircle
 10
-4.28867513459482
 20
2.77756813566454
 30
0.0
 40
0.5
100
AcDbArc
 50
270.0
 51
329.9999999999998
  0
ARC
  5
30C
330
1F
100
AcDbEntity
  8
1
  6
Continuous
 62
     3
100
AcDbCircle
 10
-4.20710678118655
 20
-8.0
 30
0.0
 40
0.5
100
AcDbArc
 50
270.0000000000002
 51
314.9999999999997
  0
ARC
  5
30D
330
1F
100
AcDbEntity
  8
1
  6
Continuous
 62
     3
100
AcDbCircle
 10
-3.29289321881345
 20
-8.5
 30
0.0
 40
0.5
100
AcDbArc
 50
90.0
 51
134.9999999999998
  0
ARC
  5
30E
330
1F
100
AcDbEntity
  8
1
  6
Continuous
 62
     3
100
AcDbCircle
 10
2.29289321881345
 20
-8.5
 30
0.0
 40
0.5000000000000021
100
AcDbArc
 50
45.00000000000022
 51
90.0000000000001
  0
ARC
  5
30F
330
1F
100
AcDbEntity
  8
1
  6
Continuous
 62
     3
100
AcDbCircle
 10
3.20710678118655
 20
-8.0
 30
0.0
 40
0.5000000000000021
100
AcDbArc
 50
225.0000000000002
 51
270.0
  0
ARC
  5
310
330
1F
100
AcDbEntity
  8
1
  6
Continuous
 62
     3
100
AcDbCircle
 10
-13.0
 20
72.5
 30
0.0
 40
1.0
100
AcDbArc
 50
0.0
 51
90.0
  0
ARC
  5
311
330
1F
100
AcDbEntity
  8
1
  6
Continuous
 62
     3
100
AcDbCircle
 10
-13.0
 20
67.5
 30
0.0
 40
1.0
100
AcDbArc
 50
270.0
 51
0.0
  0
ARC
  5
312
330
1F
100
AcDbEntity
  8
1
  6
Continuous
 62
     3
100
AcDbCircle
 10
-16.0
 20
67.5
 30
0.0
 40
1.0
100
AcDbArc
 50
180.0
 51
270.0
  0
ARC
  5
313
330
1F
100
AcDbEntity
  8
1
  6
Continuous
 62
     3
100
AcDbCircle
 10
-16.0
 20
72.5
 30
0.0
 40
1.0
100
AcDbArc
 50
90.0
 51
180.0
  0
ARC
  5
314
330
1F
100
AcDbEntity
  8
1
  6
Continuous
 62
     3
100
AcDbCircle
 10
-10.5
 20
67.24264068711928
 30
0.0
 40
0.5
100
AcDbArc
 50
180.0
 51
230.4788036413563
  0
ARC
  5
315
330
1F
100
AcDbEntity
  8
1
  6
Continuous
 62
     3
100
AcDbCircle
 10
-8.52277442494832
 20
63.5
 30
0.0
 40
0.4999999999999989
100
AcDbArc
 50
185.2159085704543
 51
270.0
  0
ARC
  5
316
330
1F
100
AcDbEntity
  8
1
  6
Continuous
 62
     3
100
AcDbCircle
 10
-6.5
 20
63.5
 30
0.0
 40
0.5
100
AcDbArc
 50
270.0
 51
0.0
  0
ARC
  5
317
330
1F
100
AcDbEntity
  8
1
  6
Continuous
 62
     3
100
AcDbCircle
 10
-6.5
 20
66.25834261322606
 30
0.0
 40
0.5
100
AcDbArc
 50
0.0
 51
29.92643486661485
  0
ARC
  5
318
330
1F
100
AcDbEntity
  8
1
  6
Continuous
 62
     3
100
AcDbCircle
 10
-7.48331477354785
 20
69.5
 30
0.0
 40
0.5000000000000002
100
AcDbArc
 50
3.82255372927413
 51
90.0
  0
ARC
  5
319
330
1F
100
AcDbEntity
  8
1
  6
Continuous
 62
     3
100
AcDbCircle
 10
-10.5
 20
69.5
 30
0.0
 40
0.5
100
AcDbArc
 50
90.0
 51
180.0
  0
ARC
  5
31A
330
1F
100
AcDbEntity
  8
1
  6
Continuous
 62
     3
100
AcDbCircle
 10
12.34786451314966
 20
60.68504542377636
 30
0.0
 40
0.4999999999999995
100
AcDbArc
 50
210.0
 51
270.0
  0
ARC
  5
31B
330
1F
100
AcDbEntity
  8
1
  6
Continuous
 62
     3
100
AcDbCircle
 10
11.01132486540519
 20
61.0
 30
0.0
 40
0.500000000000001
100
AcDbArc
 50
29.99999999999993
 51
90.0
  0
ARC
  5
31C
330
1F
100
AcDbEntity
  8
1
  6
Continuous
 62
     3
100
AcDbCircle
 10
11.01132486540519
 20
79.0
 30
0.0
 40
0.5
100
AcDbArc
 50
270.0
 51
330.0000000000001
  0
ARC
  5
31D
330
1F
100
AcDbEntity
  8
1
  6
Continuous
 62
     3
100
AcDbCircle
 10
12.34786451314966
 20
79.31495457622364
 30
0.0
 40
0.5
100
AcDbArc
 50
90.0
 51
149.9999999999995
  0
ARC
  5
31E
330
1F
100
AcDbEntity
  8
1
  6
Continuous
 62
     3
100
AcDbCircle
 10
3.20710678118655
 20
62.0
 30
0.0
 40
0.5000000000000021
100
AcDbArc
 50
225.0000000000002
 51
270.0
  0
ARC
  5
31F
330
1F
100
AcDbEntity
  8
1
  6
Continuous
 62
     3
100
AcDbCircle
 10
2.29289321881345
 20
61.5
 30
0.0
 40
0.5000000000000021
100
AcDbArc
 50
45.00000000000022
 51
90.0000000000001
  0
ARC
  5
320
330
1F
100
AcDbEntity
  8
1
  6
Continuous
 62
     3
100
AcDbCircle
 10
-3.29289321881345
 20
61.5
 30
0.0
 40
0.5
100
AcDbArc
 50
90.0
 51
134.9999999999998
  0
ARC
  5
321
330
1F
100
AcDbEntity
  8
1
  6
Continuous
 62
     3
100
AcDbCircle
 10
-4.20710678118655
 20
62.0
 30
0.0
 40
0.5
100
AcDbArc
 50
270.0000000000002
 51
314.9999999999997
  0
ARC
  5
322
330
1F
100
AcDbEntity
  8
1
  6
Continuous
 62
     3
100
AcDbCircle
 10
3.20710678118655
 20
78.0
 30
0.0
 40
0.5
100
AcDbArc
 50
90.0000000000001
 51
134.9999999999998
  0
ARC
  5
323
330
1F
100
AcDbEntity
  8
1
  6
Continuous
 62
     3
100
AcDbCircle
 10
2.29289321881345
 20
78.5
 30
0.0
 40
0.5
100
AcDbArc
 50
270.0
 51
314.9999999999998
  0
ARC
  5
324
330
1F
100
AcDbEntity
  8
1
  6
Continuous
 62
     3
100
AcDbCircle
 10
-3.29289321881345
 20
78.5
 30
0.0
 40
0.5000000000000021
100
AcDbArc
 50
225.0000000000002
 51
270.0
  0
ARC
  5
325
330
1F
100
AcDbEntity
  8
1
  6
Continuous
 62
     3
100
AcDbCircle
 10
-4.20710678118655
 20
78.0
 30
0.0
 40
0.5000000000000021
100
AcDbArc
 50
45.00000000000022
 51
90.0
  0
ARC
  5
326
330
1F
100
AcDbEntity
  8
1
  6
Continuous
 62
     3
100
AcDbCircle
 10
-10.54786451314967
 20
60.68504542377634
 30
0.0
 40
0.5
100
AcDbArc
 50
270.0
 51
330.0000000000001
  0
ARC
  5
327
330
1F
100
AcDbEntity
  8
1
  6
Continuous
 62
     3
100
AcDbCircle
 10
-9.21132486540519
 20
60.99999999999999
 30
0.0
 40
0.5
100
AcDbArc
 50
90.0000000000002
 51
150.0
  0
ARC
  5
328
330
1F
100
AcDbEntity
  8
1
  6
Continuous
 62
     3
100
AcDbCircle
 10
-9.21132486540519
 20
79.0
 30
0.0
 40
0.4999999999999995
100
AcDbArc
 50
210.0
 51
270.0
  0
ARC
  5
329
330
1F
100
AcDbEntity
  8
1
  6
Continuous
 62
     3
100
AcDbCircle
 10
-10.54786451314967
 20
79.31495457622364
 30
0.0
 40
0.500000000000001
100
AcDbArc
 50
29.99999999999993
 51
89.99999999999878
  0
ARC
  5
32A
330
1F
100
AcDbEntity
  8
1
  6
Continuous
 62
     3
100
AcDbCircle
 10
-10.5
 20
13.0
 30
0.0
 40
0.5
100
AcDbArc
 50
90.0
 51
180.0
  0
ARC
  5
32B
330
1F
100
AcDbEntity
  8
1
  6
Continuous
 62
     3
100
AcDbCircle
 10
-8.5
 20
13.0
 30
0.0
 40
0.5
100
AcDbArc
 50
90.0
 51
180.0
  0
ARC
  5
32C
330
1F
100
AcDbEntity
  8
1
  6
Continuous
 62
     3
100
AcDbCircle
 10
-6.5
 20
13.0
 30
0.0
 40
0.5
100
AcDbArc
 50
0.0
 51
90.0
  0
ARC
  5
32D
330
1F
100
AcDbEntity
  8
1
  6
Continuous
 62
     3
100
AcDbCircle
 10
-9.85202142182122
 20
8.0
 30
0.0
 40
0.5000000000000011
100
AcDbArc
 50
12.85681998563062
 51
90.0
  0
ARC
  5
32E
330
1F
100
AcDbEntity
  8
1
  6
Continuous
 62
     3
100
AcDbCircle
 10
-6.5
 20
5.37564434701786
 30
0.0
 40
0.5
100
AcDbArc
 50
270.0
 51
0.0
  0
ARC
  5
32F
330
1F
100
AcDbEntity
  8
1
  6
Continuous
 62
     3
100
AcDbCircle
 10
-8.50831287419645
 20
5.37564434701786
 30
0.0
 40
0.5000000000000019
100
AcDbArc
 50
181.9049949178754
 51
270.0
  0
HATCH
  5
330
330
1F
100
AcDbEntity
  8
1
  6
Continuous
 62
     4
100
AcDbHatch
 10
0.0
 20
0.0
 30
0.0
210
0.0
220
0.0
230
1.0
  2
_USER
 70
     0
 71
     1
 91
        2
 92
        1
 93
        8
 72
     1
 10
50.57788683176973
 20
69.00371079538982
 11
49.38233978623735
 21
70.9962892046102
 72
     1
 10
49.38233978623735
 20
70.9962892046102
 11
48.24140179763794
 21
70.9962892046102
 72
     1
 10
48.24140179763794
 20
70.9962892046102
 11
46.94622583164469
 21
69.00371079538982
 72
     1
 10
46.94622583164469
 20
69.00371079538982
 11
47.50817206728869
 21
69.00371079538982
 72
     1
 10
47.50817206728869
 20
69.00371079538982
 11
47.77739147164261
 21
69.40222647723387
 72
     1
 10
47.77739147164261
 20
69.40222647723387
 11
49.48608191467225
 21
69.40222647723387
 72
     1
 10
49.48608191467225
 20
69.40222647723387
 11
49.7255273831093
 21
69.00371079538982
 72
     1
 10
49.7255273831093
 20
69.00371079538982
 11
50.57788683176973
 21
69.00371079538982
 97
        8
330
9F
330
A6
330
A5
330
A7
330
A9
330
A0
330
A3
330
A4
 92
       16
 93
        3
 72
     1
 10
48.01295845045241
 20
69.75092769884735
 11
48.68174451016422
 21
70.74090735218357
 72
     1
 10
48.68174451016422
 20
70.74090735218357
 11
49.27656712978979
 21
69.75092769884735
 72
     1
 10
49.27656712978979
 20
69.75092769884735
 11
48.01295845045241
 21
69.75092769884735
 97
        3
330
A8
330
A1
330
A2
 75
     1
 76
     0
 52
90.00000000000001
 41
0.1
 77
     0
 78
     1
 53
90.00000000000001
 43
0.0
 44
0.0
 45
-0.1
 46
0.0
 79
     0
 98
        1
 10
0.0
 20
0.0
  0
HATCH
  5
331
330
1F
100
AcDbEntity
  8
1
  6
Continuous
 62
     4
100
AcDbHatch
 10
0.0
 20
0.0
 30
0.0
210
0.0
220
0.0
230
1.0
  2
_USER
 70
     0
 71
     1
 91
        2
 92
        1
 93
        8
 72
     1
 10
42.4083153539651
 20
69.00371079538982
 11
41.21276830843264
 21
70.9962892046102
 72
     1
 10
41.21276830843264
 20
70.9962892046102
 11
40.0718303198334
 21
70.9962892046102
 72
     1
 10
40.0718303198334
 20
70.9962892046102
 11
38.77665435384018
 21
69.00371079538982
 72
     1
 10
38.77665435384018
 20
69.00371079538982
 11
39.3386005894841
 21
69.00371079538982
 72
     1
 10
39.3386005894841
 20
69.00371079538982
 11
39.60781999383818
 21
69.40222647723387
 72
     1
 10
39.60781999383818
 20
69.40222647723387
 11
41.31651043686777
 21
69.40222647723387
 72
     1
 10
41.31651043686777
 20
69.40222647723387
 11
41.55595590530482
 21
69.00371079538982
 72
     1
 10
41.55595590530482
 20
69.00371079538982
 11
42.4083153539651
 21
69.00371079538982
 97
        8
330
AA
330
B6
330
B5
330
B7
330
C0
330
AC
330
AF
330
B0
 92
       16
 93
        3
 72
     1
 10
39.84338697264793
 20
69.75092769884735
 11
40.51217303235973
 21
70.74090735218357
 72
     1
 10
40.51217303235973
 20
70.74090735218357
 11
41.10699565198519
 21
69.75092769884735
 72
     1
 10
41.10699565198519
 20
69.75092769884735
 11
39.84338697264793
 21
69.75092769884735
 97
        3
330
BF
330
AD
330
AE
 75
     1
 76
     0
 52
90.00000000000001
 41
0.1
 77
     0
 78
     1
 53
90.00000000000001
 43
0.0
 44
0.0
 45
-0.1
 46
0.0
 79
     0
 98
        1
 10
0.0
 20
0.0
  0
HATCH
  5
332
330
1F
100
AcDbEntity
  8
1
  6
Continuous
 62
     4
100
AcDbHatch
 10
0.0
 20
0.0
 30
0.0
210
0.0
220
0.0
230
1.0
  2
_USER
 70
     0
 71
     1
 91
        1
 92
        1
 93
       13
 72
     1
 10
46.5038708500311
 20
69.00371079538982
 11
45.65976900542078
 21
69.00371079538982
 72
     1
 10
45.65976900542078
 20
69.00371079538982
 11
45.65976900542078
 21
70.44833014207478
 72
     1
 10
45.65976900542078
 20
70.44833014207478
 11
44.92581120657238
 21
69.00371079538982
 72
     1
 10
44.92581120657238
 20
69.00371079538982
 11
44.18669800608752
 21
69.00371079538982
 72
     1
 10
44.18669800608752
 20
69.00371079538982
 11
43.40068001550851
 21
70.44833014207478
 72
     1
 10
43.40068001550851
 20
70.44833014207478
 11
43.40068001550851
 21
69.00371079538982
 72
     1
 10
43.40068001550851
 20
69.00371079538982
 11
42.85546493228134
 21
69.00371079538982
 72
     1
 10
42.85546493228134
 20
69.00371079538982
 11
42.85546493228134
 21
70.9962892046102
 72
     1
 10
42.85546493228134
 20
70.9962892046102
 11
44.08075428846025
 21
70.9962892046102
 72
     1
 10
44.08075428846025
 20
70.9962892046102
 11
44.68149953545265
 21
69.75092769884735
 72
     1
 10
44.68149953545265
 20
69.75092769884735
 11
45.23815338817241
 21
70.9962892046102
 72
     1
 10
45.23815338817241
 20
70.9962892046102
 11
46.5038708500311
 21
70.9962892046102
 72
     1
 10
46.5038708500311
 20
70.9962892046102
 11
46.5038708500311
 21
69.00371079538982
 97
       13
330
C6
330
C5
330
C4
330
B2
330
B3
330
B1
330
BA
330
C3
330
C2
330
C1
330
B8
330
B9
330
AB
 75
     1
 76
     0
 52
90.00000000000001
 41
0.1
 77
     0
 78
     1
 53
90.00000000000001
 43
0.0
 44
0.0
 45
-0.1
 46
0.0
 79
     0
 98
        1
 10
0.0
 20
0.0
  0
HATCH
  5
333
330
1F
100
AcDbEntity
  8
1
  6
Continuous
 62
     4
100
AcDbHatch
 10
0.0
 20
0.0
 30
0.0
210
0.0
220
0.0
230
1.0
  2
_USER
 70
     0
 71
     1
 91
        1
 92
        1
 93
        4
 72
     1
 10
51.78145408684825
 20
69.00371079538982
 11
51.04856608223768
 21
69.00371079538982
 72
     1
 10
51.04856608223768
 20
69.00371079538982
 11
51.04856608223768
 21
70.55393422299676
 72
     1
 10
51.04856608223768
 20
70.55393422299676
 11
51.78145408684825
 21
70.55393422299676
 72
     1
 10
51.78145408684825
 20
70.55393422299676
 11
51.78145408684825
 21
69.00371079538982
 97
        4
330
9E
330
9D
330
C7
330
9C
 75
     1
 76
     0
 52
90.00000000000001
 41
0.1
 77
     0
 78
     1
 53
90.00000000000001
 43
0.0
 44
0.0
 45
-0.1
 46
0.0
 79
     0
 98
        1
 10
0.0
 20
0.0
  0
HATCH
  5
334
330
1F
100
AcDbEntity
  8
1
  6
Continuous
 62
     4
100
AcDbHatch
 10
0.0
 20
0.0
 30
0.0
210
0.0
220
0.0
230
1.0
  2
_USER
 70
     0
 71
     1
 91
        1
 92
        1
 93
        4
 72
     1
 10
30.32898043793458
 20
71.84
 11
30.32898043793458
 21
68.0
 72
     1
 10
30.32898043793458
 20
68.0
 11
31.67525323793451
 21
68.0
 72
     1
 10
31.67525323793451
 20
68.0
 11
31.67525323793451
 21
71.84
 72
     1
 10
31.67525323793451
 20
71.84
 11
30.32898043793458
 21
71.84
 97
        4
330
D1
330
CF
330
D0
330
CE
 75
     1
 76
     0
 52
90.00000000000001
 41
0.1
 77
     0
 78
     1
 53
90.00000000000001
 43
0.0
 44
0.0
 45
-0.1
 46
0.0
 79
     0
 98
        1
 10
0.0
 20
0.0
  0
HATCH
  5
335
330
1F
100
AcDbEntity
  8
1
  6
Continuous
 62
     4
100
AcDbHatch
 10
0.0
 20
0.0
 30
0.0
210
0.0
220
0.0
230
1.0
  2
_USER
 70
     0
 71
     1
 91
        1
 92
        1
 93
       12
 72
     1
 10
36.17477840254509
 20
70.9962892046102
 11
36.17477840254509
 21
70.17883198115257
 72
     1
 10
36.17477840254509
 20
70.17883198115257
 11
37.53409772761629
 21
70.17883198115257
 72
     1
 10
37.53409772761629
 20
70.17883198115257
 11
37.53409772761629
 21
70.9962892046102
 72
     1
 10
37.53409772761629
 20
70.9962892046102
 11
38.39868633222645
 21
70.9962892046102
 72
     1
 10
38.39868633222645
 20
70.9962892046102
 11
38.39868633222645
 21
69.00371079538982
 72
     1
 10
38.39868633222645
 20
69.00371079538982
 11
37.53409772761629
 21
69.00371079538982
 72
     1
 10
37.53409772761629
 20
69.00371079538982
 11
37.53409772761629
 21
69.82116801884726
 72
     1
 10
37.53409772761629
 20
69.82116801884726
 11
36.17477840254509
 21
69.82116801884726
 72
     1
 10
36.17477840254509
 20
69.82116801884726
 11
36.17477840254509
 21
69.00371079538982
 72
     1
 10
36.17477840254509
 20
69.00371079538982
 11
35.31018979793468
 21
69.00371079538982
 72
     1
 10
35.31018979793468
 20
69.00371079538982
 11
35.31018979793468
 21
70.9962892046102
 72
     1
 10
35.31018979793468
 20
70.9962892046102
 11
36.17477840254509
 21
70.9962892046102
 97
       12
330
C9
330
CA
330
BE
330
BB
330
B4
330
BC
330
BD
330
CB
330
C8
330
CC
330
D6
330
CD
 75
     1
 76
     0
 52
90.00000000000001
 41
0.1
 77
     0
 78
     1
 53
90.00000000000001
 43
0.0
 44
0.0
 45
-0.1
 46
0.0
 79
     0
 98
        1
 10
0.0
 20
0.0
  0
HATCH
  5
336
330
1F
100
AcDbEntity
  8
1
  6
Continuous
 62
     4
100
AcDbHatch
 10
0.0
 20
0.0
 30
0.0
210
0.0
220
0.0
230
1.0
  2
_USER
 70
     0
 71
     1
 91
        1
 92
        1
 93
        4
 72
     1
 10
29.39829619793472
 20
71.84
 11
29.39829619793472
 21
68.0
 72
     1
 10
29.39829619793472
 20
68.0
 11
28.05202339793468
 21
68.0
 72
     1
 10
28.05202339793468
 20
68.0
 11
28.05202339793468
 21
71.84
 72
     1
 10
28.05202339793468
 20
71.84
 11
29.39829619793472
 21
71.84
 97
        4
330
D2
330
D7
330
D9
330
D8
 75
     1
 76
     0
 52
90.00000000000001
 41
0.1
 77
     0
 78
     1
 53
90.00000000000001
 43
0.0
 44
0.0
 45
-0.1
 46
0.0
 79
     0
 98
        1
 10
0.0
 20
0.0
  0
HATCH
  5
337
330
1F
100
AcDbEntity
  8
1
  6
Continuous
 62
     4
100
AcDbHatch
 10
0.0
 20
0.0
 30
0.0
210
0.0
220
0.0
230
1.0
  2
_USER
 70
     0
 71
     1
 91
        1
 92
        1
 93
        4
 72
     1
 10
33.95221027793469
 20
71.84
 11
33.95221027793469
 21
68.0
 72
     1
 10
33.95221027793469
 20
68.0
 11
32.60593747793451
 21
68.0
 72
     1
 10
32.60593747793451
 20
68.0
 11
32.60593747793451
 21
71.84
 72
     1
 10
32.60593747793451
 20
71.84
 11
33.95221027793469
 21
71.84
 97
        4
330
DA
330
D4
330
D3
330
D5
 75
     1
 76
     0
 52
90.00000000000001
 41
0.1
 77
     0
 78
     1
 53
90.00000000000001
 43
0.0
 44
0.0
 45
-0.1
 46
0.0
 79
     0
 98
        1
 10
0.0
 20
0.0
  0
HATCH
  5
338
330
1F
100
AcDbEntity
  8
1
  6
Continuous
 62
     4
100
AcDbHatch
 10
0.0
 20
0.0
 30
0.0
210
0.0
220
0.0
230
1.0
  2
_USER
 70
     0
 71
     1
 91
        2
 92
        1
 93
        8
 72
     1
 10
23.17819418370275
 20
73.86404603761693
 11
23.17819418370275
 21
73.33883589658157
 72
     2
 10
22.87807410311113
 20
73.33883589658157
 40
0.3001200805914408
 50
0.0
 51
90.0
 73
     0
 72
     1
 10
22.87807410311113
 20
73.03871581599013
 11
20.55214347852618
 21
73.03871581599013
 72
     2
 10
20.55214347852618
 20
73.33883589658157
 40
0.3001200805915083
 50
90.0
 51
180.0
 73
     0
 72
     1
 10
20.25202339793467
 20
73.33883589658157
 11
20.25202339793467
 21
73.86404603761693
 72
     2
 10
20.55214347852618
 20
73.86404603761693
 40
0.3001200805916255
 50
180.0
 51
270.0
 73
     0
 72
     1
 10
20.55214347852618
 20
74.16416611820856
 11
22.87807410311113
 21
74.16416611820856
 72
     2
 10
22.87807410311113
 20
73.86404603761693
 40
0.300120080591622
 50
270.0
 51
360.0
 73
     0
 97
        8
330
DF
330
2DA
330
DE
330
2D9
330
DD
330
2D8
330
DC
330
2DB
 92
       16
 93
        8
 72
     1
 10
22.9577934995183
 20
73.6624028584693
 11
22.9577934995183
 21
73.54047907572908
 72
     2
 10
22.67643092396364
 20
73.54047907572908
 40
0.2813625755545814
 50
0.0
 51
90.0
 73
     0
 72
     1
 10
22.67643092396364
 20
73.2591165001745
 11
20.75378665767378
 21
73.2591165001745
 72
     2
 10
20.75378665767378
 20
73.54047907572908
 40
0.2813625755546276
 50
90.0
 51
180.0
 73
     0
 72
     1
 10
20.47242408211915
 20
73.54047907572908
 11
20.47242408211915
 21
73.6624028584693
 72
     2
 10
20.75378665767378
 20
73.6624028584693
 40
0.2813625755548941
 50
180.0
 51
270.0
 73
     0
 72
     1
 10
20.75378665767378
 20
73.9437654340242
 11
22.67643092396364
 21
73.9437654340242
 72
     2
 10
22.67643092396364
 20
73.6624028584693
 40
0.2813625755546596
 50
270.0
 51
360.0
 73
     0
 97
        8
330
E7
330
2E4
330
E6
330
2E6
330
E8
330
2E5
330
E5
330
2E3
 75
     1
 76
     0
 52
90.00000000000001
 41
0.1
 77
     0
 78
     1
 53
90.00000000000001
 43
0.0
 44
0.0
 45
-0.1
 46
0.0
 79
     0
 98
        1
 10
0.0
 20
0.0
  0
HATCH
  5
339
330
1F
100
AcDbEntity
  8
1
  6
Continuous
 62
     4
100
AcDbHatch
 10
0.0
 20
0.0
 30
0.0
210
0.0
220
0.0
230
1.0
  2
_USER
 70
     0
 71
     1
 91
        1
 92
        1
 93
       12
 72
     2
 10
23.64713180962711
 20
74.42496997985232
 40
0.0750300201477859
 50
30.80958048220198
 51
180.0
 73
     1
 72
     1
 10
23.57210178947918
 20
74.42496997985232
 11
23.76102136064765
 21
72.83069365190039
 72
     1
 10
23.76102136064765
 20
72.83069365190039
 11
24.1807330302832
 21
72.93062500181381
 72
     2
 10
24.20245614632129
 20
72.83938791445395
 40
0.0937875251849363
 50
256.6075022462324
 51
340.7693468284687
 73
     0
 72
     2
 10
16.06286868568726
 20
70.0
 40
8.71440280241756
 50
340.7693468285391
 51
360.0
 73
     0
 72
     2
 10
16.06286868568726
 20
70.0
 40
8.714402802417533
 50
0.0
 51
19.2306531714588
 73
     0
 72
     2
 10
24.20245614632129
 20
67.16061208554626
 40
0.0937875251849475
 50
19.23065317146573
 51
103.3924977537656
 73
     0
 72
     1
 10
24.1807330302832
 20
67.06937499818639
 11
23.77228576380427
 21
67.166624347348
 72
     1
 10
23.77228576380427
 20
67.166624347348
 11
23.57210178947918
 21
65.57503002014792
 72
     2
 10
23.64713180962711
 20
65.57503002014792
 40
0.0750300201479277
 50
180.0
 51
329.1904195176396
 73
     1
 72
     2
 10
16.22699685476074
 20
70.0
 40
8.714402802417572
 50
329.1904195177755
 51
360.0
 73
     1
 72
     2
 10
16.22699685476074
 20
70.0
 40
8.71440280241773
 50
0.0
 51
30.8095804822245
 73
     1
 97
       12
330
29A
330
2E1
330
F7
330
E4
330
2E2
330
29B
330
299
330
2E0
330
DB
330
F6
330
2D7
330
298
 75
     1
 76
     0
 52
90.00000000000001
 41
0.1
 77
     0
 78
     1
 53
90.00000000000001
 43
0.0
 44
0.0
 45
-0.1
 46
0.0
 79
     0
 98
        1
 10
0.0
 20
0.0
  0
HATCH
  5
33A
330
1F
100
AcDbEntity
  8
1
  6
Continuous
 62
     4
100
AcDbHatch
 10
0.0
 20
0.0
 30
0.0
210
0.0
220
0.0
230
1.0
  2
_USER
 70
     0
 71
     1
 91
        1
 92
        1
 93
       29
 72
     1
 10
23.17819418370275
 20
66.66116410341864
 11
23.17819418370275
 21
66.13595396238318
 72
     2
 10
22.87807410311113
 20
66.13595396238318
 40
0.3001200805915261
 50
0.0
 51
90.0
 73
     0
 72
     1
 10
22.87807410311113
 20
65.83583388179166
 11
22.16657012099066
 21
65.83583388179166
 72
     1
 10
22.16657012099066
 20
65.83583388179166
 11
22.16657012099066
 21
66.05623456597613
 72
     1
 10
22.16657012099066
 20
66.05623456597613
 11
22.67643092396364
 21
66.05623456597613
 72
     2
 10
22.67643092396364
 20
66.3375971415307
 40
0.2813625755545672
 50
270.0
 51
360.0
 73
     1
 72
     1
 10
22.9577934995183
 20
66.3375971415307
 11
22.9577934995183
 21
66.45952092427092
 72
     2
 10
22.67643092396364
 20
66.45952092427113
 40
0.2813625755546596
 50
359.9999999999566
 51
450.0
 73
     1
 72
     1
 10
22.67643092396364
 20
66.7408834998256
 11
22.03819906737699
 21
66.74088349982583
 72
     2
 10
22.03819906737699
 20
66.60020221204832
 40
0.140681287777511
 50
90.0
 51
147.264773727841
 73
     1
 72
     1
 10
21.91986099621031
 20
66.6762766863699
 11
21.42941587793312
 21
65.91336205793894
 72
     2
 10
21.28741019253335
 20
66.00465142712439
 40
0.168817545332729
 50
32.73522627207335
 51
90.0
 73
     0
 72
     1
 10
21.28741019253335
 20
65.83583388179166
 11
20.55214347852618
 21
65.83583388179166
 72
     2
 10
20.55214347852618
 20
66.13595396238318
 40
0.3001200805915083
 50
90.0
 51
180.0
 73
     0
 72
     1
 10
20.25202339793467
 20
66.13595396238318
 11
20.25202339793467
 21
66.66116410341864
 72
     2
 10
20.55214347852618
 20
66.66116410341864
 40
0.3001200805914408
 50
180.0
 51
270.0
 73
     0
 72
     1
 10
20.55214347852618
 20
66.96128418401008
 11
21.21809982735673
 21
66.96128418401018
 72
     1
 10
21.21809982735673
 20
66.96128418401018
 11
21.21809982735673
 21
66.74088349982583
 72
     1
 10
21.21809982735673
 20
66.74088349982583
 11
20.75378665767378
 21
66.7408834998256
 72
     2
 10
20.75378665767378
 20
66.45952092427113
 40
0.2813625755544678
 50
90.0
 51
180.0000000000434
 73
     1
 72
     1
 10
20.47242408211915
 20
66.45952092427092
 11
20.47242408211915
 21
66.3375971415307
 72
     2
 10
20.75378665767378
 20
66.3375971415307
 40
0.2813625755546276
 50
180.0
 51
270.0
 73
     1
 72
     1
 10
20.75378665767378
 20
66.05623456597613
 11
21.1825150184748
 21
66.05623456597613
 72
     2
 10
21.1825150184748
 20
66.19691585375351
 40
0.1406812877773831
 50
270.0
 51
327.2196945237196
 73
     1
 72
     1
 10
21.30079319910477
 20
66.12074829689651
 11
21.79221892734109
 21
66.88386770690579
 72
     2
 10
21.93415274409708
 20
66.79246663867757
 40
0.1688175453326153
 50
212.7803054762247
 51
270.0
 73
     0
 72
     1
 10
21.93415274409708
 20
66.96128418401018
 11
21.93523222786903
 21
66.96128418401018
 72
     1
 10
21.93523222786903
 20
66.96128418401018
 11
22.87807410311113
 21
66.96128418401008
 72
     2
 10
22.87807410311113
 20
66.66116410341864
 40
0.300120080591622
 50
270.0
 51
360.0
 73
     0
 97
       29
330
E2
330
2DD
330
F5
330
F4
330
EA
330
2E8
330
EB
330
2E7
330
EE
330
2EB
330
ED
330
2EE
330
F0
330
2DE
330
E1
330
2DF
330
E0
330
F3
330
E9
330
2E9
330
EC
330
2EA
330
EF
330
2EC
330
F2
330
2ED
330
F1
330
E3
330
2DC
 75
     1
 76
     0
 52
90.00000000000001
 41
0.1
 77
     0
 78
     1
 53
90.00000000000001
 43
0.0
 44
0.0
 45
-0.1
 46
0.0
 79
     0
 98
        1
 10
0.0
 20
0.0
  0
HATCH
  5
33B
330
1F
100
AcDbEntity
  8
1
  6
Continuous
 62
     4
100
AcDbHatch
 10
0.0
 20
0.0
 30
0.0
210
0.0
220
0.0
230
1.0
  2
_USER
 70
     0
 71
     1
 91
        1
 92
        1
 93
        1
 72
     2
 10
51.41536883573017
 20
71.64829442519402
 40
0.5846311642698261
 50
0.0
 51
360.0
 73
     1
 97
        1
330
2C5
 75
     1
 76
     0
 52
90.00000000000001
 41
0.1
 77
     0
 78
     1
 53
90.00000000000001
 43
0.0
 44
0.0
 45
-0.1
 46
0.0
 79
     0
 98
        1
 10
0.0
 20
0.0
  0
ENDSEC
  0
SECTION
  2
OBJECTS
  0
DICTIONARY
  5
C
330
0
100
AcDbDictionary
281
     1
  3
ACAD_GROUP
350
D
  3
ACAD_LAYOUT
350
1A
  3
ACAD_MATERIAL
350
43
  3
ACAD_MLEADERSTYLE
350
33E
  3
ACAD_MLINESTYLE
350
17
  3
ACAD_PLOTSETTINGS
350
19
  3
ACAD_PLOTSTYLENAME
350
E
  3
ACAD_SCALELIST
350
47
  3
ACAD_VISUALSTYLE
350
2A
  3
AcDbVariableDictionary
350
33C
  0
DICTIONARY
  5
D
102
{ACAD_REACTORS
330
C
102
}
330
C
100
AcDbDictionary
281
     1
  0
DICTIONARY
  5
1A
102
{ACAD_REACTORS
330
C
102
}
330
C
100
AcDbDictionary
281
     1
  3
Layout1
350
1E
  3
Layout2
350
26
  3
Model
350
22
  0
DICTIONARY
  5
43
102
{ACAD_REACTORS
330
C
102
}
330
C
100
AcDbDictionary
281
     1
  3
ByBlock
350
45
  3
ByLayer
350
44
  3
Global
350
46
  0
DICTIONARY
  5
33E
102
{ACAD_REACTORS
330
C
102
}
330
C
100
AcDbDictionary
281
     1
  0
DICTIONARY
  5
17
102
{ACAD_REACTORS
330
C
102
}
330
C
100
AcDbDictionary
281
     1
  3
Standard
350
18
  0
DICTIONARY
  5
19
102
{ACAD_REACTORS
330
C
102
}
330
C
100
AcDbDictionary
281
     1
  0
ACDBDICTIONARYWDFLT
  5
E
102
{ACAD_REACTORS
330
C
102
}
330
C
100
AcDbDictionary
281
     1
  3
Normal
350
F
100
AcDbDictionaryWithDefault
340
F
  0
DICTIONARY
  5
47
102
{ACAD_REACTORS
330
C
102
}
330
C
100
AcDbDictionary
281
     1
  3
A0
350
48
  3
A1
350
49
  3
A2
350
4A
  3
A3
350
4B
  3
A4
350
4C
  3
A5
350
4D
  3
A6
350
4E
  3
A7
350
4F
  3
A8
350
50
  3
A9
350
51
  3
B0
350
52
  3
B1
350
53
  3
B2
350
54
  3
B3
350
55
  3
B4
350
56
  3
B5
350
57
  3
B6
350
58
  3
B7
350
59
  3
B8
350
5A
  3
B9
350
5B
  3
C0
350
5C
  3
C1
350
5D
  3
C2
350
5E
  3
C3
350
5F
  3
C4
350
60
  3
C5
350
61
  3
C6
350
62
  3
C7
350
63
  3
C8
350
64
  3
C9
350
65
  3
D0
350
66
  3
D1
350
67
  3
D2
350
68
  0
DICTIONARY
  5
2A
102
{ACAD_REACTORS
330
C
102
}
330
C
100
AcDbDictionary
281
     1
  3
2dWireframe
350
2F
  3
Basic
350
32
  3
Brighten
350
36
  3
ColorChange
350
3A
  3
Conceptual
350
34
  3
Dim
350
35
  3
EdgeColorOff
350
3D
  3
Facepattern
350
39
  3
Flat
350
2B
  3
FlatWithEdges
350
2C
  3
Gouraud
350
2D
  3
GouraudWithEdges
350
2E
  3
Hidden
350
31
  3
JitterOff
350
3B
  3
Linepattern
350
38
  3
OverhangOff
350
3C
  3
Realistic
350
33
  3
Shaded
350
42
  3
Shaded with edges
350
41
  3
Shades of Gray
350
3E
  3
Sketchy
350
3F
  3
Thicken
350
37
  3
Wireframe
350
30
  3
X-Ray
350
40
  0
DICTIONARY
  5
33C
102
{ACAD_REACTORS
330
C
102
}
330
C
100
AcDbDictionary
281
     1
  3
CANNOSCALE
350
343
  3
DIMASSOC
350
341
  3
HIDETEXT
350
342
  3
MSLTSCALE
350
344
  0
LAYOUT
  5
1E
102
{ACAD_REACTORS
330
1A
102
}
330
1A
100
AcDbPlotSettings
  1

  2
none_device
  4

  6

 40
0.0
 41
0.0
 42
0.0
 43
0.0
 44
0.0
 45
0.0
 46
0.0
 47
0.0
 48
0.0
 49
0.0
140
0.0
141
0.0
142
1.0
143
1.0
 70
   688
 72
     0
 73
     0
 74
     5
  7

 75
    16
147
1.0
148
0.0
149
0.0
100
AcDbLayout
  1
Layout1
 70
     1
 71
     1
 10
0.0
 20
0.0
 11
12.0
 21
9.0
 12
0.0
 22
0.0
 32
0.0
 14
1.00000000000000E+20
 24
1.00000000000000E+20
 34
1.00000000000000E+20
 15
-1.00000000000000E+20
 25
-1.00000000000000E+20
 35
-1.00000000000000E+20
146
0.0
 13
0.0
 23
0.0
 33
0.0
 16
1.0
 26
0.0
 36
0.0
 17
0.0
 27
1.0
 37
0.0
 76
     0
330
1B
  0
LAYOUT
  5
26
102
{ACAD_REACTORS
330
1A
102
}
330
1A
100
AcDbPlotSettings
  1

  2
none_device
  4

  6

 40
0.0
 41
0.0
 42
0.0
 43
0.0
 44
0.0
 45
0.0
 46
0.0
 47
0.0
 48
0.0
 49
0.0
140
0.0
141
0.0
142
1.0
143
1.0
 70
   688
 72
     0
 73
     0
 74
     5
  7

 75
    16
147
1.0
148
0.0
149
0.0
100
AcDbLayout
  1
Layout2
 70
     1
 71
     2
 10
0.0
 20
0.0
 11
0.0
 21
0.0
 12
0.0
 22
0.0
 32
0.0
 14
0.0
 24
0.0
 34
0.0
 15
0.0
 25
0.0
 35
0.0
146
0.0
 13
0.0
 23
0.0
 33
0.0
 16
1.0
 26
0.0
 36
0.0
 17
0.0
 27
1.0
 37
0.0
 76
     0
330
23
  0
LAYOUT
  5
22
102
{ACAD_REACTORS
330
1A
102
}
330
1A
100
AcDbPlotSettings
  1

  2
none_device
  4
Letter_(8.50_x_11.00_Inches)
  6

 40
6.35
 41
6.35
 42
6.35000508
 43
6.35000508
 44
215.9
 45
279.4
 46
0.0
 47
0.0
 48
0.0
 49
0.0
140
0.0
141
0.0
142
1.0
143
1.0
 70
  1712
 72
     0
 73
     0
 74
     0
  7

 75
     0
147
1.0
148
0.0
149
0.0
100
AcDbLayout
  1
Model
 70
     1
 71
     0
 10
0.0
 20
0.0
 11
12.0
 21
9.0
 12
0.0
 22
0.0
 32
0.0
 14
-60.81495457622364
 24
-22.54048149838889
 34
0.0
 15
60.99999999999999
 25
79.81495457622373
 35
0.0
146
0.0
 13
0.0
 23
0.0
 33
0.0
 16
1.0
 26
0.0
 36
0.0
 17
0.0
 27
1.0
 37
0.0
 76
     0
330
1F
331
29
  0
MATERIAL
  5
45
102
{ACAD_REACTORS
330
43
102
}
102
{ACAD_XDICTIONARY
360
377
102
}
330
43
100
AcDbMaterial
  1
ByBlock
  0
MATERIAL
  5
44
102
{ACAD_REACTORS
330
43
102
}
102
{ACAD_XDICTIONARY
360
375
102
}
330
43
100
AcDbMaterial
  1
ByLayer
  0
MATERIAL
  5
46
102
{ACAD_REACTORS
330
43
102
}
102
{ACAD_XDICTIONARY
360
379
102
}
330
43
100
AcDbMaterial
  1
Global
  0
MLINESTYLE
  5
18
102
{ACAD_REACTORS
330
17
102
}
330
17
100
AcDbMlineStyle
  2
Standard
 70
     0
  3

 62
   256
 51
90.0
 52
90.0
 71
     2
 49
0.5
 62
   256
  6
BYLAYER
 49
-0.5
 62
   256
  6
BYLAYER
  0
ACDBPLACEHOLDER
  5
F
102
{ACAD_REACTORS
330
E
102
}
330
E
  0
SCALE
  5
48
102
{ACAD_REACTORS
330
47
102
}
330
47
100
AcDbScale
 70
     0
300
1:1
140
1.0
141
1.0
290
     1
  0
SCALE
  5
49
102
{ACAD_REACTORS
330
47
102
}
330
47
100
AcDbScale
 70
     0
300
1:2
140
1.0
141
2.0
290
     0
  0
SCALE
  5
4A
102
{ACAD_REACTORS
330
47
102
}
330
47
100
AcDbScale
 70
     0
300
1:4
140
1.0
141
4.0
290
     0
  0
SCALE
  5
4B
102
{ACAD_REACTORS
330
47
102
}
330
47
100
AcDbScale
 70
     0
300
1:5
140
1.0
141
5.0
290
     0
  0
SCALE
  5
4C
102
{ACAD_REACTORS
330
47
102
}
330
47
100
AcDbScale
 70
     0
300
1:8
140
1.0
141
8.0
290
     0
  0
SCALE
  5
4D
102
{ACAD_REACTORS
330
47
102
}
330
47
100
AcDbScale
 70
     0
300
1:10
140
1.0
141
10.0
290
     0
  0
SCALE
  5
4E
102
{ACAD_REACTORS
330
47
102
}
330
47
100
AcDbScale
 70
     0
300
1:16
140
1.0
141
16.0
290
     0
  0
SCALE
  5
4F
102
{ACAD_REACTORS
330
47
102
}
330
47
100
AcDbScale
 70
     0
300
1:20
140
1.0
141
20.0
290
     0
  0
SCALE
  5
50
102
{ACAD_REACTORS
330
47
102
}
330
47
100
AcDbScale
 70
     0
300
1:30
140
1.0
141
30.0
290
     0
  0
SCALE
  5
51
102
{ACAD_REACTORS
330
47
102
}
330
47
100
AcDbScale
 70
     0
300
1:40
140
1.0
141
40.0
290
     0
  0
SCALE
  5
52
102
{ACAD_REACTORS
330
47
102
}
330
47
100
AcDbScale
 70
     0
300
1:50
140
1.0
141
50.0
290
     0
  0
SCALE
  5
53
102
{ACAD_REACTORS
330
47
102
}
330
47
100
AcDbScale
 70
     0
300
1:100
140
1.0
141
100.0
290
     0
  0
SCALE
  5
54
102
{ACAD_REACTORS
330
47
102
}
330
47
100
AcDbScale
 70
     0
300
2:1
140
2.0
141
1.0
290
     0
  0
SCALE
  5
55
102
{ACAD_REACTORS
330
47
102
}
330
47
100
AcDbScale
 70
     0
300
4:1
140
4.0
141
1.0
290
     0
  0
SCALE
  5
56
102
{ACAD_REACTORS
330
47
102
}
330
47
100
AcDbScale
 70
     0
300
8:1
140
8.0
141
1.0
290
     0
  0
SCALE
  5
57
102
{ACAD_REACTORS
330
47
102
}
330
47
100
AcDbScale
 70
     0
300
10:1
140
10.0
141
1.0
290
     0
  0
SCALE
  5
58
102
{ACAD_REACTORS
330
47
102
}
330
47
100
AcDbScale
 70
     0
300
100:1
140
100.0
141
1.0
290
     0
  0
SCALE
  5
59
102
{ACAD_REACTORS
330
47
102
}
330
47
100
AcDbScale
 70
     0
300
1/128" = 1'-0"
140
0.0078125
141
12.0
290
     0
  0
SCALE
  5
5A
102
{ACAD_REACTORS
330
47
102
}
330
47
100
AcDbScale
 70
     0
300
1/64" = 1'-0"
140
0.015625
141
12.0
290
     0
  0
SCALE
  5
5B
102
{ACAD_REACTORS
330
47
102
}
330
47
100
AcDbScale
 70
     0
300
1/32" = 1'-0"
140
0.03125
141
12.0
290
     0
  0
SCALE
  5
5C
102
{ACAD_REACTORS
330
47
102
}
330
47
100
AcDbScale
 70
     0
300
1/16" = 1'-0"
140
0.0625
141
12.0
290
     0
  0
SCALE
  5
5D
102
{ACAD_REACTORS
330
47
102
}
330
47
100
AcDbScale
 70
     0
300
3/32" = 1'-0"
140
0.09375
141
12.0
290
     0
  0
SCALE
  5
5E
102
{ACAD_REACTORS
330
47
102
}
330
47
100
AcDbScale
 70
     0
300
1/8" = 1'-0"
140
0.125
141
12.0
290
     0
  0
SCALE
  5
5F
102
{ACAD_REACTORS
330
47
102
}
330
47
100
AcDbScale
 70
     0
300
3/16" = 1'-0"
140
0.1875
141
12.0
290
     0
  0
SCALE
  5
60
102
{ACAD_REACTORS
330
47
102
}
330
47
100
AcDbScale
 70
     0
300
1/4" = 1'-0"
140
0.25
141
12.0
290
     0
  0
SCALE
  5
61
102
{ACAD_REACTORS
330
47
102
}
330
47
100
AcDbScale
 70
     0
300
3/8" = 1'-0"
140
0.375
141
12.0
290
     0
  0
SCALE
  5
62
102
{ACAD_REACTORS
330
47
102
}
330
47
100
AcDbScale
 70
     0
300
1/2" = 1'-0"
140
0.5
141
12.0
290
     0
  0
SCALE
  5
63
102
{ACAD_REACTORS
330
47
102
}
330
47
100
AcDbScale
 70
     0
300
3/4" = 1'-0"
140
0.75
141
12.0
290
     0
  0
SCALE
  5
64
102
{ACAD_REACTORS
330
47
102
}
330
47
100
AcDbScale
 70
     0
300
1" = 1'-0"
140
1.0
141
12.0
290
     0
  0
SCALE
  5
65
102
{ACAD_REACTORS
330
47
102
}
330
47
100
AcDbScale
 70
     0
300
1-1/2" = 1'-0"
140
1.5
141
12.0
290
     0
  0
SCALE
  5
66
102
{ACAD_REACTORS
330
47
102
}
330
47
100
AcDbScale
 70
     0
300
3" = 1'-0"
140
3.0
141
12.0
290
     0
  0
SCALE
  5
67
102
{ACAD_REACTORS
330
47
102
}
330
47
100
AcDbScale
 70
     0
300
6" = 1'-0"
140
6.0
141
12.0
290
     0
  0
SCALE
  5
68
102
{ACAD_REACTORS
330
47
102
}
330
47
100
AcDbScale
 70
     0
300
1'-0" = 1'-0"
140
12.0
141
12.0
290
     0
  0
VISUALSTYLE
  5
2F
102
{ACAD_REACTORS
330
2A
102
}
102
{ACAD_XDICTIONARY
360
34D
102
}
330
2A
100
AcDbVisualStyle
  2
2dWireframe
 70
     4
 71
     0
 72
     2
 73
     0
 90
        0
 40
0.6
 41
30.0
 62
     5
 63
     7
 74
     1
 91
        4
 64
     7
 65
   257
 75
     1
175
     1
 42
1.0
 92
        0
 66
   257
 43
1.0
 76
     1
 77
     6
 78
     2
 67
     7
 79
     5
170
     0
171
     0
290
     0
174
     0
 93
        1
 44
0.0
173
     0
291
     0
 45
0.0
1001
ACAD
1000
AcDbSavedByObjectVersion
1070
     0
  0
VISUALSTYLE
  5
32
102
{ACAD_REACTORS
330
2A
102
}
102
{ACAD_XDICTIONARY
360
353
102
}
330
2A
100
AcDbVisualStyle
  2
Basic
 70
     7
 71
     1
 72
     0
 73
     1
 90
        0
 40
0.6
 41
30.0
 62
     5
 63
     7
 74
     0
 91
        4
 64
     7
 65
   257
 75
     1
175
     1
 42
1.0
 92
        8
 66
     7
 43
1.0
 76
     1
 77
     6
 78
     2
 67
     7
 79
     5
170
     0
171
     0
290
     0
174
     0
 93
        1
 44
0.0
173
     0
291
     1
 45
0.0
1001
ACAD
1000
AcDbSavedByObjectVersion
1070
     0
  0
VISUALSTYLE
  5
36
102
{ACAD_REACTORS
330
2A
102
}
102
{ACAD_XDICTIONARY
360
35B
102
}
330
2A
100
AcDbVisualStyle
  2
Brighten
 70
    12
 71
     2
 72
     2
 73
     0
 90
        0
 40
0.6
 41
30.0
 62
     5
 63
     7
 74
     1
 91
        4
 64
     7
 65
   257
 75
     1
175
     1
 42
1.0
 92
        8
 66
     7
 43
1.0
 76
     1
 77
     6
 78
     2
 67
     7
 79
     5
170
     0
171
     0
290
     0
174
     0
 93
        1
 44
50.0
173
     0
291
     1
 45
0.0
1001
ACAD
1000
AcDbSavedByObjectVersion
1070
     0
  0
VISUALSTYLE
  5
3A
102
{ACAD_REACTORS
330
2A
102
}
102
{ACAD_XDICTIONARY
360
363
102
}
330
2A
100
AcDbVisualStyle
  2
ColorChange
 70
    16
 71
     2
 72
     2
 73
     3
 90
        0
 40
0.6
 41
30.0
 62
     5
 63
     8
 74
     1
 91
        4
 64
     7
 65
   257
 75
     1
175
     1
 42
1.0
 92
        8
 66
     8
 43
1.0
 76
     1
 77
     6
 78
     2
 67
     7
 79
     5
170
     0
171
     0
290
     0
174
     0
 93
        1
 44
0.0
173
     0
291
     1
 45
0.0
1001
ACAD
1000
AcDbSavedByObjectVersion
1070
     0
  0
VISUALSTYLE
  5
34
102
{ACAD_REACTORS
330
2A
102
}
102
{ACAD_XDICTIONARY
360
357
102
}
330
2A
100
AcDbVisualStyle
  2
Conceptual
 70
     9
 71
     3
 72
     2
 73
     0
 90
        0
 40
0.6
 41
30.0
 62
     5
 63
     7
 74
     2
 91
        2
 64
     7
 65
   257
 75
     1
175
     1
 42
179.0
 92
        8
 66
     7
 43
1.0
 76
     1
 77
     6
 78
     2
 67
     7
 79
     3
170
     0
171
     0
290
     0
174
     0
 93
        1
 44
0.0
173
     0
291
     0
 45
0.0
1001
ACAD
1000
AcDbSavedByObjectVersion
1070
     0
  0
VISUALSTYLE
  5
35
102
{ACAD_REACTORS
330
2A
102
}
102
{ACAD_XDICTIONARY
360
359
102
}
330
2A
100
AcDbVisualStyle
  2
Dim
 70
    11
 71
     2
 72
     2
 73
     0
 90
        0
 40
0.6
 41
30.0
 62
     5
 63
     7
 74
     1
 91
        4
 64
     7
 65
   257
 75
     1
175
     1
 42
1.0
 92
        8
 66
     7
 43
1.0
 76
     1
 77
     6
 78
     2
 67
     7
 79
     5
170
     0
171
     0
290
     0
174
     0
 93
        1
 44
-50.0
173
     0
291
     1
 45
0.0
1001
ACAD
1000
AcDbSavedByObjectVersion
1070
     0
  0
VISUALSTYLE
  5
3D
102
{ACAD_REACTORS
330
2A
102
}
102
{ACAD_XDICTIONARY
360
369
102
}
330
2A
100
AcDbVisualStyle
  2
EdgeColorOff
 70
    22
 71
     2
 72
     2
 73
     0
 90
        0
 40
0.6
 41
30.0
 62
     5
 63
     7
 74
     1
 91
        4
 64
     7
 65
   257
 75
     1
175
     1
 42
1.0
 92
        8
 66
     7
 43
1.0
 76
     1
 77
     6
 78
     2
 67
     7
 79
     5
170
     0
171
     0
290
     0
174
     0
 93
        1
 44
0.0
173
     0
291
     1
 45
0.0
1001
ACAD
1000
AcDbSavedByObjectVersion
1070
     0
  0
VISUALSTYLE
  5
39
102
{ACAD_REACTORS
330
2A
102
}
102
{ACAD_XDICTIONARY
360
361
102
}
330
2A
100
AcDbVisualStyle
  2
Facepattern
 70
    15
 71
     2
 72
     2
 73
     0
 90
        0
 40
0.6
 41
30.0
 62
     5
 63
     7
 74
     1
 91
        4
 64
     7
 65
   257
 75
     1
175
     1
 42
1.0
 92
        8
 66
     7
 43
1.0
 76
     1
 77
     6
 78
     2
 67
     7
 79
     5
170
     0
171
     0
290
     0
174
     0
 93
        1
 44
0.0
173
     0
291
     1
 45
0.0
1001
ACAD
1000
AcDbSavedByObjectVersion
1070
     0
  0
VISUALSTYLE
  5
2B
102
{ACAD_REACTORS
330
2A
102
}
102
{ACAD_XDICTIONARY
360
345
102
}
330
2A
100
AcDbVisualStyle
  2
Flat
 70
     0
 71
     2
 72
     1
 73
     1
 90
        2
 40
0.6
 41
30.0
 62
     5
 63
     7
 74
     0
 91
        0
 64
     7
 65
   257
 75
     1
175
     1
 42
1.0
 92
        8
 66
     7
 43
1.0
 76
     1
 77
     6
 78
     2
 67
     7
 79
     5
170
     0
171
     0
290
     0
174
     0
 93
       13
 44
0.0
173
     0
291
     1
 45
0.0
1001
ACAD
1000
AcDbSavedByObjectVersion
1070
     0
  0
VISUALSTYLE
  5
2C
102
{ACAD_REACTORS
330
2A
102
}
102
{ACAD_XDICTIONARY
360
347
102
}
330
2A
100
AcDbVisualStyle
  2
FlatWithEdges
 70
     1
 71
     2
 72
     1
 73
     1
 90
        2
 40
0.6
 41
30.0
 62
     5
 63
     7
 74
     1
 91
        0
 64
     7
 65
   257
 75
     1
175
     1
 42
1.0
 92
        0
 66
   257
 43
1.0
 76
     1
 77
     6
 78
     2
 67
     7
 79
     5
170
     0
171
     0
290
     0
174
     0
 93
       13
 44
0.0
173
     0
291
     1
 45
0.0
1001
ACAD
1000
AcDbSavedByObjectVersion
1070
     0
  0
VISUALSTYLE
  5
2D
102
{ACAD_REACTORS
330
2A
102
}
102
{ACAD_XDICTIONARY
360
349
102
}
330
2A
100
AcDbVisualStyle
  2
Gouraud
 70
     2
 71
     2
 72
     2
 73
     1
 90
        2
 40
0.6
 41
30.0
 62
     5
 63
     7
 74
     0
 91
        0
 64
     7
 65
   257
 75
     1
175
     1
 42
1.0
 92
        0
 66
     7
 43
1.0
 76
     1
 77
     6
 78
     2
 67
     7
 79
     5
170
     0
171
     0
290
     0
174
     0
 93
       13
 44
0.0
173
     0
291
     1
 45
0.0
1001
ACAD
1000
AcDbSavedByObjectVersion
1070
     0
  0
VISUALSTYLE
  5
2E
102
{ACAD_REACTORS
330
2A
102
}
102
{ACAD_XDICTIONARY
360
34B
102
}
330
2A
100
AcDbVisualStyle
  2
GouraudWithEdges
 70
     3
 71
     2
 72
     2
 73
     1
 90
        2
 40
0.6
 41
30.0
 62
     5
 63
     7
 74
     1
 91
        0
 64
     7
 65
   257
 75
     1
175
     1
 42
1.0
 92
        0
 66
   257
 43
1.0
 76
     1
 77
     6
 78
     2
 67
     7
 79
     5
170
     0
171
     0
290
     0
174
     0
 93
       13
 44
0.0
173
     0
291
     1
 45
0.0
1001
ACAD
1000
AcDbSavedByObjectVersion
1070
     0
  0
VISUALSTYLE
  5
31
102
{ACAD_REACTORS
330
2A
102
}
102
{ACAD_XDICTIONARY
360
351
102
}
330
2A
100
AcDbVisualStyle
  2
Hidden
 70
     6
 71
     1
 72
     2
 73
     2
 90
        0
 40
0.6
 41
30.0
 62
     5
 63
     7
 74
     2
 91
        2
 64
     7
 65
   257
 75
     2
175
     1
 42
40.0
 92
        0
 66
   257
 43
1.0
 76
     1
 77
     6
 78
     2
 67
     7
 79
     3
170
     0
171
     0
290
     0
174
     0
 93
        1
 44
0.0
173
     0
291
     0
 45
0.0
1001
ACAD
1000
AcDbSavedByObjectVersion
1070
     0
  0
VISUALSTYLE
  5
3B
102
{ACAD_REACTORS
330
2A
102
}
102
{ACAD_XDICTIONARY
360
365
102
}
330
2A
100
AcDbVisualStyle
  2
JitterOff
 70
    20
 71
     2
 72
     2
 73
     0
 90
        0
 40
0.6
 41
30.0
 62
     5
 63
     7
 74
     1
 91
        4
 64
     7
 65
   257
 75
     1
175
     1
 42
1.0
 92
       10
 66
     7
 43
1.0
 76
     1
 77
     6
 78
     2
 67
     7
 79
     5
170
     0
171
     0
290
     0
174
     0
 93
        1
 44
0.0
173
     0
291
     1
 45
0.0
1001
ACAD
1000
AcDbSavedByObjectVersion
1070
     0
  0
VISUALSTYLE
  5
38
102
{ACAD_REACTORS
330
2A
102
}
102
{ACAD_XDICTIONARY
360
35F
102
}
330
2A
100
AcDbVisualStyle
  2
Linepattern
 70
    14
 71
     2
 72
     2
 73
     0
 90
        0
 40
0.6
 41
30.0
 62
     5
 63
     7
 74
     1
 91
        4
 64
     7
 65
   257
 75
     7
175
     7
 42
1.0
 92
        8
 66
     7
 43
1.0
 76
     1
 77
     6
 78
     2
 67
     7
 79
     5
170
     0
171
     0
290
     0
174
     0
 93
        1
 44
0.0
173
     0
291
     1
 45
0.0
1001
ACAD
1000
AcDbSavedByObjectVersion
1070
     0
  0
VISUALSTYLE
  5
3C
102
{ACAD_REACTORS
330
2A
102
}
102
{ACAD_XDICTIONARY
360
367
102
}
330
2A
100
AcDbVisualStyle
  2
OverhangOff
 70
    21
 71
     2
 72
     2
 73
     0
 90
        0
 40
0.6
 41
30.0
 62
     5
 63
     7
 74
     1
 91
        4
 64
     7
 65
   257
 75
     1
175
     1
 42
1.0
 92
        9
 66
     7
 43
1.0
 76
     1
 77
     6
 78
     2
 67
     7
 79
     5
170
     0
171
     0
290
     0
174
     0
 93
        1
 44
0.0
173
     0
291
     1
 45
0.0
1001
ACAD
1000
AcDbSavedByObjectVersion
1070
     0
  0
VISUALSTYLE
  5
33
102
{ACAD_REACTORS
330
2A
102
}
102
{ACAD_XDICTIONARY
360
355
102
}
330
2A
100
AcDbVisualStyle
  2
Realistic
 70
     8
 71
     2
 72
     3
 73
     0
 90
        2
 40
0.6
 41
30.0
 62
     5
 63
     7
 74
     0
 91
        0
 64
     7
 65
   257
 75
     1
175
     1
 42
1.0
 92
        8
 66
   257
 43
1.0
 76
     1
 77
     6
 78
     2
 67
     7
 79
     3
170
     0
171
     0
290
     0
174
     0
 93
       13
 44
0.0
173
     0
291
     0
 45
0.0
1001
ACAD
1000
AcDbSavedByObjectVersion
1070
     0
  0
VISUALSTYLE
  5
42
102
{ACAD_REACTORS
330
2A
102
}
102
{ACAD_XDICTIONARY
360
373
102
}
330
2A
100
AcDbVisualStyle
  2
Shaded
 70
    27
 71
     2
 72
     2
 73
     1
 90
        2
 40
0.6
 41
30.0
 62
     5
 63
     7
 74
     0
 91
        4
 64
     7
 65
   257
 75
     1
175
     1
 42
1.0
 92
        8
 66
   257
 43
1.0
 76
     1
 77
     6
 78
     2
 67
     8
 79
     3
170
     0
171
     0
290
     0
174
     0
 93
        5
 44
0.0
173
     0
291
     0
 45
0.0
1001
ACAD
1000
AcDbSavedByObjectVersion
1070
     0
  0
VISUALSTYLE
  5
41
102
{ACAD_REACTORS
330
2A
102
}
102
{ACAD_XDICTIONARY
360
371
102
}
330
2A
100
AcDbVisualStyle
  2
Shaded with edges
 70
    26
 71
     2
 72
     2
 73
     1
 90
        2
 40
0.6
 41
30.0
 62
     5
 63
     7
 74
     1
 91
       10
 64
     7
 65
   257
 75
     2
175
     1
 42
1.0
 92
        8
 66
   257
 43
1.0
 76
     1
 77
     6
 78
     2
 67
     7
 79
     3
170
     0
171
     0
290
     0
174
     0
 93
        5
 44
0.0
173
     0
291
     0
 45
0.0
1001
ACAD
1000
AcDbSavedByObjectVersion
1070
     0
  0
VISUALSTYLE
  5
3E
102
{ACAD_REACTORS
330
2A
102
}
102
{ACAD_XDICTIONARY
360
36B
102
}
330
2A
100
AcDbVisualStyle
  2
Shades of Gray
 70
    23
 71
     2
 72
     2
 73
     3
 90
        0
 40
0.6
 41
30.0
 62
     5
 63
     7
 74
     2
 91
        2
 64
     7
 65
     7
 75
     1
175
     1
 42
40.0
 92
        8
 66
     7
 43
1.0
 76
     1
 77
     6
 78
     2
 67
     7
 79
     3
170
     0
171
     0
290
     0
174
     0
 93
        1
 44
0.0
173
     0
291
     0
 45
0.0
1001
ACAD
1000
AcDbSavedByObjectVersion
1070
     0
  0
VISUALSTYLE
  5
3F
102
{ACAD_REACTORS
330
2A
102
}
102
{ACAD_XDICTIONARY
360
36D
102
}
330
2A
100
AcDbVisualStyle
  2
Sketchy
 70
    24
 71
     1
 72
     2
 73
     2
 90
        0
 40
0.6
 41
30.0
 62
     5
 63
     7
 74
     2
 91
        2
 64
     7
 65
     7
 75
     1
175
     1
 42
40.0
 92
       11
 66
     7
 43
1.0
 76
     1
 77
     6
 78
     2
 67
     7
 79
     6
170
     0
171
     0
290
     0
174
     0
 93
        1
 44
0.0
173
     0
291
     0
 45
0.0
1001
ACAD
1000
AcDbSavedByObjectVersion
1070
     0
  0
VISUALSTYLE
  5
37
102
{ACAD_REACTORS
330
2A
102
}
102
{ACAD_XDICTIONARY
360
35D
102
}
330
2A
100
AcDbVisualStyle
  2
Thicken
 70
    13
 71
     2
 72
     2
 73
     0
 90
        0
 40
0.6
 41
30.0
 62
     5
 63
     7
 74
     1
 91
        4
 64
     7
 65
   257
 75
     1
175
     1
 42
1.0
 92
       12
 66
     7
 43
1.0
 76
     1
 77
     6
 78
     2
 67
     7
 79
     5
170
     0
171
     0
290
     0
174
     0
 93
        1
 44
0.0
173
     0
291
     1
 45
0.0
1001
ACAD
1000
AcDbSavedByObjectVersion
1070
     0
  0
VISUALSTYLE
  5
30
102
{ACAD_REACTORS
330
2A
102
}
102
{ACAD_XDICTIONARY
360
34F
102
}
330
2A
100
AcDbVisualStyle
  2
Wireframe
 70
     5
 71
     0
 72
     2
 73
     0
 90
        0
 40
0.6
 41
30.0
 62
     5
 63
     7
 74
     1
 91
        4
 64
     7
 65
   257
 75
     1
175
     1
 42
1.0
 92
        0
 66
   257
 43
1.0
 76
     1
 77
     6
 78
     2
 67
     7
 79
     3
170
     0
171
     0
290
     0
174
     0
 93
        1
 44
0.0
173
     0
291
     0
 45
0.0
1001
ACAD
1000
AcDbSavedByObjectVersion
1070
     0
  0
VISUALSTYLE
  5
40
102
{ACAD_REACTORS
330
2A
102
}
102
{ACAD_XDICTIONARY
360
36F
102
}
330
2A
100
AcDbVisualStyle
  2
X-Ray
 70
    25
 71
     2
 72
     2
 73
     1
 90
        1
 40
0.5
 41
30.0
 62
     5
 63
     7
 74
     1
 91
        0
 64
     7
 65
   257
 75
     1
175
     1
 42
1.0
 92
        8
 66
     7
 43
1.0
 76
     1
 77
     6
 78
     2
 67
     7
 79
     3
170
     0
171
     0
290
     0
174
     0
 93
       13
 44
0.0
173
     0
291
     0
 45
0.0
1001
ACAD
1000
AcDbSavedByObjectVersion
1070
     0
  0
DICTIONARYVAR
  5
343
102
{ACAD_REACTORS
330
33C
102
}
330
33C
100
DictionaryVariables
280
     0
  1
1:1
  0
DICTIONARYVAR
  5
341
102
{ACAD_REACTORS
330
33C
102
}
330
33C
100
DictionaryVariables
280
     0
  1
2
  0
DICTIONARYVAR
  5
342
102
{ACAD_REACTORS
330
33C
102
}
330
33C
100
DictionaryVariables
280
     0
  1
1
  0
DICTIONARYVAR
  5
344
102
{ACAD_REACTORS
330
33C
102
}
330
33C
100
DictionaryVariables
280
     0
  1
1
  0
DICTIONARY
  5
377
330
45
100
AcDbDictionary
280
     1
281
     1
  3
ACAD_XREC_ROUNDTRIP
360
378
  0
DICTIONARY
  5
375
330
44
100
AcDbDictionary
280
     1
281
     1
  3
ACAD_XREC_ROUNDTRIP
360
376
  0
DICTIONARY
  5
379
330
46
100
AcDbDictionary
280
     1
281
     1
  3
ACAD_XREC_ROUNDTRIP
360
37A
  0
DICTIONARY
  5
34D
330
2F
100
AcDbDictionary
280
     1
281
     1
  3
ACAD_XREC_ROUNDTRIP
360
34E
  0
DICTIONARY
  5
353
330
32
100
AcDbDictionary
280
     1
281
     1
  3
ACAD_XREC_ROUNDTRIP
360
354
  0
DICTIONARY
  5
35B
330
36
100
AcDbDictionary
280
     1
281
     1
  3
ACAD_XREC_ROUNDTRIP
360
35C
  0
DICTIONARY
  5
363
330
3A
100
AcDbDictionary
280
     1
281
     1
  3
ACAD_XREC_ROUNDTRIP
360
364
  0
DICTIONARY
  5
357
330
34
100
AcDbDictionary
280
     1
281
     1
  3
ACAD_XREC_ROUNDTRIP
360
358
  0
DICTIONARY
  5
359
330
35
100
AcDbDictionary
280
     1
281
     1
  3
ACAD_XREC_ROUNDTRIP
360
35A
  0
DICTIONARY
  5
369
330
3D
100
AcDbDictionary
280
     1
281
     1
  3
ACAD_XREC_ROUNDTRIP
360
36A
  0
DICTIONARY
  5
361
330
39
100
AcDbDictionary
280
     1
281
     1
  3
ACAD_XREC_ROUNDTRIP
360
362
  0
DICTIONARY
  5
345
330
2B
100
AcDbDictionary
280
     1
281
     1
  3
ACAD_XREC_ROUNDTRIP
360
346
  0
DICTIONARY
  5
347
330
2C
100
AcDbDictionary
280
     1
281
     1
  3
ACAD_XREC_ROUNDTRIP
360
348
  0
DICTIONARY
  5
349
330
2D
100
AcDbDictionary
280
     1
281
     1
  3
ACAD_XREC_ROUNDTRIP
360
34A
  0
DICTIONARY
  5
34B
330
2E
100
AcDbDictionary
280
     1
281
     1
  3
ACAD_XREC_ROUNDTRIP
360
34C
  0
DICTIONARY
  5
351
330
31
100
AcDbDictionary
280
     1
281
     1
  3
ACAD_XREC_ROUNDTRIP
360
352
  0
DICTIONARY
  5
365
330
3B
100
AcDbDictionary
280
     1
281
     1
  3
ACAD_XREC_ROUNDTRIP
360
366
  0
DICTIONARY
  5
35F
330
38
100
AcDbDictionary
280
     1
281
     1
  3
ACAD_XREC_ROUNDTRIP
360
360
  0
DICTIONARY
  5
367
330
3C
100
AcDbDictionary
280
     1
281
     1
  3
ACAD_XREC_ROUNDTRIP
360
368
  0
DICTIONARY
  5
355
330
33
100
AcDbDictionary
280
     1
281
     1
  3
ACAD_XREC_ROUNDTRIP
360
356
  0
DICTIONARY
  5
373
330
42
100
AcDbDictionary
280
     1
281
     1
  3
ACAD_XREC_ROUNDTRIP
360
374
  0
DICTIONARY
  5
371
330
41
100
AcDbDictionary
280
     1
281
     1
  3
ACAD_XREC_ROUNDTRIP
360
372
  0
DICTIONARY
  5
36B
330
3E
100
AcDbDictionary
280
     1
281
     1
  3
ACAD_XREC_ROUNDTRIP
360
36C
  0
DICTIONARY
  5
36D
330
3F
100
AcDbDictionary
280
     1
281
     1
  3
ACAD_XREC_ROUNDTRIP
360
36E
  0
DICTIONARY
  5
35D
330
37
100
AcDbDictionary
280
     1
281
     1
  3
ACAD_XREC_ROUNDTRIP
360
35E
  0
DICTIONARY
  5
34F
330
30
100
AcDbDictionary
280
     1
281
     1
  3
ACAD_XREC_ROUNDTRIP
360
350
  0
DICTIONARY
  5
36F
330
40
100
AcDbDictionary
280
     1
281
     1
  3
ACAD_XREC_ROUNDTRIP
360
370
  0
XRECORD
  5
378
102
{ACAD_REACTORS
330
377
102
}
330
377
100
AcDbXrecord
280
     1
102
MATERIAL
148
0.0
149
0.0
149
0.0
 93
        0
 94
      127
282
     0
 72
     1
 77
     1
171
     1
175
     1
179
     1
273
     0
  0
XRECORD
  5
376
102
{ACAD_REACTORS
330
375
102
}
330
375
100
AcDbXrecord
280
     1
102
MATERIAL
148
0.0
149
0.0
149
0.0
 93
        0
 94
      127
282
     0
 72
     1
 77
     1
171
     1
175
     1
179
     1
273
     0
  0
XRECORD
  5
37A
102
{ACAD_REACTORS
330
379
102
}
330
379
100
AcDbXrecord
280
     1
102
MATERIAL
148
0.0
149
0.0
149
0.0
 93
        0
 94
      127
282
     0
 72
     1
 77
     1
171
     1
175
     1
179
     1
273
     0
  0
XRECORD
  5
34E
102
{ACAD_REACTORS
330
34D
102
}
330
34D
100
AcDbXrecord
280
     1
102
RTVSPropertyOp0
 70
     1
102
RTVSPropertyOp1
 70
     1
102
RTVSPropertyOp2
 70
     1
102
RTVSPropertyOp3
 70
     1
102
RTVSPropertyOp4
 70
     1
102
RTVSPropertyOp5
 70
     1
102
RTVSPropertyOp6
 70
     1
102
RTVSPropertyOp7
 70
     1
102
RTVSPropertyOp8
 70
     1
102
RTVSPropertyOp9
 70
     1
102
RTVSPropertyOp10
 70
     1
102
RTVSPropertyOp11
 70
     1
102
RTVSPropertyOp12
 70
     1
102
RTVSPropertyOp13
 70
     1
102
RTVSPropertyOp14
 70
     1
102
RTVSPropertyOp15
 70
     1
102
RTVSPropertyOp16
 70
     1
102
RTVSPropertyOp17
 70
     1
102
RTVSPropertyOp18
 70
     1
102
RTVSPropertyOp19
 70
     1
102
RTVSPropertyOp20
 70
     1
102
RTVSPropertyOp21
 70
     1
102
RTVSPropertyOp22
 70
     1
102
RTVSPropertyOp23
 70
     1
102
RTVSPropertyOp24
 70
     1
102
RTVSPropertyOp25
 70
     1
102
RTVSPropertyOp26
 70
     1
102
RTVSPropertyOp27
 70
     1
102
RTVSPropertyOp28
 70
     1
102
RTVSPropertyOp29
 70
     1
102
RTVSPropertyOp30
 70
     1
102
RTVSPropertyOp31
 70
     1
102
RTVSPropertyOp32
 70
     1
102
RTVSPropertyOp33
 70
     1
102
RTVSPropertyOp34
 70
     1
102
RTVSPropertyOp35
 70
     1
102
RTVSPropertyOp36
 70
     1
102
RTVSPropertyOp37
 70
     1
102
RTVSPropertyOp38
 70
     1
102
RTVSPropertyOp39
 70
     1
102
RTVSPropertyOp40
 70
     1
102
RTVSPropertyOp41
 70
     1
102
RTVSPropertyOp42
 70
     1
102
RTVSPropertyOp43
 70
     1
102
RTVSPropertyOp44
 70
     1
102
RTVSPropertyOp45
 70
     1
102
RTVSPropertyOp46
 70
     1
102
RTVSPropertyOp47
 70
     1
102
RTVSPropertyOp48
 70
     1
102
RTVSPropertyOp49
 70
     1
102
RTVSPropertyOp50
 70
     1
102
RTVSPropertyOp51
 70
     0
102
RTVSPropertyOp52
 70
     0
102
RTVSPropertyOp53
 70
     1
102
RTVSPropertyOp54
 70
     1
102
RTVSPropertyOp55
 70
     1
102
RTVSPropertyOp56
 70
     1
102
RTVSPropertyOp57
 70
     1
102
RTVSPost2010Prop28
280
     1
102
RTVSPost2010PropOp28
 70
     1
102
RTVSPost2010Prop29
280
     1
102
RTVSPost2010PropOp29
 70
     1
102
RTVSPost2010Prop30
280
     0
102
RTVSPost2010PropOp30
 70
     1
102
RTVSPost2010Prop31
280
     0
102
RTVSPost2010PropOp31
 70
     1
102
RTVSPost2010Prop32
280
     0
102
RTVSPost2010PropOp32
 70
     1
102
RTVSPost2010Prop33
280
     0
102
RTVSPost2010PropOp33
 70
     1
102
RTVSPost2010Prop34
280
     0
102
RTVSPost2010PropOp34
 70
     1
102
RTVSPost2010Prop35
280
     0
102
RTVSPost2010PropOp35
 70
     1
102
RTVSPost2010Prop36
280
     0
102
RTVSPost2010PropOp36
 70
     1
102
RTVSPost2010Prop37
 90
       50
102
RTVSPost2010PropOp37
 70
     1
102
RTVSPost2010Prop38
140
0.0
102
RTVSPost2010PropOp38
 70
     1
102
RTVSPost2010Prop39
140
1.0
102
RTVSPost2010PropOp39
 70
     1
102
RTVSPost2010Prop40
 90
        0
102
RTVSPost2010PropOp40
 70
     1
102
RTVSPost2010Prop41ColorIndex
 90
       18
102
RTVSPost2010Prop41ColorRGB
 90
        0
102
RTVSPost2010PropOp41
 70
     1
102
RTVSPost2010Prop42
 90
       50
102
RTVSPost2010PropOp42
 70
     1
102
RTVSPost2010Prop43
 90
        3
102
RTVSPost2010PropOp43
 70
     1
102
RTVSPost2010Prop44ColorIndex
 90
        5
102
RTVSPost2010Prop44ColorRGB
 90
      255
102
RTVSPost2010PropOp44
 70
     1
102
RTVSPost2010Prop45
280
     0
102
RTVSPost2010PropOp45
 70
     1
102
RTVSPost2010Prop46
 90
       50
102
RTVSPost2010PropOp46
 70
     1
102
RTVSPost2010Prop47
 90
       50
102
RTVSPost2010PropOp47
 70
     1
102
RTVSPost2010Prop48
 90
       50
102
RTVSPost2010PropOp48
 70
     1
102
RTVSPost2010Prop49
280
     0
102
RTVSPost2010PropOp49
 70
     1
102
RTVSPost2010Prop50
 90
       50
102
RTVSPost2010PropOp50
 70
     1
102
RTVSPost2010Prop51ColorIndex
 90
      256
102
RTVSPost2010Prop51ColorRGB
 90
-16777216
102
RTVSPost2010PropOp51
 70
     0
102
RTVSPost2010Prop52
140
1.0
102
RTVSPost2010PropOp52
 70
     0
102
RTVSPost2010Prop53
 90
        2
102
RTVSPost2010PropOp53
 70
     1
102
RTVSPost2010Prop54
  1
strokes_ogs.tif
102
RTVSPost2010PropOp54
 70
     1
102
RTVSPost2010Prop55
280
     0
102
RTVSPost2010PropOp55
 70
     1
102
RTVSPost2010Prop56
140
1.0
102
RTVSPost2010PropOp56
 70
     1
102
RTVSPost2010Prop57
140
1.0
102
RTVSPost2010PropOp57
 70
     1
  0
XRECORD
  5
354
102
{ACAD_REACTORS
330
353
102
}
330
353
100
AcDbXrecord
280
     1
102
RTVSPropertyOp0
 70
     1
102
RTVSPropertyOp1
 70
     1
102
RTVSPropertyOp2
 70
     1
102
RTVSPropertyOp3
 70
     1
102
RTVSPropertyOp4
 70
     1
102
RTVSPropertyOp5
 70
     1
102
RTVSPropertyOp6
 70
     1
102
RTVSPropertyOp7
 70
     1
102
RTVSPropertyOp8
 70
     1
102
RTVSPropertyOp9
 70
     1
102
RTVSPropertyOp10
 70
     1
102
RTVSPropertyOp11
 70
     1
102
RTVSPropertyOp12
 70
     1
102
RTVSPropertyOp13
 70
     1
102
RTVSPropertyOp14
 70
     1
102
RTVSPropertyOp15
 70
     1
102
RTVSPropertyOp16
 70
     1
102
RTVSPropertyOp17
 70
     1
102
RTVSPropertyOp18
 70
     1
102
RTVSPropertyOp19
 70
     1
102
RTVSPropertyOp20
 70
     1
102
RTVSPropertyOp21
 70
     1
102
RTVSPropertyOp22
 70
     1
102
RTVSPropertyOp23
 70
     1
102
RTVSPropertyOp24
 70
     1
102
RTVSPropertyOp25
 70
     1
102
RTVSPropertyOp26
 70
     1
102
RTVSPropertyOp27
 70
     1
102
RTVSPropertyOp28
 70
     1
102
RTVSPropertyOp29
 70
     1
102
RTVSPropertyOp30
 70
     1
102
RTVSPropertyOp31
 70
     1
102
RTVSPropertyOp32
 70
     1
102
RTVSPropertyOp33
 70
     1
102
RTVSPropertyOp34
 70
     1
102
RTVSPropertyOp35
 70
     1
102
RTVSPropertyOp36
 70
     1
102
RTVSPropertyOp37
 70
     1
102
RTVSPropertyOp38
 70
     1
102
RTVSPropertyOp39
 70
     1
102
RTVSPropertyOp40
 70
     1
102
RTVSPropertyOp41
 70
     1
102
RTVSPropertyOp42
 70
     1
102
RTVSPropertyOp43
 70
     1
102
RTVSPropertyOp44
 70
     1
102
RTVSPropertyOp45
 70
     1
102
RTVSPropertyOp46
 70
     1
102
RTVSPropertyOp47
 70
     1
102
RTVSPropertyOp48
 70
     1
102
RTVSPropertyOp49
 70
     1
102
RTVSPropertyOp50
 70
     1
102
RTVSPropertyOp51
 70
     0
102
RTVSPropertyOp52
 70
     0
102
RTVSPropertyOp53
 70
     1
102
RTVSPropertyOp54
 70
     1
102
RTVSPropertyOp55
 70
     1
102
RTVSPropertyOp56
 70
     1
102
RTVSPropertyOp57
 70
     1
102
RTVSPost2010Prop28
280
     0
102
RTVSPost2010PropOp28
 70
     1
102
RTVSPost2010Prop29
280
     1
102
RTVSPost2010PropOp29
 70
     1
102
RTVSPost2010Prop30
280
     1
102
RTVSPost2010PropOp30
 70
     1
102
RTVSPost2010Prop31
280
     0
102
RTVSPost2010PropOp31
 70
     1
102
RTVSPost2010Prop32
280
     0
102
RTVSPost2010PropOp32
 70
     1
102
RTVSPost2010Prop33
280
     0
102
RTVSPost2010PropOp33
 70
     1
102
RTVSPost2010Prop34
280
     0
102
RTVSPost2010PropOp34
 70
     1
102
RTVSPost2010Prop35
280
     0
102
RTVSPost2010PropOp35
 70
     1
102
RTVSPost2010Prop36
280
     0
102
RTVSPost2010PropOp36
 70
     1
102
RTVSPost2010Prop37
 90
       50
102
RTVSPost2010PropOp37
 70
     1
102
RTVSPost2010Prop38
140
0.0
102
RTVSPost2010PropOp38
 70
     1
102
RTVSPost2010Prop39
140
1.0
102
RTVSPost2010PropOp39
 70
     1
102
RTVSPost2010Prop40
 90
        0
102
RTVSPost2010PropOp40
 70
     1
102
RTVSPost2010Prop41ColorIndex
 90
       18
102
RTVSPost2010Prop41ColorRGB
 90
        0
102
RTVSPost2010PropOp41
 70
     1
102
RTVSPost2010Prop42
 90
       50
102
RTVSPost2010PropOp42
 70
     1
102
RTVSPost2010Prop43
 90
        3
102
RTVSPost2010PropOp43
 70
     1
102
RTVSPost2010Prop44ColorIndex
 90
        5
102
RTVSPost2010Prop44ColorRGB
 90
      255
102
RTVSPost2010PropOp44
 70
     1
102
RTVSPost2010Prop45
280
     0
102
RTVSPost2010PropOp45
 70
     1
102
RTVSPost2010Prop46
 90
       50
102
RTVSPost2010PropOp46
 70
     1
102
RTVSPost2010Prop47
 90
       50
102
RTVSPost2010PropOp47
 70
     1
102
RTVSPost2010Prop48
 90
       50
102
RTVSPost2010PropOp48
 70
     1
102
RTVSPost2010Prop49
280
     0
102
RTVSPost2010PropOp49
 70
     1
102
RTVSPost2010Prop50
 90
       50
102
RTVSPost2010PropOp50
 70
     1
102
RTVSPost2010Prop51ColorIndex
 90
      256
102
RTVSPost2010Prop51ColorRGB
 90
-16777216
102
RTVSPost2010PropOp51
 70
     0
102
RTVSPost2010Prop52
140
1.0
102
RTVSPost2010PropOp52
 70
     0
102
RTVSPost2010Prop53
 90
        2
102
RTVSPost2010PropOp53
 70
     1
102
RTVSPost2010Prop54
  1
strokes_ogs.tif
102
RTVSPost2010PropOp54
 70
     1
102
RTVSPost2010Prop55
280
     0
102
RTVSPost2010PropOp55
 70
     1
102
RTVSPost2010Prop56
140
1.0
102
RTVSPost2010PropOp56
 70
     1
102
RTVSPost2010Prop57
140
1.0
102
RTVSPost2010PropOp57
 70
     1
  0
XRECORD
  5
35C
102
{ACAD_REACTORS
330
35B
102
}
330
35B
100
AcDbXrecord
280
     1
102
RTVSPropertyOp0
 70
     1
102
RTVSPropertyOp1
 70
     1
102
RTVSPropertyOp2
 70
     1
102
RTVSPropertyOp3
 70
     1
102
RTVSPropertyOp4
 70
     1
102
RTVSPropertyOp5
 70
     1
102
RTVSPropertyOp6
 70
     1
102
RTVSPropertyOp7
 70
     1
102
RTVSPropertyOp8
 70
     1
102
RTVSPropertyOp9
 70
     1
102
RTVSPropertyOp10
 70
     1
102
RTVSPropertyOp11
 70
     1
102
RTVSPropertyOp12
 70
     1
102
RTVSPropertyOp13
 70
     1
102
RTVSPropertyOp14
 70
     1
102
RTVSPropertyOp15
 70
     1
102
RTVSPropertyOp16
 70
     1
102
RTVSPropertyOp17
 70
     1
102
RTVSPropertyOp18
 70
     1
102
RTVSPropertyOp19
 70
     1
102
RTVSPropertyOp20
 70
     1
102
RTVSPropertyOp21
 70
     1
102
RTVSPropertyOp22
 70
     1
102
RTVSPropertyOp23
 70
     1
102
RTVSPropertyOp24
 70
     1
102
RTVSPropertyOp25
 70
     1
102
RTVSPropertyOp26
 70
     1
102
RTVSPropertyOp27
 70
     1
102
RTVSPropertyOp28
 70
     1
102
RTVSPropertyOp29
 70
     1
102
RTVSPropertyOp30
 70
     1
102
RTVSPropertyOp31
 70
     1
102
RTVSPropertyOp32
 70
     1
102
RTVSPropertyOp33
 70
     1
102
RTVSPropertyOp34
 70
     1
102
RTVSPropertyOp35
 70
     1
102
RTVSPropertyOp36
 70
     1
102
RTVSPropertyOp37
 70
     1
102
RTVSPropertyOp38
 70
     1
102
RTVSPropertyOp39
 70
     1
102
RTVSPropertyOp40
 70
     1
102
RTVSPropertyOp41
 70
     1
102
RTVSPropertyOp42
 70
     1
102
RTVSPropertyOp43
 70
     1
102
RTVSPropertyOp44
 70
     1
102
RTVSPropertyOp45
 70
     1
102
RTVSPropertyOp46
 70
     1
102
RTVSPropertyOp47
 70
     1
102
RTVSPropertyOp48
 70
     1
102
RTVSPropertyOp49
 70
     1
102
RTVSPropertyOp50
 70
     1
102
RTVSPropertyOp51
 70
     0
102
RTVSPropertyOp52
 70
     0
102
RTVSPropertyOp53
 70
     1
102
RTVSPropertyOp54
 70
     1
102
RTVSPropertyOp55
 70
     1
102
RTVSPropertyOp56
 70
     1
102
RTVSPropertyOp57
 70
     1
102
RTVSPost2010Prop28
280
     0
102
RTVSPost2010PropOp28
 70
     1
102
RTVSPost2010Prop29
280
     1
102
RTVSPost2010PropOp29
 70
     1
102
RTVSPost2010Prop30
280
     1
102
RTVSPost2010PropOp30
 70
     1
102
RTVSPost2010Prop31
280
     0
102
RTVSPost2010PropOp31
 70
     1
102
RTVSPost2010Prop32
280
     0
102
RTVSPost2010PropOp32
 70
     1
102
RTVSPost2010Prop33
280
     0
102
RTVSPost2010PropOp33
 70
     1
102
RTVSPost2010Prop34
280
     0
102
RTVSPost2010PropOp34
 70
     1
102
RTVSPost2010Prop35
280
     0
102
RTVSPost2010PropOp35
 70
     1
102
RTVSPost2010Prop36
280
     0
102
RTVSPost2010PropOp36
 70
     1
102
RTVSPost2010Prop37
 90
       50
102
RTVSPost2010PropOp37
 70
     1
102
RTVSPost2010Prop38
140
0.0
102
RTVSPost2010PropOp38
 70
     1
102
RTVSPost2010Prop39
140
1.0
102
RTVSPost2010PropOp39
 70
     1
102
RTVSPost2010Prop40
 90
        0
102
RTVSPost2010PropOp40
 70
     1
102
RTVSPost2010Prop41ColorIndex
 90
       18
102
RTVSPost2010Prop41ColorRGB
 90
        0
102
RTVSPost2010PropOp41
 70
     1
102
RTVSPost2010Prop42
 90
       50
102
RTVSPost2010PropOp42
 70
     1
102
RTVSPost2010Prop43
 90
        3
102
RTVSPost2010PropOp43
 70
     1
102
RTVSPost2010Prop44ColorIndex
 90
        5
102
RTVSPost2010Prop44ColorRGB
 90
      255
102
RTVSPost2010PropOp44
 70
     1
102
RTVSPost2010Prop45
280
     0
102
RTVSPost2010PropOp45
 70
     1
102
RTVSPost2010Prop46
 90
       50
102
RTVSPost2010PropOp46
 70
     1
102
RTVSPost2010Prop47
 90
       50
102
RTVSPost2010PropOp47
 70
     1
102
RTVSPost2010Prop48
 90
       50
102
RTVSPost2010PropOp48
 70
     1
102
RTVSPost2010Prop49
280
     0
102
RTVSPost2010PropOp49
 70
     1
102
RTVSPost2010Prop50
 90
       50
102
RTVSPost2010PropOp50
 70
     1
102
RTVSPost2010Prop51ColorIndex
 90
      256
102
RTVSPost2010Prop51ColorRGB
 90
-16777216
102
RTVSPost2010PropOp51
 70
     0
102
RTVSPost2010Prop52
140
1.0
102
RTVSPost2010PropOp52
 70
     0
102
RTVSPost2010Prop53
 90
        2
102
RTVSPost2010PropOp53
 70
     1
102
RTVSPost2010Prop54
  1
strokes_ogs.tif
102
RTVSPost2010PropOp54
 70
     1
102
RTVSPost2010Prop55
280
     0
102
RTVSPost2010PropOp55
 70
     1
102
RTVSPost2010Prop56
140
1.0
102
RTVSPost2010PropOp56
 70
     1
102
RTVSPost2010Prop57
140
1.0
102
RTVSPost2010PropOp57
 70
     1
  0
XRECORD
  5
364
102
{ACAD_REACTORS
330
363
102
}
330
363
100
AcDbXrecord
280
     1
102
RTVSPropertyOp0
 70
     1
102
RTVSPropertyOp1
 70
     1
102
RTVSPropertyOp2
 70
     1
102
RTVSPropertyOp3
 70
     1
102
RTVSPropertyOp4
 70
     1
102
RTVSPropertyOp5
 70
     1
102
RTVSPropertyOp6
 70
     1
102
RTVSPropertyOp7
 70
     1
102
RTVSPropertyOp8
 70
     1
102
RTVSPropertyOp9
 70
     1
102
RTVSPropertyOp10
 70
     1
102
RTVSPropertyOp11
 70
     1
102
RTVSPropertyOp12
 70
     1
102
RTVSPropertyOp13
 70
     1
102
RTVSPropertyOp14
 70
     1
102
RTVSPropertyOp15
 70
     1
102
RTVSPropertyOp16
 70
     1
102
RTVSPropertyOp17
 70
     1
102
RTVSPropertyOp18
 70
     1
102
RTVSPropertyOp19
 70
     1
102
RTVSPropertyOp20
 70
     1
102
RTVSPropertyOp21
 70
     1
102
RTVSPropertyOp22
 70
     1
102
RTVSPropertyOp23
 70
     1
102
RTVSPropertyOp24
 70
     1
102
RTVSPropertyOp25
 70
     1
102
RTVSPropertyOp26
 70
     1
102
RTVSPropertyOp27
 70
     1
102
RTVSPropertyOp28
 70
     1
102
RTVSPropertyOp29
 70
     1
102
RTVSPropertyOp30
 70
     1
102
RTVSPropertyOp31
 70
     1
102
RTVSPropertyOp32
 70
     1
102
RTVSPropertyOp33
 70
     1
102
RTVSPropertyOp34
 70
     1
102
RTVSPropertyOp35
 70
     1
102
RTVSPropertyOp36
 70
     1
102
RTVSPropertyOp37
 70
     1
102
RTVSPropertyOp38
 70
     1
102
RTVSPropertyOp39
 70
     1
102
RTVSPropertyOp40
 70
     1
102
RTVSPropertyOp41
 70
     1
102
RTVSPropertyOp42
 70
     1
102
RTVSPropertyOp43
 70
     1
102
RTVSPropertyOp44
 70
     1
102
RTVSPropertyOp45
 70
     1
102
RTVSPropertyOp46
 70
     1
102
RTVSPropertyOp47
 70
     1
102
RTVSPropertyOp48
 70
     1
102
RTVSPropertyOp49
 70
     1
102
RTVSPropertyOp50
 70
     1
102
RTVSPropertyOp51
 70
     0
102
RTVSPropertyOp52
 70
     0
102
RTVSPropertyOp53
 70
     1
102
RTVSPropertyOp54
 70
     1
102
RTVSPropertyOp55
 70
     1
102
RTVSPropertyOp56
 70
     1
102
RTVSPropertyOp57
 70
     1
102
RTVSPost2010Prop28
280
     0
102
RTVSPost2010PropOp28
 70
     1
102
RTVSPost2010Prop29
280
     1
102
RTVSPost2010PropOp29
 70
     1
102
RTVSPost2010Prop30
280
     1
102
RTVSPost2010PropOp30
 70
     1
102
RTVSPost2010Prop31
280
     0
102
RTVSPost2010PropOp31
 70
     1
102
RTVSPost2010Prop32
280
     0
102
RTVSPost2010PropOp32
 70
     1
102
RTVSPost2010Prop33
280
     0
102
RTVSPost2010PropOp33
 70
     1
102
RTVSPost2010Prop34
280
     0
102
RTVSPost2010PropOp34
 70
     1
102
RTVSPost2010Prop35
280
     0
102
RTVSPost2010PropOp35
 70
     1
102
RTVSPost2010Prop36
280
     0
102
RTVSPost2010PropOp36
 70
     1
102
RTVSPost2010Prop37
 90
       50
102
RTVSPost2010PropOp37
 70
     1
102
RTVSPost2010Prop38
140
0.0
102
RTVSPost2010PropOp38
 70
     1
102
RTVSPost2010Prop39
140
1.0
102
RTVSPost2010PropOp39
 70
     1
102
RTVSPost2010Prop40
 90
        0
102
RTVSPost2010PropOp40
 70
     1
102
RTVSPost2010Prop41ColorIndex
 90
       18
102
RTVSPost2010Prop41ColorRGB
 90
        0
102
RTVSPost2010PropOp41
 70
     1
102
RTVSPost2010Prop42
 90
       50
102
RTVSPost2010PropOp42
 70
     1
102
RTVSPost2010Prop43
 90
        3
102
RTVSPost2010PropOp43
 70
     1
102
RTVSPost2010Prop44ColorIndex
 90
        5
102
RTVSPost2010Prop44ColorRGB
 90
      255
102
RTVSPost2010PropOp44
 70
     1
102
RTVSPost2010Prop45
280
     0
102
RTVSPost2010PropOp45
 70
     1
102
RTVSPost2010Prop46
 90
       50
102
RTVSPost2010PropOp46
 70
     1
102
RTVSPost2010Prop47
 90
       50
102
RTVSPost2010PropOp47
 70
     1
102
RTVSPost2010Prop48
 90
       50
102
RTVSPost2010PropOp48
 70
     1
102
RTVSPost2010Prop49
280
     0
102
RTVSPost2010PropOp49
 70
     1
102
RTVSPost2010Prop50
 90
       50
102
RTVSPost2010PropOp50
 70
     1
102
RTVSPost2010Prop51ColorIndex
 90
      256
102
RTVSPost2010Prop51ColorRGB
 90
-16777216
102
RTVSPost2010PropOp51
 70
     0
102
RTVSPost2010Prop52
140
1.0
102
RTVSPost2010PropOp52
 70
     0
102
RTVSPost2010Prop53
 90
        2
102
RTVSPost2010PropOp53
 70
     1
102
RTVSPost2010Prop54
  1
strokes_ogs.tif
102
RTVSPost2010PropOp54
 70
     1
102
RTVSPost2010Prop55
280
     0
102
RTVSPost2010PropOp55
 70
     1
102
RTVSPost2010Prop56
140
1.0
102
RTVSPost2010PropOp56
 70
     1
102
RTVSPost2010Prop57
140
1.0
102
RTVSPost2010PropOp57
 70
     1
  0
XRECORD
  5
358
102
{ACAD_REACTORS
330
357
102
}
330
357
100
AcDbXrecord
280
     1
102
RTVSPropertyOp0
 70
     1
102
RTVSPropertyOp1
 70
     1
102
RTVSPropertyOp2
 70
     1
102
RTVSPropertyOp3
 70
     1
102
RTVSPropertyOp4
 70
     1
102
RTVSPropertyOp5
 70
     1
102
RTVSPropertyOp6
 70
     1
102
RTVSPropertyOp7
 70
     1
102
RTVSPropertyOp8
 70
     1
102
RTVSPropertyOp9
 70
     1
102
RTVSPropertyOp10
 70
     1
102
RTVSPropertyOp11
 70
     1
102
RTVSPropertyOp12
 70
     1
102
RTVSPropertyOp13
 70
     1
102
RTVSPropertyOp14
 70
     1
102
RTVSPropertyOp15
 70
     1
102
RTVSPropertyOp16
 70
     1
102
RTVSPropertyOp17
 70
     1
102
RTVSPropertyOp18
 70
     1
102
RTVSPropertyOp19
 70
     1
102
RTVSPropertyOp20
 70
     1
102
RTVSPropertyOp21
 70
     1
102
RTVSPropertyOp22
 70
     1
102
RTVSPropertyOp23
 70
     1
102
RTVSPropertyOp24
 70
     1
102
RTVSPropertyOp25
 70
     1
102
RTVSPropertyOp26
 70
     1
102
RTVSPropertyOp27
 70
     1
102
RTVSPropertyOp28
 70
     1
102
RTVSPropertyOp29
 70
     1
102
RTVSPropertyOp30
 70
     1
102
RTVSPropertyOp31
 70
     1
102
RTVSPropertyOp32
 70
     1
102
RTVSPropertyOp33
 70
     1
102
RTVSPropertyOp34
 70
     1
102
RTVSPropertyOp35
 70
     1
102
RTVSPropertyOp36
 70
     1
102
RTVSPropertyOp37
 70
     1
102
RTVSPropertyOp38
 70
     1
102
RTVSPropertyOp39
 70
     1
102
RTVSPropertyOp40
 70
     1
102
RTVSPropertyOp41
 70
     1
102
RTVSPropertyOp42
 70
     1
102
RTVSPropertyOp43
 70
     1
102
RTVSPropertyOp44
 70
     1
102
RTVSPropertyOp45
 70
     1
102
RTVSPropertyOp46
 70
     1
102
RTVSPropertyOp47
 70
     1
102
RTVSPropertyOp48
 70
     1
102
RTVSPropertyOp49
 70
     1
102
RTVSPropertyOp50
 70
     1
102
RTVSPropertyOp51
 70
     0
102
RTVSPropertyOp52
 70
     0
102
RTVSPropertyOp53
 70
     1
102
RTVSPropertyOp54
 70
     1
102
RTVSPropertyOp55
 70
     1
102
RTVSPropertyOp56
 70
     1
102
RTVSPropertyOp57
 70
     1
102
RTVSPost2010Prop28
280
     0
102
RTVSPost2010PropOp28
 70
     1
102
RTVSPost2010Prop29
280
     1
102
RTVSPost2010PropOp29
 70
     1
102
RTVSPost2010Prop30
280
     1
102
RTVSPost2010PropOp30
 70
     1
102
RTVSPost2010Prop31
280
     0
102
RTVSPost2010PropOp31
 70
     1
102
RTVSPost2010Prop32
280
     0
102
RTVSPost2010PropOp32
 70
     1
102
RTVSPost2010Prop33
280
     0
102
RTVSPost2010PropOp33
 70
     1
102
RTVSPost2010Prop34
280
     0
102
RTVSPost2010PropOp34
 70
     1
102
RTVSPost2010Prop35
280
     0
102
RTVSPost2010PropOp35
 70
     1
102
RTVSPost2010Prop36
280
     0
102
RTVSPost2010PropOp36
 70
     1
102
RTVSPost2010Prop37
 90
       50
102
RTVSPost2010PropOp37
 70
     1
102
RTVSPost2010Prop38
140
0.0
102
RTVSPost2010PropOp38
 70
     1
102
RTVSPost2010Prop39
140
1.0
102
RTVSPost2010PropOp39
 70
     1
102
RTVSPost2010Prop40
 90
        0
102
RTVSPost2010PropOp40
 70
     1
102
RTVSPost2010Prop41ColorIndex
 90
       18
102
RTVSPost2010Prop41ColorRGB
 90
        0
102
RTVSPost2010PropOp41
 70
     1
102
RTVSPost2010Prop42
 90
       50
102
RTVSPost2010PropOp42
 70
     1
102
RTVSPost2010Prop43
 90
        3
102
RTVSPost2010PropOp43
 70
     1
102
RTVSPost2010Prop44ColorIndex
 90
        5
102
RTVSPost2010Prop44ColorRGB
 90
      255
102
RTVSPost2010PropOp44
 70
     1
102
RTVSPost2010Prop45
280
     0
102
RTVSPost2010PropOp45
 70
     1
102
RTVSPost2010Prop46
 90
       50
102
RTVSPost2010PropOp46
 70
     1
102
RTVSPost2010Prop47
 90
       50
102
RTVSPost2010PropOp47
 70
     1
102
RTVSPost2010Prop48
 90
       50
102
RTVSPost2010PropOp48
 70
     1
102
RTVSPost2010Prop49
280
     0
102
RTVSPost2010PropOp49
 70
     1
102
RTVSPost2010Prop50
 90
       50
102
RTVSPost2010PropOp50
 70
     1
102
RTVSPost2010Prop51ColorIndex
 90
      256
102
RTVSPost2010Prop51ColorRGB
 90
-16777216
102
RTVSPost2010PropOp51
 70
     0
102
RTVSPost2010Prop52
140
1.0
102
RTVSPost2010PropOp52
 70
     0
102
RTVSPost2010Prop53
 90
        2
102
RTVSPost2010PropOp53
 70
     1
102
RTVSPost2010Prop54
  1
strokes_ogs.tif
102
RTVSPost2010PropOp54
 70
     1
102
RTVSPost2010Prop55
280
     0
102
RTVSPost2010PropOp55
 70
     1
102
RTVSPost2010Prop56
140
1.0
102
RTVSPost2010PropOp56
 70
     1
102
RTVSPost2010Prop57
140
1.0
102
RTVSPost2010PropOp57
 70
     1
  0
XRECORD
  5
35A
102
{ACAD_REACTORS
330
359
102
}
330
359
100
AcDbXrecord
280
     1
102
RTVSPropertyOp0
 70
     1
102
RTVSPropertyOp1
 70
     1
102
RTVSPropertyOp2
 70
     1
102
RTVSPropertyOp3
 70
     1
102
RTVSPropertyOp4
 70
     1
102
RTVSPropertyOp5
 70
     1
102
RTVSPropertyOp6
 70
     1
102
RTVSPropertyOp7
 70
     1
102
RTVSPropertyOp8
 70
     1
102
RTVSPropertyOp9
 70
     1
102
RTVSPropertyOp10
 70
     1
102
RTVSPropertyOp11
 70
     1
102
RTVSPropertyOp12
 70
     1
102
RTVSPropertyOp13
 70
     1
102
RTVSPropertyOp14
 70
     1
102
RTVSPropertyOp15
 70
     1
102
RTVSPropertyOp16
 70
     1
102
RTVSPropertyOp17
 70
     1
102
RTVSPropertyOp18
 70
     1
102
RTVSPropertyOp19
 70
     1
102
RTVSPropertyOp20
 70
     1
102
RTVSPropertyOp21
 70
     1
102
RTVSPropertyOp22
 70
     1
102
RTVSPropertyOp23
 70
     1
102
RTVSPropertyOp24
 70
     1
102
RTVSPropertyOp25
 70
     1
102
RTVSPropertyOp26
 70
     1
102
RTVSPropertyOp27
 70
     1
102
RTVSPropertyOp28
 70
     1
102
RTVSPropertyOp29
 70
     1
102
RTVSPropertyOp30
 70
     1
102
RTVSPropertyOp31
 70
     1
102
RTVSPropertyOp32
 70
     1
102
RTVSPropertyOp33
 70
     1
102
RTVSPropertyOp34
 70
     1
102
RTVSPropertyOp35
 70
     1
102
RTVSPropertyOp36
 70
     1
102
RTVSPropertyOp37
 70
     1
102
RTVSPropertyOp38
 70
     1
102
RTVSPropertyOp39
 70
     1
102
RTVSPropertyOp40
 70
     1
102
RTVSPropertyOp41
 70
     1
102
RTVSPropertyOp42
 70
     1
102
RTVSPropertyOp43
 70
     1
102
RTVSPropertyOp44
 70
     1
102
RTVSPropertyOp45
 70
     1
102
RTVSPropertyOp46
 70
     1
102
RTVSPropertyOp47
 70
     1
102
RTVSPropertyOp48
 70
     1
102
RTVSPropertyOp49
 70
     1
102
RTVSPropertyOp50
 70
     1
102
RTVSPropertyOp51
 70
     0
102
RTVSPropertyOp52
 70
     0
102
RTVSPropertyOp53
 70
     1
102
RTVSPropertyOp54
 70
     1
102
RTVSPropertyOp55
 70
     1
102
RTVSPropertyOp56
 70
     1
102
RTVSPropertyOp57
 70
     1
102
RTVSPost2010Prop28
280
     0
102
RTVSPost2010PropOp28
 70
     1
102
RTVSPost2010Prop29
280
     1
102
RTVSPost2010PropOp29
 70
     1
102
RTVSPost2010Prop30
280
     1
102
RTVSPost2010PropOp30
 70
     1
102
RTVSPost2010Prop31
280
     0
102
RTVSPost2010PropOp31
 70
     1
102
RTVSPost2010Prop32
280
     0
102
RTVSPost2010PropOp32
 70
     1
102
RTVSPost2010Prop33
280
     0
102
RTVSPost2010PropOp33
 70
     1
102
RTVSPost2010Prop34
280
     0
102
RTVSPost2010PropOp34
 70
     1
102
RTVSPost2010Prop35
280
     0
102
RTVSPost2010PropOp35
 70
     1
102
RTVSPost2010Prop36
280
     0
102
RTVSPost2010PropOp36
 70
     1
102
RTVSPost2010Prop37
 90
       50
102
RTVSPost2010PropOp37
 70
     1
102
RTVSPost2010Prop38
140
0.0
102
RTVSPost2010PropOp38
 70
     1
102
RTVSPost2010Prop39
140
1.0
102
RTVSPost2010PropOp39
 70
     1
102
RTVSPost2010Prop40
 90
        0
102
RTVSPost2010PropOp40
 70
     1
102
RTVSPost2010Prop41ColorIndex
 90
       18
102
RTVSPost2010Prop41ColorRGB
 90
        0
102
RTVSPost2010PropOp41
 70
     1
102
RTVSPost2010Prop42
 90
       50
102
RTVSPost2010PropOp42
 70
     1
102
RTVSPost2010Prop43
 90
        3
102
RTVSPost2010PropOp43
 70
     1
102
RTVSPost2010Prop44ColorIndex
 90
        5
102
RTVSPost2010Prop44ColorRGB
 90
      255
102
RTVSPost2010PropOp44
 70
     1
102
RTVSPost2010Prop45
280
     0
102
RTVSPost2010PropOp45
 70
     1
102
RTVSPost2010Prop46
 90
       50
102
RTVSPost2010PropOp46
 70
     1
102
RTVSPost2010Prop47
 90
       50
102
RTVSPost2010PropOp47
 70
     1
102
RTVSPost2010Prop48
 90
       50
102
RTVSPost2010PropOp48
 70
     1
102
RTVSPost2010Prop49
280
     0
102
RTVSPost2010PropOp49
 70
     1
102
RTVSPost2010Prop50
 90
       50
102
RTVSPost2010PropOp50
 70
     1
102
RTVSPost2010Prop51ColorIndex
 90
      256
102
RTVSPost2010Prop51ColorRGB
 90
-16777216
102
RTVSPost2010PropOp51
 70
     0
102
RTVSPost2010Prop52
140
1.0
102
RTVSPost2010PropOp52
 70
     0
102
RTVSPost2010Prop53
 90
        2
102
RTVSPost2010PropOp53
 70
     1
102
RTVSPost2010Prop54
  1
strokes_ogs.tif
102
RTVSPost2010PropOp54
 70
     1
102
RTVSPost2010Prop55
280
     0
102
RTVSPost2010PropOp55
 70
     1
102
RTVSPost2010Prop56
140
1.0
102
RTVSPost2010PropOp56
 70
     1
102
RTVSPost2010Prop57
140
1.0
102
RTVSPost2010PropOp57
 70
     1
  0
XRECORD
  5
36A
102
{ACAD_REACTORS
330
369
102
}
330
369
100
AcDbXrecord
280
     1
102
RTVSPropertyOp0
 70
     0
102
RTVSPropertyOp1
 70
     0
102
RTVSPropertyOp2
 70
     0
102
RTVSPropertyOp3
 70
     0
102
RTVSPropertyOp4
 70
     0
102
RTVSPropertyOp5
 70
     0
102
RTVSPropertyOp6
 70
     0
102
RTVSPropertyOp7
 70
     0
102
RTVSPropertyOp8
 70
     0
102
RTVSPropertyOp9
 70
     0
102
RTVSPropertyOp10
 70
     0
102
RTVSPropertyOp11
 70
     0
102
RTVSPropertyOp12
 70
     0
102
RTVSPropertyOp13
 70
     0
102
RTVSPropertyOp14
 70
     2
102
RTVSPropertyOp15
 70
     0
102
RTVSPropertyOp16
 70
     0
102
RTVSPropertyOp17
 70
     0
102
RTVSPropertyOp18
 70
     0
102
RTVSPropertyOp19
 70
     0
102
RTVSPropertyOp20
 70
     0
102
RTVSPropertyOp21
 70
     0
102
RTVSPropertyOp22
 70
     0
102
RTVSPropertyOp23
 70
     0
102
RTVSPropertyOp24
 70
     0
102
RTVSPropertyOp25
 70
     0
102
RTVSPropertyOp26
 70
     0
102
RTVSPropertyOp27
 70
     0
102
RTVSPropertyOp28
 70
     0
102
RTVSPropertyOp29
 70
     0
102
RTVSPropertyOp30
 70
     0
102
RTVSPropertyOp31
 70
     0
102
RTVSPropertyOp32
 70
     0
102
RTVSPropertyOp33
 70
     0
102
RTVSPropertyOp34
 70
     0
102
RTVSPropertyOp35
 70
     0
102
RTVSPropertyOp36
 70
     0
102
RTVSPropertyOp37
 70
     0
102
RTVSPropertyOp38
 70
     0
102
RTVSPropertyOp39
 70
     0
102
RTVSPropertyOp40
 70
     0
102
RTVSPropertyOp41
 70
     0
102
RTVSPropertyOp42
 70
     0
102
RTVSPropertyOp43
 70
     0
102
RTVSPropertyOp44
 70
     0
102
RTVSPropertyOp45
 70
     0
102
RTVSPropertyOp46
 70
     0
102
RTVSPropertyOp47
 70
     0
102
RTVSPropertyOp48
 70
     0
102
RTVSPropertyOp49
 70
     0
102
RTVSPropertyOp50
 70
     0
102
RTVSPropertyOp51
 70
     0
102
RTVSPropertyOp52
 70
     0
102
RTVSPropertyOp53
 70
     0
102
RTVSPropertyOp54
 70
     0
102
RTVSPropertyOp55
 70
     0
102
RTVSPropertyOp56
 70
     0
102
RTVSPropertyOp57
 70
     0
102
RTVSPost2010Prop28
280
     0
102
RTVSPost2010PropOp28
 70
     0
102
RTVSPost2010Prop29
280
     1
102
RTVSPost2010PropOp29
 70
     0
102
RTVSPost2010Prop30
280
     1
102
RTVSPost2010PropOp30
 70
     0
102
RTVSPost2010Prop31
280
     0
102
RTVSPost2010PropOp31
 70
     0
102
RTVSPost2010Prop32
280
     0
102
RTVSPost2010PropOp32
 70
     0
102
RTVSPost2010Prop33
280
     0
102
RTVSPost2010PropOp33
 70
     0
102
RTVSPost2010Prop34
280
     0
102
RTVSPost2010PropOp34
 70
     0
102
RTVSPost2010Prop35
280
     0
102
RTVSPost2010PropOp35
 70
     0
102
RTVSPost2010Prop36
280
     0
102
RTVSPost2010PropOp36
 70
     0
102
RTVSPost2010Prop37
 90
       50
102
RTVSPost2010PropOp37
 70
     0
102
RTVSPost2010Prop38
140
0.0
102
RTVSPost2010PropOp38
 70
     0
102
RTVSPost2010Prop39
140
1.0
102
RTVSPost2010PropOp39
 70
     0
102
RTVSPost2010Prop40
 90
        0
102
RTVSPost2010PropOp40
 70
     0
102
RTVSPost2010Prop41ColorIndex
 90
       18
102
RTVSPost2010Prop41ColorRGB
 90
        0
102
RTVSPost2010PropOp41
 70
     0
102
RTVSPost2010Prop42
 90
       50
102
RTVSPost2010PropOp42
 70
     0
102
RTVSPost2010Prop43
 90
        3
102
RTVSPost2010PropOp43
 70
     0
102
RTVSPost2010Prop44ColorIndex
 90
        5
102
RTVSPost2010Prop44ColorRGB
 90
      255
102
RTVSPost2010PropOp44
 70
     0
102
RTVSPost2010Prop45
280
     0
102
RTVSPost2010PropOp45
 70
     0
102
RTVSPost2010Prop46
 90
       50
102
RTVSPost2010PropOp46
 70
     0
102
RTVSPost2010Prop47
 90
       50
102
RTVSPost2010PropOp47
 70
     0
102
RTVSPost2010Prop48
 90
       50
102
RTVSPost2010PropOp48
 70
     0
102
RTVSPost2010Prop49
280
     0
102
RTVSPost2010PropOp49
 70
     0
102
RTVSPost2010Prop50
 90
       50
102
RTVSPost2010PropOp50
 70
     0
102
RTVSPost2010Prop51ColorIndex
 90
      256
102
RTVSPost2010Prop51ColorRGB
 90
-16777216
102
RTVSPost2010PropOp51
 70
     0
102
RTVSPost2010Prop52
140
1.0
102
RTVSPost2010PropOp52
 70
     0
102
RTVSPost2010Prop53
 90
        2
102
RTVSPost2010PropOp53
 70
     0
102
RTVSPost2010Prop54
  1
strokes_ogs.tif
102
RTVSPost2010PropOp54
 70
     0
102
RTVSPost2010Prop55
280
     0
102
RTVSPost2010PropOp55
 70
     0
102
RTVSPost2010Prop56
140
1.0
102
RTVSPost2010PropOp56
 70
     0
102
RTVSPost2010Prop57
140
1.0
102
RTVSPost2010PropOp57
 70
     0
  0
XRECORD
  5
362
102
{ACAD_REACTORS
330
361
102
}
330
361
100
AcDbXrecord
280
     1
102
RTVSPropertyOp0
 70
     1
102
RTVSPropertyOp1
 70
     1
102
RTVSPropertyOp2
 70
     1
102
RTVSPropertyOp3
 70
     1
102
RTVSPropertyOp4
 70
     1
102
RTVSPropertyOp5
 70
     1
102
RTVSPropertyOp6
 70
     1
102
RTVSPropertyOp7
 70
     1
102
RTVSPropertyOp8
 70
     1
102
RTVSPropertyOp9
 70
     1
102
RTVSPropertyOp10
 70
     1
102
RTVSPropertyOp11
 70
     1
102
RTVSPropertyOp12
 70
     1
102
RTVSPropertyOp13
 70
     1
102
RTVSPropertyOp14
 70
     1
102
RTVSPropertyOp15
 70
     1
102
RTVSPropertyOp16
 70
     1
102
RTVSPropertyOp17
 70
     1
102
RTVSPropertyOp18
 70
     1
102
RTVSPropertyOp19
 70
     1
102
RTVSPropertyOp20
 70
     1
102
RTVSPropertyOp21
 70
     1
102
RTVSPropertyOp22
 70
     1
102
RTVSPropertyOp23
 70
     1
102
RTVSPropertyOp24
 70
     1
102
RTVSPropertyOp25
 70
     1
102
RTVSPropertyOp26
 70
     1
102
RTVSPropertyOp27
 70
     1
102
RTVSPropertyOp28
 70
     1
102
RTVSPropertyOp29
 70
     1
102
RTVSPropertyOp30
 70
     1
102
RTVSPropertyOp31
 70
     1
102
RTVSPropertyOp32
 70
     1
102
RTVSPropertyOp33
 70
     1
102
RTVSPropertyOp34
 70
     1
102
RTVSPropertyOp35
 70
     1
102
RTVSPropertyOp36
 70
     1
102
RTVSPropertyOp37
 70
     1
102
RTVSPropertyOp38
 70
     1
102
RTVSPropertyOp39
 70
     1
102
RTVSPropertyOp40
 70
     1
102
RTVSPropertyOp41
 70
     1
102
RTVSPropertyOp42
 70
     1
102
RTVSPropertyOp43
 70
     1
102
RTVSPropertyOp44
 70
     1
102
RTVSPropertyOp45
 70
     1
102
RTVSPropertyOp46
 70
     1
102
RTVSPropertyOp47
 70
     1
102
RTVSPropertyOp48
 70
     1
102
RTVSPropertyOp49
 70
     1
102
RTVSPropertyOp50
 70
     1
102
RTVSPropertyOp51
 70
     0
102
RTVSPropertyOp52
 70
     0
102
RTVSPropertyOp53
 70
     1
102
RTVSPropertyOp54
 70
     1
102
RTVSPropertyOp55
 70
     1
102
RTVSPropertyOp56
 70
     1
102
RTVSPropertyOp57
 70
     1
102
RTVSPost2010Prop28
280
     0
102
RTVSPost2010PropOp28
 70
     1
102
RTVSPost2010Prop29
280
     1
102
RTVSPost2010PropOp29
 70
     1
102
RTVSPost2010Prop30
280
     1
102
RTVSPost2010PropOp30
 70
     1
102
RTVSPost2010Prop31
280
     0
102
RTVSPost2010PropOp31
 70
     1
102
RTVSPost2010Prop32
280
     0
102
RTVSPost2010PropOp32
 70
     1
102
RTVSPost2010Prop33
280
     0
102
RTVSPost2010PropOp33
 70
     1
102
RTVSPost2010Prop34
280
     0
102
RTVSPost2010PropOp34
 70
     1
102
RTVSPost2010Prop35
280
     0
102
RTVSPost2010PropOp35
 70
     1
102
RTVSPost2010Prop36
280
     0
102
RTVSPost2010PropOp36
 70
     1
102
RTVSPost2010Prop37
 90
       50
102
RTVSPost2010PropOp37
 70
     1
102
RTVSPost2010Prop38
140
0.0
102
RTVSPost2010PropOp38
 70
     1
102
RTVSPost2010Prop39
140
1.0
102
RTVSPost2010PropOp39
 70
     1
102
RTVSPost2010Prop40
 90
        0
102
RTVSPost2010PropOp40
 70
     1
102
RTVSPost2010Prop41ColorIndex
 90
       18
102
RTVSPost2010Prop41ColorRGB
 90
        0
102
RTVSPost2010PropOp41
 70
     1
102
RTVSPost2010Prop42
 90
       50
102
RTVSPost2010PropOp42
 70
     1
102
RTVSPost2010Prop43
 90
        3
102
RTVSPost2010PropOp43
 70
     1
102
RTVSPost2010Prop44ColorIndex
 90
        5
102
RTVSPost2010Prop44ColorRGB
 90
      255
102
RTVSPost2010PropOp44
 70
     1
102
RTVSPost2010Prop45
280
     0
102
RTVSPost2010PropOp45
 70
     1
102
RTVSPost2010Prop46
 90
       50
102
RTVSPost2010PropOp46
 70
     1
102
RTVSPost2010Prop47
 90
       50
102
RTVSPost2010PropOp47
 70
     1
102
RTVSPost2010Prop48
 90
       50
102
RTVSPost2010PropOp48
 70
     1
102
RTVSPost2010Prop49
280
     0
102
RTVSPost2010PropOp49
 70
     1
102
RTVSPost2010Prop50
 90
       50
102
RTVSPost2010PropOp50
 70
     1
102
RTVSPost2010Prop51ColorIndex
 90
      256
102
RTVSPost2010Prop51ColorRGB
 90
-16777216
102
RTVSPost2010PropOp51
 70
     0
102
RTVSPost2010Prop52
140
1.0
102
RTVSPost2010PropOp52
 70
     0
102
RTVSPost2010Prop53
 90
        2
102
RTVSPost2010PropOp53
 70
     1
102
RTVSPost2010Prop54
  1
strokes_ogs.tif
102
RTVSPost2010PropOp54
 70
     1
102
RTVSPost2010Prop55
280
     0
102
RTVSPost2010PropOp55
 70
     1
102
RTVSPost2010Prop56
140
1.0
102
RTVSPost2010PropOp56
 70
     1
102
RTVSPost2010Prop57
140
1.0
102
RTVSPost2010PropOp57
 70
     1
  0
XRECORD
  5
346
102
{ACAD_REACTORS
330
345
102
}
330
345
100
AcDbXrecord
280
     1
102
RTVSPropertyOp0
 70
     1
102
RTVSPropertyOp1
 70
     1
102
RTVSPropertyOp2
 70
     1
102
RTVSPropertyOp3
 70
     1
102
RTVSPropertyOp4
 70
     1
102
RTVSPropertyOp5
 70
     1
102
RTVSPropertyOp6
 70
     1
102
RTVSPropertyOp7
 70
     1
102
RTVSPropertyOp8
 70
     1
102
RTVSPropertyOp9
 70
     1
102
RTVSPropertyOp10
 70
     1
102
RTVSPropertyOp11
 70
     1
102
RTVSPropertyOp12
 70
     1
102
RTVSPropertyOp13
 70
     1
102
RTVSPropertyOp14
 70
     1
102
RTVSPropertyOp15
 70
     1
102
RTVSPropertyOp16
 70
     1
102
RTVSPropertyOp17
 70
     1
102
RTVSPropertyOp18
 70
     1
102
RTVSPropertyOp19
 70
     1
102
RTVSPropertyOp20
 70
     1
102
RTVSPropertyOp21
 70
     1
102
RTVSPropertyOp22
 70
     1
102
RTVSPropertyOp23
 70
     1
102
RTVSPropertyOp24
 70
     1
102
RTVSPropertyOp25
 70
     1
102
RTVSPropertyOp26
 70
     1
102
RTVSPropertyOp27
 70
     1
102
RTVSPropertyOp28
 70
     1
102
RTVSPropertyOp29
 70
     1
102
RTVSPropertyOp30
 70
     1
102
RTVSPropertyOp31
 70
     1
102
RTVSPropertyOp32
 70
     1
102
RTVSPropertyOp33
 70
     1
102
RTVSPropertyOp34
 70
     1
102
RTVSPropertyOp35
 70
     1
102
RTVSPropertyOp36
 70
     1
102
RTVSPropertyOp37
 70
     1
102
RTVSPropertyOp38
 70
     1
102
RTVSPropertyOp39
 70
     1
102
RTVSPropertyOp40
 70
     1
102
RTVSPropertyOp41
 70
     1
102
RTVSPropertyOp42
 70
     1
102
RTVSPropertyOp43
 70
     1
102
RTVSPropertyOp44
 70
     1
102
RTVSPropertyOp45
 70
     1
102
RTVSPropertyOp46
 70
     1
102
RTVSPropertyOp47
 70
     1
102
RTVSPropertyOp48
 70
     1
102
RTVSPropertyOp49
 70
     1
102
RTVSPropertyOp50
 70
     1
102
RTVSPropertyOp51
 70
     0
102
RTVSPropertyOp52
 70
     0
102
RTVSPropertyOp53
 70
     1
102
RTVSPropertyOp54
 70
     1
102
RTVSPropertyOp55
 70
     1
102
RTVSPropertyOp56
 70
     1
102
RTVSPropertyOp57
 70
     1
102
RTVSPost2010Prop28
280
     0
102
RTVSPost2010PropOp28
 70
     1
102
RTVSPost2010Prop29
280
     1
102
RTVSPost2010PropOp29
 70
     1
102
RTVSPost2010Prop30
280
     1
102
RTVSPost2010PropOp30
 70
     1
102
RTVSPost2010Prop31
280
     0
102
RTVSPost2010PropOp31
 70
     1
102
RTVSPost2010Prop32
280
     0
102
RTVSPost2010PropOp32
 70
     1
102
RTVSPost2010Prop33
280
     0
102
RTVSPost2010PropOp33
 70
     1
102
RTVSPost2010Prop34
280
     0
102
RTVSPost2010PropOp34
 70
     1
102
RTVSPost2010Prop35
280
     0
102
RTVSPost2010PropOp35
 70
     1
102
RTVSPost2010Prop36
280
     0
102
RTVSPost2010PropOp36
 70
     1
102
RTVSPost2010Prop37
 90
       50
102
RTVSPost2010PropOp37
 70
     1
102
RTVSPost2010Prop38
140
0.0
102
RTVSPost2010PropOp38
 70
     1
102
RTVSPost2010Prop39
140
1.0
102
RTVSPost2010PropOp39
 70
     1
102
RTVSPost2010Prop40
 90
        0
102
RTVSPost2010PropOp40
 70
     1
102
RTVSPost2010Prop41ColorIndex
 90
       18
102
RTVSPost2010Prop41ColorRGB
 90
        0
102
RTVSPost2010PropOp41
 70
     1
102
RTVSPost2010Prop42
 90
       50
102
RTVSPost2010PropOp42
 70
     1
102
RTVSPost2010Prop43
 90
        3
102
RTVSPost2010PropOp43
 70
     1
102
RTVSPost2010Prop44ColorIndex
 90
        5
102
RTVSPost2010Prop44ColorRGB
 90
      255
102
RTVSPost2010PropOp44
 70
     1
102
RTVSPost2010Prop45
280
     0
102
RTVSPost2010PropOp45
 70
     1
102
RTVSPost2010Prop46
 90
       50
102
RTVSPost2010PropOp46
 70
     1
102
RTVSPost2010Prop47
 90
       50
102
RTVSPost2010PropOp47
 70
     1
102
RTVSPost2010Prop48
 90
       50
102
RTVSPost2010PropOp48
 70
     1
102
RTVSPost2010Prop49
280
     0
102
RTVSPost2010PropOp49
 70
     1
102
RTVSPost2010Prop50
 90
       50
102
RTVSPost2010PropOp50
 70
     1
102
RTVSPost2010Prop51ColorIndex
 90
      256
102
RTVSPost2010Prop51ColorRGB
 90
-16777216
102
RTVSPost2010PropOp51
 70
     0
102
RTVSPost2010Prop52
140
1.0
102
RTVSPost2010PropOp52
 70
     0
102
RTVSPost2010Prop53
 90
        2
102
RTVSPost2010PropOp53
 70
     1
102
RTVSPost2010Prop54
  1
strokes_ogs.tif
102
RTVSPost2010PropOp54
 70
     1
102
RTVSPost2010Prop55
280
     0
102
RTVSPost2010PropOp55
 70
     1
102
RTVSPost2010Prop56
140
1.0
102
RTVSPost2010PropOp56
 70
     1
102
RTVSPost2010Prop57
140
1.0
102
RTVSPost2010PropOp57
 70
     1
  0
XRECORD
  5
348
102
{ACAD_REACTORS
330
347
102
}
330
347
100
AcDbXrecord
280
     1
102
RTVSPropertyOp0
 70
     1
102
RTVSPropertyOp1
 70
     1
102
RTVSPropertyOp2
 70
     1
102
RTVSPropertyOp3
 70
     1
102
RTVSPropertyOp4
 70
     1
102
RTVSPropertyOp5
 70
     1
102
RTVSPropertyOp6
 70
     1
102
RTVSPropertyOp7
 70
     1
102
RTVSPropertyOp8
 70
     1
102
RTVSPropertyOp9
 70
     1
102
RTVSPropertyOp10
 70
     1
102
RTVSPropertyOp11
 70
     1
102
RTVSPropertyOp12
 70
     1
102
RTVSPropertyOp13
 70
     1
102
RTVSPropertyOp14
 70
     1
102
RTVSPropertyOp15
 70
     1
102
RTVSPropertyOp16
 70
     1
102
RTVSPropertyOp17
 70
     1
102
RTVSPropertyOp18
 70
     1
102
RTVSPropertyOp19
 70
     1
102
RTVSPropertyOp20
 70
     1
102
RTVSPropertyOp21
 70
     1
102
RTVSPropertyOp22
 70
     1
102
RTVSPropertyOp23
 70
     1
102
RTVSPropertyOp24
 70
     1
102
RTVSPropertyOp25
 70
     1
102
RTVSPropertyOp26
 70
     1
102
RTVSPropertyOp27
 70
     1
102
RTVSPropertyOp28
 70
     1
102
RTVSPropertyOp29
 70
     1
102
RTVSPropertyOp30
 70
     1
102
RTVSPropertyOp31
 70
     1
102
RTVSPropertyOp32
 70
     1
102
RTVSPropertyOp33
 70
     1
102
RTVSPropertyOp34
 70
     1
102
RTVSPropertyOp35
 70
     1
102
RTVSPropertyOp36
 70
     1
102
RTVSPropertyOp37
 70
     1
102
RTVSPropertyOp38
 70
     1
102
RTVSPropertyOp39
 70
     1
102
RTVSPropertyOp40
 70
     1
102
RTVSPropertyOp41
 70
     1
102
RTVSPropertyOp42
 70
     1
102
RTVSPropertyOp43
 70
     1
102
RTVSPropertyOp44
 70
     1
102
RTVSPropertyOp45
 70
     1
102
RTVSPropertyOp46
 70
     1
102
RTVSPropertyOp47
 70
     1
102
RTVSPropertyOp48
 70
     1
102
RTVSPropertyOp49
 70
     1
102
RTVSPropertyOp50
 70
     1
102
RTVSPropertyOp51
 70
     0
102
RTVSPropertyOp52
 70
     0
102
RTVSPropertyOp53
 70
     1
102
RTVSPropertyOp54
 70
     1
102
RTVSPropertyOp55
 70
     1
102
RTVSPropertyOp56
 70
     1
102
RTVSPropertyOp57
 70
     1
102
RTVSPost2010Prop28
280
     0
102
RTVSPost2010PropOp28
 70
     1
102
RTVSPost2010Prop29
280
     1
102
RTVSPost2010PropOp29
 70
     1
102
RTVSPost2010Prop30
280
     1
102
RTVSPost2010PropOp30
 70
     1
102
RTVSPost2010Prop31
280
     0
102
RTVSPost2010PropOp31
 70
     1
102
RTVSPost2010Prop32
280
     0
102
RTVSPost2010PropOp32
 70
     1
102
RTVSPost2010Prop33
280
     0
102
RTVSPost2010PropOp33
 70
     1
102
RTVSPost2010Prop34
280
     0
102
RTVSPost2010PropOp34
 70
     1
102
RTVSPost2010Prop35
280
     0
102
RTVSPost2010PropOp35
 70
     1
102
RTVSPost2010Prop36
280
     0
102
RTVSPost2010PropOp36
 70
     1
102
RTVSPost2010Prop37
 90
       50
102
RTVSPost2010PropOp37
 70
     1
102
RTVSPost2010Prop38
140
0.0
102
RTVSPost2010PropOp38
 70
     1
102
RTVSPost2010Prop39
140
1.0
102
RTVSPost2010PropOp39
 70
     1
102
RTVSPost2010Prop40
 90
        0
102
RTVSPost2010PropOp40
 70
     1
102
RTVSPost2010Prop41ColorIndex
 90
       18
102
RTVSPost2010Prop41ColorRGB
 90
        0
102
RTVSPost2010PropOp41
 70
     1
102
RTVSPost2010Prop42
 90
       50
102
RTVSPost2010PropOp42
 70
     1
102
RTVSPost2010Prop43
 90
        3
102
RTVSPost2010PropOp43
 70
     1
102
RTVSPost2010Prop44ColorIndex
 90
        5
102
RTVSPost2010Prop44ColorRGB
 90
      255
102
RTVSPost2010PropOp44
 70
     1
102
RTVSPost2010Prop45
280
     0
102
RTVSPost2010PropOp45
 70
     1
102
RTVSPost2010Prop46
 90
       50
102
RTVSPost2010PropOp46
 70
     1
102
RTVSPost2010Prop47
 90
       50
102
RTVSPost2010PropOp47
 70
     1
102
RTVSPost2010Prop48
 90
       50
102
RTVSPost2010PropOp48
 70
     1
102
RTVSPost2010Prop49
280
     0
102
RTVSPost2010PropOp49
 70
     1
102
RTVSPost2010Prop50
 90
       50
102
RTVSPost2010PropOp50
 70
     1
102
RTVSPost2010Prop51ColorIndex
 90
      256
102
RTVSPost2010Prop51ColorRGB
 90
-16777216
102
RTVSPost2010PropOp51
 70
     0
102
RTVSPost2010Prop52
140
1.0
102
RTVSPost2010PropOp52
 70
     0
102
RTVSPost2010Prop53
 90
        2
102
RTVSPost2010PropOp53
 70
     1
102
RTVSPost2010Prop54
  1
strokes_ogs.tif
102
RTVSPost2010PropOp54
 70
     1
102
RTVSPost2010Prop55
280
     0
102
RTVSPost2010PropOp55
 70
     1
102
RTVSPost2010Prop56
140
1.0
102
RTVSPost2010PropOp56
 70
     1
102
RTVSPost2010Prop57
140
1.0
102
RTVSPost2010PropOp57
 70
     1
  0
XRECORD
  5
34A
102
{ACAD_REACTORS
330
349
102
}
330
349
100
AcDbXrecord
280
     1
102
RTVSPropertyOp0
 70
     1
102
RTVSPropertyOp1
 70
     1
102
RTVSPropertyOp2
 70
     1
102
RTVSPropertyOp3
 70
     1
102
RTVSPropertyOp4
 70
     1
102
RTVSPropertyOp5
 70
     1
102
RTVSPropertyOp6
 70
     1
102
RTVSPropertyOp7
 70
     1
102
RTVSPropertyOp8
 70
     1
102
RTVSPropertyOp9
 70
     1
102
RTVSPropertyOp10
 70
     1
102
RTVSPropertyOp11
 70
     1
102
RTVSPropertyOp12
 70
     1
102
RTVSPropertyOp13
 70
     1
102
RTVSPropertyOp14
 70
     1
102
RTVSPropertyOp15
 70
     1
102
RTVSPropertyOp16
 70
     1
102
RTVSPropertyOp17
 70
     1
102
RTVSPropertyOp18
 70
     1
102
RTVSPropertyOp19
 70
     1
102
RTVSPropertyOp20
 70
     1
102
RTVSPropertyOp21
 70
     1
102
RTVSPropertyOp22
 70
     1
102
RTVSPropertyOp23
 70
     1
102
RTVSPropertyOp24
 70
     1
102
RTVSPropertyOp25
 70
     1
102
RTVSPropertyOp26
 70
     1
102
RTVSPropertyOp27
 70
     1
102
RTVSPropertyOp28
 70
     1
102
RTVSPropertyOp29
 70
     1
102
RTVSPropertyOp30
 70
     1
102
RTVSPropertyOp31
 70
     1
102
RTVSPropertyOp32
 70
     1
102
RTVSPropertyOp33
 70
     1
102
RTVSPropertyOp34
 70
     1
102
RTVSPropertyOp35
 70
     1
102
RTVSPropertyOp36
 70
     1
102
RTVSPropertyOp37
 70
     1
102
RTVSPropertyOp38
 70
     1
102
RTVSPropertyOp39
 70
     1
102
RTVSPropertyOp40
 70
     1
102
RTVSPropertyOp41
 70
     1
102
RTVSPropertyOp42
 70
     1
102
RTVSPropertyOp43
 70
     1
102
RTVSPropertyOp44
 70
     1
102
RTVSPropertyOp45
 70
     1
102
RTVSPropertyOp46
 70
     1
102
RTVSPropertyOp47
 70
     1
102
RTVSPropertyOp48
 70
     1
102
RTVSPropertyOp49
 70
     1
102
RTVSPropertyOp50
 70
     1
102
RTVSPropertyOp51
 70
     0
102
RTVSPropertyOp52
 70
     0
102
RTVSPropertyOp53
 70
     1
102
RTVSPropertyOp54
 70
     1
102
RTVSPropertyOp55
 70
     1
102
RTVSPropertyOp56
 70
     1
102
RTVSPropertyOp57
 70
     1
102
RTVSPost2010Prop28
280
     0
102
RTVSPost2010PropOp28
 70
     1
102
RTVSPost2010Prop29
280
     1
102
RTVSPost2010PropOp29
 70
     1
102
RTVSPost2010Prop30
280
     1
102
RTVSPost2010PropOp30
 70
     1
102
RTVSPost2010Prop31
280
     0
102
RTVSPost2010PropOp31
 70
     1
102
RTVSPost2010Prop32
280
     0
102
RTVSPost2010PropOp32
 70
     1
102
RTVSPost2010Prop33
280
     0
102
RTVSPost2010PropOp33
 70
     1
102
RTVSPost2010Prop34
280
     0
102
RTVSPost2010PropOp34
 70
     1
102
RTVSPost2010Prop35
280
     0
102
RTVSPost2010PropOp35
 70
     1
102
RTVSPost2010Prop36
280
     0
102
RTVSPost2010PropOp36
 70
     1
102
RTVSPost2010Prop37
 90
       50
102
RTVSPost2010PropOp37
 70
     1
102
RTVSPost2010Prop38
140
0.0
102
RTVSPost2010PropOp38
 70
     1
102
RTVSPost2010Prop39
140
1.0
102
RTVSPost2010PropOp39
 70
     1
102
RTVSPost2010Prop40
 90
        0
102
RTVSPost2010PropOp40
 70
     1
102
RTVSPost2010Prop41ColorIndex
 90
       18
102
RTVSPost2010Prop41ColorRGB
 90
        0
102
RTVSPost2010PropOp41
 70
     1
102
RTVSPost2010Prop42
 90
       50
102
RTVSPost2010PropOp42
 70
     1
102
RTVSPost2010Prop43
 90
        3
102
RTVSPost2010PropOp43
 70
     1
102
RTVSPost2010Prop44ColorIndex
 90
        5
102
RTVSPost2010Prop44ColorRGB
 90
      255
102
RTVSPost2010PropOp44
 70
     1
102
RTVSPost2010Prop45
280
     0
102
RTVSPost2010PropOp45
 70
     1
102
RTVSPost2010Prop46
 90
       50
102
RTVSPost2010PropOp46
 70
     1
102
RTVSPost2010Prop47
 90
       50
102
RTVSPost2010PropOp47
 70
     1
102
RTVSPost2010Prop48
 90
       50
102
RTVSPost2010PropOp48
 70
     1
102
RTVSPost2010Prop49
280
     0
102
RTVSPost2010PropOp49
 70
     1
102
RTVSPost2010Prop50
 90
       50
102
RTVSPost2010PropOp50
 70
     1
102
RTVSPost2010Prop51ColorIndex
 90
      256
102
RTVSPost2010Prop51ColorRGB
 90
-16777216
102
RTVSPost2010PropOp51
 70
     0
102
RTVSPost2010Prop52
140
1.0
102
RTVSPost2010PropOp52
 70
     0
102
RTVSPost2010Prop53
 90
        2
102
RTVSPost2010PropOp53
 70
     1
102
RTVSPost2010Prop54
  1
strokes_ogs.tif
102
RTVSPost2010PropOp54
 70
     1
102
RTVSPost2010Prop55
280
     0
102
RTVSPost2010PropOp55
 70
     1
102
RTVSPost2010Prop56
140
1.0
102
RTVSPost2010PropOp56
 70
     1
102
RTVSPost2010Prop57
140
1.0
102
RTVSPost2010PropOp57
 70
     1
  0
XRECORD
  5
34C
102
{ACAD_REACTORS
330
34B
102
}
330
34B
100
AcDbXrecord
280
     1
102
RTVSPropertyOp0
 70
     1
102
RTVSPropertyOp1
 70
     1
102
RTVSPropertyOp2
 70
     1
102
RTVSPropertyOp3
 70
     1
102
RTVSPropertyOp4
 70
     1
102
RTVSPropertyOp5
 70
     1
102
RTVSPropertyOp6
 70
     1
102
RTVSPropertyOp7
 70
     1
102
RTVSPropertyOp8
 70
     1
102
RTVSPropertyOp9
 70
     1
102
RTVSPropertyOp10
 70
     1
102
RTVSPropertyOp11
 70
     1
102
RTVSPropertyOp12
 70
     1
102
RTVSPropertyOp13
 70
     1
102
RTVSPropertyOp14
 70
     1
102
RTVSPropertyOp15
 70
     1
102
RTVSPropertyOp16
 70
     1
102
RTVSPropertyOp17
 70
     1
102
RTVSPropertyOp18
 70
     1
102
RTVSPropertyOp19
 70
     1
102
RTVSPropertyOp20
 70
     1
102
RTVSPropertyOp21
 70
     1
102
RTVSPropertyOp22
 70
     1
102
RTVSPropertyOp23
 70
     1
102
RTVSPropertyOp24
 70
     1
102
RTVSPropertyOp25
 70
     1
102
RTVSPropertyOp26
 70
     1
102
RTVSPropertyOp27
 70
     1
102
RTVSPropertyOp28
 70
     1
102
RTVSPropertyOp29
 70
     1
102
RTVSPropertyOp30
 70
     1
102
RTVSPropertyOp31
 70
     1
102
RTVSPropertyOp32
 70
     1
102
RTVSPropertyOp33
 70
     1
102
RTVSPropertyOp34
 70
     1
102
RTVSPropertyOp35
 70
     1
102
RTVSPropertyOp36
 70
     1
102
RTVSPropertyOp37
 70
     1
102
RTVSPropertyOp38
 70
     1
102
RTVSPropertyOp39
 70
     1
102
RTVSPropertyOp40
 70
     1
102
RTVSPropertyOp41
 70
     1
102
RTVSPropertyOp42
 70
     1
102
RTVSPropertyOp43
 70
     1
102
RTVSPropertyOp44
 70
     1
102
RTVSPropertyOp45
 70
     1
102
RTVSPropertyOp46
 70
     1
102
RTVSPropertyOp47
 70
     1
102
RTVSPropertyOp48
 70
     1
102
RTVSPropertyOp49
 70
     1
102
RTVSPropertyOp50
 70
     1
102
RTVSPropertyOp51
 70
     0
102
RTVSPropertyOp52
 70
     0
102
RTVSPropertyOp53
 70
     1
102
RTVSPropertyOp54
 70
     1
102
RTVSPropertyOp55
 70
     1
102
RTVSPropertyOp56
 70
     1
102
RTVSPropertyOp57
 70
     1
102
RTVSPost2010Prop28
280
     0
102
RTVSPost2010PropOp28
 70
     1
102
RTVSPost2010Prop29
280
     1
102
RTVSPost2010PropOp29
 70
     1
102
RTVSPost2010Prop30
280
     1
102
RTVSPost2010PropOp30
 70
     1
102
RTVSPost2010Prop31
280
     0
102
RTVSPost2010PropOp31
 70
     1
102
RTVSPost2010Prop32
280
     0
102
RTVSPost2010PropOp32
 70
     1
102
RTVSPost2010Prop33
280
     0
102
RTVSPost2010PropOp33
 70
     1
102
RTVSPost2010Prop34
280
     0
102
RTVSPost2010PropOp34
 70
     1
102
RTVSPost2010Prop35
280
     0
102
RTVSPost2010PropOp35
 70
     1
102
RTVSPost2010Prop36
280
     0
102
RTVSPost2010PropOp36
 70
     1
102
RTVSPost2010Prop37
 90
       50
102
RTVSPost2010PropOp37
 70
     1
102
RTVSPost2010Prop38
140
0.0
102
RTVSPost2010PropOp38
 70
     1
102
RTVSPost2010Prop39
140
1.0
102
RTVSPost2010PropOp39
 70
     1
102
RTVSPost2010Prop40
 90
        0
102
RTVSPost2010PropOp40
 70
     1
102
RTVSPost2010Prop41ColorIndex
 90
       18
102
RTVSPost2010Prop41ColorRGB
 90
        0
102
RTVSPost2010PropOp41
 70
     1
102
RTVSPost2010Prop42
 90
       50
102
RTVSPost2010PropOp42
 70
     1
102
RTVSPost2010Prop43
 90
        3
102
RTVSPost2010PropOp43
 70
     1
102
RTVSPost2010Prop44ColorIndex
 90
        5
102
RTVSPost2010Prop44ColorRGB
 90
      255
102
RTVSPost2010PropOp44
 70
     1
102
RTVSPost2010Prop45
280
     0
102
RTVSPost2010PropOp45
 70
     1
102
RTVSPost2010Prop46
 90
       50
102
RTVSPost2010PropOp46
 70
     1
102
RTVSPost2010Prop47
 90
       50
102
RTVSPost2010PropOp47
 70
     1
102
RTVSPost2010Prop48
 90
       50
102
RTVSPost2010PropOp48
 70
     1
102
RTVSPost2010Prop49
280
     0
102
RTVSPost2010PropOp49
 70
     1
102
RTVSPost2010Prop50
 90
       50
102
RTVSPost2010PropOp50
 70
     1
102
RTVSPost2010Prop51ColorIndex
 90
      256
102
RTVSPost2010Prop51ColorRGB
 90
-16777216
102
RTVSPost2010PropOp51
 70
     0
102
RTVSPost2010Prop52
140
1.0
102
RTVSPost2010PropOp52
 70
     0
102
RTVSPost2010Prop53
 90
        2
102
RTVSPost2010PropOp53
 70
     1
102
RTVSPost2010Prop54
  1
strokes_ogs.tif
102
RTVSPost2010PropOp54
 70
     1
102
RTVSPost2010Prop55
280
     0
102
RTVSPost2010PropOp55
 70
     1
102
RTVSPost2010Prop56
140
1.0
102
RTVSPost2010PropOp56
 70
     1
102
RTVSPost2010Prop57
140
1.0
102
RTVSPost2010PropOp57
 70
     1
  0
XRECORD
  5
352
102
{ACAD_REACTORS
330
351
102
}
330
351
100
AcDbXrecord
280
     1
102
RTVSPropertyOp0
 70
     1
102
RTVSPropertyOp1
 70
     1
102
RTVSPropertyOp2
 70
     1
102
RTVSPropertyOp3
 70
     1
102
RTVSPropertyOp4
 70
     1
102
RTVSPropertyOp5
 70
     1
102
RTVSPropertyOp6
 70
     1
102
RTVSPropertyOp7
 70
     1
102
RTVSPropertyOp8
 70
     1
102
RTVSPropertyOp9
 70
     1
102
RTVSPropertyOp10
 70
     1
102
RTVSPropertyOp11
 70
     1
102
RTVSPropertyOp12
 70
     1
102
RTVSPropertyOp13
 70
     1
102
RTVSPropertyOp14
 70
     1
102
RTVSPropertyOp15
 70
     1
102
RTVSPropertyOp16
 70
     1
102
RTVSPropertyOp17
 70
     1
102
RTVSPropertyOp18
 70
     1
102
RTVSPropertyOp19
 70
     1
102
RTVSPropertyOp20
 70
     1
102
RTVSPropertyOp21
 70
     1
102
RTVSPropertyOp22
 70
     1
102
RTVSPropertyOp23
 70
     1
102
RTVSPropertyOp24
 70
     1
102
RTVSPropertyOp25
 70
     1
102
RTVSPropertyOp26
 70
     1
102
RTVSPropertyOp27
 70
     1
102
RTVSPropertyOp28
 70
     1
102
RTVSPropertyOp29
 70
     1
102
RTVSPropertyOp30
 70
     1
102
RTVSPropertyOp31
 70
     1
102
RTVSPropertyOp32
 70
     1
102
RTVSPropertyOp33
 70
     1
102
RTVSPropertyOp34
 70
     1
102
RTVSPropertyOp35
 70
     1
102
RTVSPropertyOp36
 70
     1
102
RTVSPropertyOp37
 70
     1
102
RTVSPropertyOp38
 70
     1
102
RTVSPropertyOp39
 70
     1
102
RTVSPropertyOp40
 70
     1
102
RTVSPropertyOp41
 70
     1
102
RTVSPropertyOp42
 70
     1
102
RTVSPropertyOp43
 70
     1
102
RTVSPropertyOp44
 70
     1
102
RTVSPropertyOp45
 70
     1
102
RTVSPropertyOp46
 70
     1
102
RTVSPropertyOp47
 70
     1
102
RTVSPropertyOp48
 70
     1
102
RTVSPropertyOp49
 70
     1
102
RTVSPropertyOp50
 70
     1
102
RTVSPropertyOp51
 70
     0
102
RTVSPropertyOp52
 70
     0
102
RTVSPropertyOp53
 70
     1
102
RTVSPropertyOp54
 70
     1
102
RTVSPropertyOp55
 70
     1
102
RTVSPropertyOp56
 70
     1
102
RTVSPropertyOp57
 70
     1
102
RTVSPost2010Prop28
280
     0
102
RTVSPost2010PropOp28
 70
     1
102
RTVSPost2010Prop29
280
     1
102
RTVSPost2010PropOp29
 70
     1
102
RTVSPost2010Prop30
280
     1
102
RTVSPost2010PropOp30
 70
     1
102
RTVSPost2010Prop31
280
     0
102
RTVSPost2010PropOp31
 70
     1
102
RTVSPost2010Prop32
280
     0
102
RTVSPost2010PropOp32
 70
     1
102
RTVSPost2010Prop33
280
     0
102
RTVSPost2010PropOp33
 70
     1
102
RTVSPost2010Prop34
280
     0
102
RTVSPost2010PropOp34
 70
     1
102
RTVSPost2010Prop35
280
     0
102
RTVSPost2010PropOp35
 70
     1
102
RTVSPost2010Prop36
280
     0
102
RTVSPost2010PropOp36
 70
     1
102
RTVSPost2010Prop37
 90
       50
102
RTVSPost2010PropOp37
 70
     1
102
RTVSPost2010Prop38
140
0.0
102
RTVSPost2010PropOp38
 70
     1
102
RTVSPost2010Prop39
140
1.0
102
RTVSPost2010PropOp39
 70
     1
102
RTVSPost2010Prop40
 90
        0
102
RTVSPost2010PropOp40
 70
     1
102
RTVSPost2010Prop41ColorIndex
 90
       18
102
RTVSPost2010Prop41ColorRGB
 90
        0
102
RTVSPost2010PropOp41
 70
     1
102
RTVSPost2010Prop42
 90
       50
102
RTVSPost2010PropOp42
 70
     1
102
RTVSPost2010Prop43
 90
        3
102
RTVSPost2010PropOp43
 70
     1
102
RTVSPost2010Prop44ColorIndex
 90
        5
102
RTVSPost2010Prop44ColorRGB
 90
      255
102
RTVSPost2010PropOp44
 70
     1
102
RTVSPost2010Prop45
280
     0
102
RTVSPost2010PropOp45
 70
     1
102
RTVSPost2010Prop46
 90
       50
102
RTVSPost2010PropOp46
 70
     1
102
RTVSPost2010Prop47
 90
       50
102
RTVSPost2010PropOp47
 70
     1
102
RTVSPost2010Prop48
 90
       50
102
RTVSPost2010PropOp48
 70
     1
102
RTVSPost2010Prop49
280
     0
102
RTVSPost2010PropOp49
 70
     1
102
RTVSPost2010Prop50
 90
       50
102
RTVSPost2010PropOp50
 70
     1
102
RTVSPost2010Prop51ColorIndex
 90
      256
102
RTVSPost2010Prop51ColorRGB
 90
-16777216
102
RTVSPost2010PropOp51
 70
     0
102
RTVSPost2010Prop52
140
1.0
102
RTVSPost2010PropOp52
 70
     0
102
RTVSPost2010Prop53
 90
        2
102
RTVSPost2010PropOp53
 70
     1
102
RTVSPost2010Prop54
  1
strokes_ogs.tif
102
RTVSPost2010PropOp54
 70
     1
102
RTVSPost2010Prop55
280
     0
102
RTVSPost2010PropOp55
 70
     1
102
RTVSPost2010Prop56
140
1.0
102
RTVSPost2010PropOp56
 70
     1
102
RTVSPost2010Prop57
140
1.0
102
RTVSPost2010PropOp57
 70
     1
  0
XRECORD
  5
366
102
{ACAD_REACTORS
330
365
102
}
330
365
100
AcDbXrecord
280
     1
102
RTVSPropertyOp0
 70
     0
102
RTVSPropertyOp1
 70
     0
102
RTVSPropertyOp2
 70
     0
102
RTVSPropertyOp3
 70
     0
102
RTVSPropertyOp4
 70
     0
102
RTVSPropertyOp5
 70
     0
102
RTVSPropertyOp6
 70
     0
102
RTVSPropertyOp7
 70
     0
102
RTVSPropertyOp8
 70
     0
102
RTVSPropertyOp9
 70
     0
102
RTVSPropertyOp10
 70
     0
102
RTVSPropertyOp11
 70
     0
102
RTVSPropertyOp12
 70
     0
102
RTVSPropertyOp13
 70
     0
102
RTVSPropertyOp14
 70
     2
102
RTVSPropertyOp15
 70
     0
102
RTVSPropertyOp16
 70
     0
102
RTVSPropertyOp17
 70
     0
102
RTVSPropertyOp18
 70
     0
102
RTVSPropertyOp19
 70
     0
102
RTVSPropertyOp20
 70
     0
102
RTVSPropertyOp21
 70
     0
102
RTVSPropertyOp22
 70
     0
102
RTVSPropertyOp23
 70
     0
102
RTVSPropertyOp24
 70
     0
102
RTVSPropertyOp25
 70
     0
102
RTVSPropertyOp26
 70
     0
102
RTVSPropertyOp27
 70
     0
102
RTVSPropertyOp28
 70
     0
102
RTVSPropertyOp29
 70
     0
102
RTVSPropertyOp30
 70
     0
102
RTVSPropertyOp31
 70
     0
102
RTVSPropertyOp32
 70
     0
102
RTVSPropertyOp33
 70
     0
102
RTVSPropertyOp34
 70
     0
102
RTVSPropertyOp35
 70
     0
102
RTVSPropertyOp36
 70
     0
102
RTVSPropertyOp37
 70
     0
102
RTVSPropertyOp38
 70
     0
102
RTVSPropertyOp39
 70
     0
102
RTVSPropertyOp40
 70
     0
102
RTVSPropertyOp41
 70
     0
102
RTVSPropertyOp42
 70
     0
102
RTVSPropertyOp43
 70
     0
102
RTVSPropertyOp44
 70
     0
102
RTVSPropertyOp45
 70
     0
102
RTVSPropertyOp46
 70
     0
102
RTVSPropertyOp47
 70
     0
102
RTVSPropertyOp48
 70
     0
102
RTVSPropertyOp49
 70
     0
102
RTVSPropertyOp50
 70
     0
102
RTVSPropertyOp51
 70
     0
102
RTVSPropertyOp52
 70
     0
102
RTVSPropertyOp53
 70
     0
102
RTVSPropertyOp54
 70
     0
102
RTVSPropertyOp55
 70
     0
102
RTVSPropertyOp56
 70
     0
102
RTVSPropertyOp57
 70
     0
102
RTVSPost2010Prop28
280
     0
102
RTVSPost2010PropOp28
 70
     0
102
RTVSPost2010Prop29
280
     1
102
RTVSPost2010PropOp29
 70
     0
102
RTVSPost2010Prop30
280
     1
102
RTVSPost2010PropOp30
 70
     0
102
RTVSPost2010Prop31
280
     0
102
RTVSPost2010PropOp31
 70
     0
102
RTVSPost2010Prop32
280
     0
102
RTVSPost2010PropOp32
 70
     0
102
RTVSPost2010Prop33
280
     0
102
RTVSPost2010PropOp33
 70
     0
102
RTVSPost2010Prop34
280
     0
102
RTVSPost2010PropOp34
 70
     0
102
RTVSPost2010Prop35
280
     0
102
RTVSPost2010PropOp35
 70
     0
102
RTVSPost2010Prop36
280
     0
102
RTVSPost2010PropOp36
 70
     0
102
RTVSPost2010Prop37
 90
       50
102
RTVSPost2010PropOp37
 70
     0
102
RTVSPost2010Prop38
140
0.0
102
RTVSPost2010PropOp38
 70
     0
102
RTVSPost2010Prop39
140
1.0
102
RTVSPost2010PropOp39
 70
     0
102
RTVSPost2010Prop40
 90
        0
102
RTVSPost2010PropOp40
 70
     0
102
RTVSPost2010Prop41ColorIndex
 90
       18
102
RTVSPost2010Prop41ColorRGB
 90
        0
102
RTVSPost2010PropOp41
 70
     0
102
RTVSPost2010Prop42
 90
       50
102
RTVSPost2010PropOp42
 70
     0
102
RTVSPost2010Prop43
 90
        3
102
RTVSPost2010PropOp43
 70
     0
102
RTVSPost2010Prop44ColorIndex
 90
        5
102
RTVSPost2010Prop44ColorRGB
 90
      255
102
RTVSPost2010PropOp44
 70
     0
102
RTVSPost2010Prop45
280
     0
102
RTVSPost2010PropOp45
 70
     0
102
RTVSPost2010Prop46
 90
       50
102
RTVSPost2010PropOp46
 70
     0
102
RTVSPost2010Prop47
 90
       50
102
RTVSPost2010PropOp47
 70
     0
102
RTVSPost2010Prop48
 90
       50
102
RTVSPost2010PropOp48
 70
     0
102
RTVSPost2010Prop49
280
     0
102
RTVSPost2010PropOp49
 70
     0
102
RTVSPost2010Prop50
 90
       50
102
RTVSPost2010PropOp50
 70
     0
102
RTVSPost2010Prop51ColorIndex
 90
      256
102
RTVSPost2010Prop51ColorRGB
 90
-16777216
102
RTVSPost2010PropOp51
 70
     0
102
RTVSPost2010Prop52
140
1.0
102
RTVSPost2010PropOp52
 70
     0
102
RTVSPost2010Prop53
 90
        2
102
RTVSPost2010PropOp53
 70
     0
102
RTVSPost2010Prop54
  1
strokes_ogs.tif
102
RTVSPost2010PropOp54
 70
     0
102
RTVSPost2010Prop55
280
     0
102
RTVSPost2010PropOp55
 70
     0
102
RTVSPost2010Prop56
140
1.0
102
RTVSPost2010PropOp56
 70
     0
102
RTVSPost2010Prop57
140
1.0
102
RTVSPost2010PropOp57
 70
     0
  0
XRECORD
  5
360
102
{ACAD_REACTORS
330
35F
102
}
330
35F
100
AcDbXrecord
280
     1
102
RTVSPropertyOp0
 70
     1
102
RTVSPropertyOp1
 70
     1
102
RTVSPropertyOp2
 70
     1
102
RTVSPropertyOp3
 70
     1
102
RTVSPropertyOp4
 70
     1
102
RTVSPropertyOp5
 70
     1
102
RTVSPropertyOp6
 70
     1
102
RTVSPropertyOp7
 70
     1
102
RTVSPropertyOp8
 70
     1
102
RTVSPropertyOp9
 70
     1
102
RTVSPropertyOp10
 70
     1
102
RTVSPropertyOp11
 70
     1
102
RTVSPropertyOp12
 70
     1
102
RTVSPropertyOp13
 70
     1
102
RTVSPropertyOp14
 70
     1
102
RTVSPropertyOp15
 70
     1
102
RTVSPropertyOp16
 70
     1
102
RTVSPropertyOp17
 70
     1
102
RTVSPropertyOp18
 70
     1
102
RTVSPropertyOp19
 70
     1
102
RTVSPropertyOp20
 70
     1
102
RTVSPropertyOp21
 70
     1
102
RTVSPropertyOp22
 70
     1
102
RTVSPropertyOp23
 70
     1
102
RTVSPropertyOp24
 70
     1
102
RTVSPropertyOp25
 70
     1
102
RTVSPropertyOp26
 70
     1
102
RTVSPropertyOp27
 70
     1
102
RTVSPropertyOp28
 70
     1
102
RTVSPropertyOp29
 70
     1
102
RTVSPropertyOp30
 70
     1
102
RTVSPropertyOp31
 70
     1
102
RTVSPropertyOp32
 70
     1
102
RTVSPropertyOp33
 70
     1
102
RTVSPropertyOp34
 70
     1
102
RTVSPropertyOp35
 70
     1
102
RTVSPropertyOp36
 70
     1
102
RTVSPropertyOp37
 70
     1
102
RTVSPropertyOp38
 70
     1
102
RTVSPropertyOp39
 70
     1
102
RTVSPropertyOp40
 70
     1
102
RTVSPropertyOp41
 70
     1
102
RTVSPropertyOp42
 70
     1
102
RTVSPropertyOp43
 70
     1
102
RTVSPropertyOp44
 70
     1
102
RTVSPropertyOp45
 70
     1
102
RTVSPropertyOp46
 70
     1
102
RTVSPropertyOp47
 70
     1
102
RTVSPropertyOp48
 70
     1
102
RTVSPropertyOp49
 70
     1
102
RTVSPropertyOp50
 70
     1
102
RTVSPropertyOp51
 70
     0
102
RTVSPropertyOp52
 70
     0
102
RTVSPropertyOp53
 70
     1
102
RTVSPropertyOp54
 70
     1
102
RTVSPropertyOp55
 70
     1
102
RTVSPropertyOp56
 70
     1
102
RTVSPropertyOp57
 70
     1
102
RTVSPost2010Prop28
280
     0
102
RTVSPost2010PropOp28
 70
     1
102
RTVSPost2010Prop29
280
     1
102
RTVSPost2010PropOp29
 70
     1
102
RTVSPost2010Prop30
280
     1
102
RTVSPost2010PropOp30
 70
     1
102
RTVSPost2010Prop31
280
     0
102
RTVSPost2010PropOp31
 70
     1
102
RTVSPost2010Prop32
280
     0
102
RTVSPost2010PropOp32
 70
     1
102
RTVSPost2010Prop33
280
     0
102
RTVSPost2010PropOp33
 70
     1
102
RTVSPost2010Prop34
280
     0
102
RTVSPost2010PropOp34
 70
     1
102
RTVSPost2010Prop35
280
     0
102
RTVSPost2010PropOp35
 70
     1
102
RTVSPost2010Prop36
280
     0
102
RTVSPost2010PropOp36
 70
     1
102
RTVSPost2010Prop37
 90
       50
102
RTVSPost2010PropOp37
 70
     1
102
RTVSPost2010Prop38
140
0.0
102
RTVSPost2010PropOp38
 70
     1
102
RTVSPost2010Prop39
140
1.0
102
RTVSPost2010PropOp39
 70
     1
102
RTVSPost2010Prop40
 90
        0
102
RTVSPost2010PropOp40
 70
     1
102
RTVSPost2010Prop41ColorIndex
 90
       18
102
RTVSPost2010Prop41ColorRGB
 90
        0
102
RTVSPost2010PropOp41
 70
     1
102
RTVSPost2010Prop42
 90
       50
102
RTVSPost2010PropOp42
 70
     1
102
RTVSPost2010Prop43
 90
        3
102
RTVSPost2010PropOp43
 70
     1
102
RTVSPost2010Prop44ColorIndex
 90
        5
102
RTVSPost2010Prop44ColorRGB
 90
      255
102
RTVSPost2010PropOp44
 70
     1
102
RTVSPost2010Prop45
280
     0
102
RTVSPost2010PropOp45
 70
     1
102
RTVSPost2010Prop46
 90
       50
102
RTVSPost2010PropOp46
 70
     1
102
RTVSPost2010Prop47
 90
       50
102
RTVSPost2010PropOp47
 70
     1
102
RTVSPost2010Prop48
 90
       50
102
RTVSPost2010PropOp48
 70
     1
102
RTVSPost2010Prop49
280
     0
102
RTVSPost2010PropOp49
 70
     1
102
RTVSPost2010Prop50
 90
       50
102
RTVSPost2010PropOp50
 70
     1
102
RTVSPost2010Prop51ColorIndex
 90
      256
102
RTVSPost2010Prop51ColorRGB
 90
-16777216
102
RTVSPost2010PropOp51
 70
     0
102
RTVSPost2010Prop52
140
1.0
102
RTVSPost2010PropOp52
 70
     0
102
RTVSPost2010Prop53
 90
        2
102
RTVSPost2010PropOp53
 70
     1
102
RTVSPost2010Prop54
  1
strokes_ogs.tif
102
RTVSPost2010PropOp54
 70
     1
102
RTVSPost2010Prop55
280
     0
102
RTVSPost2010PropOp55
 70
     1
102
RTVSPost2010Prop56
140
1.0
102
RTVSPost2010PropOp56
 70
     1
102
RTVSPost2010Prop57
140
1.0
102
RTVSPost2010PropOp57
 70
     1
  0
XRECORD
  5
368
102
{ACAD_REACTORS
330
367
102
}
330
367
100
AcDbXrecord
280
     1
102
RTVSPropertyOp0
 70
     0
102
RTVSPropertyOp1
 70
     0
102
RTVSPropertyOp2
 70
     0
102
RTVSPropertyOp3
 70
     0
102
RTVSPropertyOp4
 70
     0
102
RTVSPropertyOp5
 70
     0
102
RTVSPropertyOp6
 70
     0
102
RTVSPropertyOp7
 70
     0
102
RTVSPropertyOp8
 70
     0
102
RTVSPropertyOp9
 70
     0
102
RTVSPropertyOp10
 70
     0
102
RTVSPropertyOp11
 70
     0
102
RTVSPropertyOp12
 70
     0
102
RTVSPropertyOp13
 70
     0
102
RTVSPropertyOp14
 70
     2
102
RTVSPropertyOp15
 70
     0
102
RTVSPropertyOp16
 70
     0
102
RTVSPropertyOp17
 70
     0
102
RTVSPropertyOp18
 70
     0
102
RTVSPropertyOp19
 70
     0
102
RTVSPropertyOp20
 70
     0
102
RTVSPropertyOp21
 70
     0
102
RTVSPropertyOp22
 70
     0
102
RTVSPropertyOp23
 70
     0
102
RTVSPropertyOp24
 70
     0
102
RTVSPropertyOp25
 70
     0
102
RTVSPropertyOp26
 70
     0
102
RTVSPropertyOp27
 70
     0
102
RTVSPropertyOp28
 70
     0
102
RTVSPropertyOp29
 70
     0
102
RTVSPropertyOp30
 70
     0
102
RTVSPropertyOp31
 70
     0
102
RTVSPropertyOp32
 70
     0
102
RTVSPropertyOp33
 70
     0
102
RTVSPropertyOp34
 70
     0
102
RTVSPropertyOp35
 70
     0
102
RTVSPropertyOp36
 70
     0
102
RTVSPropertyOp37
 70
     0
102
RTVSPropertyOp38
 70
     0
102
RTVSPropertyOp39
 70
     0
102
RTVSPropertyOp40
 70
     0
102
RTVSPropertyOp41
 70
     0
102
RTVSPropertyOp42
 70
     0
102
RTVSPropertyOp43
 70
     0
102
RTVSPropertyOp44
 70
     0
102
RTVSPropertyOp45
 70
     0
102
RTVSPropertyOp46
 70
     0
102
RTVSPropertyOp47
 70
     0
102
RTVSPropertyOp48
 70
     0
102
RTVSPropertyOp49
 70
     0
102
RTVSPropertyOp50
 70
     0
102
RTVSPropertyOp51
 70
     0
102
RTVSPropertyOp52
 70
     0
102
RTVSPropertyOp53
 70
     0
102
RTVSPropertyOp54
 70
     0
102
RTVSPropertyOp55
 70
     0
102
RTVSPropertyOp56
 70
     0
102
RTVSPropertyOp57
 70
     0
102
RTVSPost2010Prop28
280
     0
102
RTVSPost2010PropOp28
 70
     0
102
RTVSPost2010Prop29
280
     1
102
RTVSPost2010PropOp29
 70
     0
102
RTVSPost2010Prop30
280
     1
102
RTVSPost2010PropOp30
 70
     0
102
RTVSPost2010Prop31
280
     0
102
RTVSPost2010PropOp31
 70
     0
102
RTVSPost2010Prop32
280
     0
102
RTVSPost2010PropOp32
 70
     0
102
RTVSPost2010Prop33
280
     0
102
RTVSPost2010PropOp33
 70
     0
102
RTVSPost2010Prop34
280
     0
102
RTVSPost2010PropOp34
 70
     0
102
RTVSPost2010Prop35
280
     0
102
RTVSPost2010PropOp35
 70
     0
102
RTVSPost2010Prop36
280
     0
102
RTVSPost2010PropOp36
 70
     0
102
RTVSPost2010Prop37
 90
       50
102
RTVSPost2010PropOp37
 70
     0
102
RTVSPost2010Prop38
140
0.0
102
RTVSPost2010PropOp38
 70
     0
102
RTVSPost2010Prop39
140
1.0
102
RTVSPost2010PropOp39
 70
     0
102
RTVSPost2010Prop40
 90
        0
102
RTVSPost2010PropOp40
 70
     0
102
RTVSPost2010Prop41ColorIndex
 90
       18
102
RTVSPost2010Prop41ColorRGB
 90
        0
102
RTVSPost2010PropOp41
 70
     0
102
RTVSPost2010Prop42
 90
       50
102
RTVSPost2010PropOp42
 70
     0
102
RTVSPost2010Prop43
 90
        3
102
RTVSPost2010PropOp43
 70
     0
102
RTVSPost2010Prop44ColorIndex
 90
        5
102
RTVSPost2010Prop44ColorRGB
 90
      255
102
RTVSPost2010PropOp44
 70
     0
102
RTVSPost2010Prop45
280
     0
102
RTVSPost2010PropOp45
 70
     0
102
RTVSPost2010Prop46
 90
       50
102
RTVSPost2010PropOp46
 70
     0
102
RTVSPost2010Prop47
 90
       50
102
RTVSPost2010PropOp47
 70
     0
102
RTVSPost2010Prop48
 90
       50
102
RTVSPost2010PropOp48
 70
     0
102
RTVSPost2010Prop49
280
     0
102
RTVSPost2010PropOp49
 70
     0
102
RTVSPost2010Prop50
 90
       50
102
RTVSPost2010PropOp50
 70
     0
102
RTVSPost2010Prop51ColorIndex
 90
      256
102
RTVSPost2010Prop51ColorRGB
 90
-16777216
102
RTVSPost2010PropOp51
 70
     0
102
RTVSPost2010Prop52
140
1.0
102
RTVSPost2010PropOp52
 70
     0
102
RTVSPost2010Prop53
 90
        2
102
RTVSPost2010PropOp53
 70
     0
102
RTVSPost2010Prop54
  1
strokes_ogs.tif
102
RTVSPost2010PropOp54
 70
     0
102
RTVSPost2010Prop55
280
     0
102
RTVSPost2010PropOp55
 70
     0
102
RTVSPost2010Prop56
140
1.0
102
RTVSPost2010PropOp56
 70
     0
102
RTVSPost2010Prop57
140
1.0
102
RTVSPost2010PropOp57
 70
     0
  0
XRECORD
  5
356
102
{ACAD_REACTORS
330
355
102
}
330
355
100
AcDbXrecord
280
     1
102
RTVSPropertyOp0
 70
     1
102
RTVSPropertyOp1
 70
     1
102
RTVSPropertyOp2
 70
     1
102
RTVSPropertyOp3
 70
     1
102
RTVSPropertyOp4
 70
     1
102
RTVSPropertyOp5
 70
     1
102
RTVSPropertyOp6
 70
     1
102
RTVSPropertyOp7
 70
     1
102
RTVSPropertyOp8
 70
     1
102
RTVSPropertyOp9
 70
     1
102
RTVSPropertyOp10
 70
     1
102
RTVSPropertyOp11
 70
     1
102
RTVSPropertyOp12
 70
     1
102
RTVSPropertyOp13
 70
     1
102
RTVSPropertyOp14
 70
     1
102
RTVSPropertyOp15
 70
     1
102
RTVSPropertyOp16
 70
     1
102
RTVSPropertyOp17
 70
     1
102
RTVSPropertyOp18
 70
     1
102
RTVSPropertyOp19
 70
     1
102
RTVSPropertyOp20
 70
     1
102
RTVSPropertyOp21
 70
     1
102
RTVSPropertyOp22
 70
     1
102
RTVSPropertyOp23
 70
     1
102
RTVSPropertyOp24
 70
     1
102
RTVSPropertyOp25
 70
     1
102
RTVSPropertyOp26
 70
     1
102
RTVSPropertyOp27
 70
     1
102
RTVSPropertyOp28
 70
     1
102
RTVSPropertyOp29
 70
     1
102
RTVSPropertyOp30
 70
     1
102
RTVSPropertyOp31
 70
     1
102
RTVSPropertyOp32
 70
     1
102
RTVSPropertyOp33
 70
     1
102
RTVSPropertyOp34
 70
     1
102
RTVSPropertyOp35
 70
     1
102
RTVSPropertyOp36
 70
     1
102
RTVSPropertyOp37
 70
     1
102
RTVSPropertyOp38
 70
     1
102
RTVSPropertyOp39
 70
     1
102
RTVSPropertyOp40
 70
     1
102
RTVSPropertyOp41
 70
     1
102
RTVSPropertyOp42
 70
     1
102
RTVSPropertyOp43
 70
     1
102
RTVSPropertyOp44
 70
     1
102
RTVSPropertyOp45
 70
     1
102
RTVSPropertyOp46
 70
     1
102
RTVSPropertyOp47
 70
     1
102
RTVSPropertyOp48
 70
     1
102
RTVSPropertyOp49
 70
     1
102
RTVSPropertyOp50
 70
     1
102
RTVSPropertyOp51
 70
     0
102
RTVSPropertyOp52
 70
     0
102
RTVSPropertyOp53
 70
     1
102
RTVSPropertyOp54
 70
     1
102
RTVSPropertyOp55
 70
     1
102
RTVSPropertyOp56
 70
     1
102
RTVSPropertyOp57
 70
     1
102
RTVSPost2010Prop28
280
     0
102
RTVSPost2010PropOp28
 70
     1
102
RTVSPost2010Prop29
280
     1
102
RTVSPost2010PropOp29
 70
     1
102
RTVSPost2010Prop30
280
     1
102
RTVSPost2010PropOp30
 70
     1
102
RTVSPost2010Prop31
280
     0
102
RTVSPost2010PropOp31
 70
     1
102
RTVSPost2010Prop32
280
     0
102
RTVSPost2010PropOp32
 70
     1
102
RTVSPost2010Prop33
280
     0
102
RTVSPost2010PropOp33
 70
     1
102
RTVSPost2010Prop34
280
     0
102
RTVSPost2010PropOp34
 70
     1
102
RTVSPost2010Prop35
280
     0
102
RTVSPost2010PropOp35
 70
     1
102
RTVSPost2010Prop36
280
     0
102
RTVSPost2010PropOp36
 70
     1
102
RTVSPost2010Prop37
 90
       50
102
RTVSPost2010PropOp37
 70
     1
102
RTVSPost2010Prop38
140
0.0
102
RTVSPost2010PropOp38
 70
     1
102
RTVSPost2010Prop39
140
1.0
102
RTVSPost2010PropOp39
 70
     1
102
RTVSPost2010Prop40
 90
        0
102
RTVSPost2010PropOp40
 70
     1
102
RTVSPost2010Prop41ColorIndex
 90
       18
102
RTVSPost2010Prop41ColorRGB
 90
        0
102
RTVSPost2010PropOp41
 70
     1
102
RTVSPost2010Prop42
 90
       50
102
RTVSPost2010PropOp42
 70
     1
102
RTVSPost2010Prop43
 90
        3
102
RTVSPost2010PropOp43
 70
     1
102
RTVSPost2010Prop44ColorIndex
 90
        5
102
RTVSPost2010Prop44ColorRGB
 90
      255
102
RTVSPost2010PropOp44
 70
     1
102
RTVSPost2010Prop45
280
     0
102
RTVSPost2010PropOp45
 70
     1
102
RTVSPost2010Prop46
 90
       50
102
RTVSPost2010PropOp46
 70
     1
102
RTVSPost2010Prop47
 90
       50
102
RTVSPost2010PropOp47
 70
     1
102
RTVSPost2010Prop48
 90
       50
102
RTVSPost2010PropOp48
 70
     1
102
RTVSPost2010Prop49
280
     0
102
RTVSPost2010PropOp49
 70
     1
102
RTVSPost2010Prop50
 90
       50
102
RTVSPost2010PropOp50
 70
     1
102
RTVSPost2010Prop51ColorIndex
 90
      256
102
RTVSPost2010Prop51ColorRGB
 90
-16777216
102
RTVSPost2010PropOp51
 70
     0
102
RTVSPost2010Prop52
140
1.0
102
RTVSPost2010PropOp52
 70
     0
102
RTVSPost2010Prop53
 90
        2
102
RTVSPost2010PropOp53
 70
     1
102
RTVSPost2010Prop54
  1
strokes_ogs.tif
102
RTVSPost2010PropOp54
 70
     1
102
RTVSPost2010Prop55
280
     0
102
RTVSPost2010PropOp55
 70
     1
102
RTVSPost2010Prop56
140
1.0
102
RTVSPost2010PropOp56
 70
     1
102
RTVSPost2010Prop57
140
1.0
102
RTVSPost2010PropOp57
 70
     1
  0
XRECORD
  5
374
102
{ACAD_REACTORS
330
373
102
}
330
373
100
AcDbXrecord
280
     1
102
RTVSPropertyOp0
 70
     1
102
RTVSPropertyOp1
 70
     1
102
RTVSPropertyOp2
 70
     1
102
RTVSPropertyOp3
 70
     1
102
RTVSPropertyOp4
 70
     1
102
RTVSPropertyOp5
 70
     1
102
RTVSPropertyOp6
 70
     1
102
RTVSPropertyOp7
 70
     1
102
RTVSPropertyOp8
 70
     1
102
RTVSPropertyOp9
 70
     1
102
RTVSPropertyOp10
 70
     1
102
RTVSPropertyOp11
 70
     1
102
RTVSPropertyOp12
 70
     1
102
RTVSPropertyOp13
 70
     1
102
RTVSPropertyOp14
 70
     1
102
RTVSPropertyOp15
 70
     1
102
RTVSPropertyOp16
 70
     1
102
RTVSPropertyOp17
 70
     1
102
RTVSPropertyOp18
 70
     1
102
RTVSPropertyOp19
 70
     1
102
RTVSPropertyOp20
 70
     1
102
RTVSPropertyOp21
 70
     1
102
RTVSPropertyOp22
 70
     1
102
RTVSPropertyOp23
 70
     1
102
RTVSPropertyOp24
 70
     1
102
RTVSPropertyOp25
 70
     1
102
RTVSPropertyOp26
 70
     1
102
RTVSPropertyOp27
 70
     1
102
RTVSPropertyOp28
 70
     1
102
RTVSPropertyOp29
 70
     1
102
RTVSPropertyOp30
 70
     1
102
RTVSPropertyOp31
 70
     1
102
RTVSPropertyOp32
 70
     1
102
RTVSPropertyOp33
 70
     1
102
RTVSPropertyOp34
 70
     1
102
RTVSPropertyOp35
 70
     1
102
RTVSPropertyOp36
 70
     1
102
RTVSPropertyOp37
 70
     1
102
RTVSPropertyOp38
 70
     1
102
RTVSPropertyOp39
 70
     1
102
RTVSPropertyOp40
 70
     1
102
RTVSPropertyOp41
 70
     1
102
RTVSPropertyOp42
 70
     1
102
RTVSPropertyOp43
 70
     1
102
RTVSPropertyOp44
 70
     1
102
RTVSPropertyOp45
 70
     1
102
RTVSPropertyOp46
 70
     1
102
RTVSPropertyOp47
 70
     1
102
RTVSPropertyOp48
 70
     1
102
RTVSPropertyOp49
 70
     1
102
RTVSPropertyOp50
 70
     1
102
RTVSPropertyOp51
 70
     0
102
RTVSPropertyOp52
 70
     0
102
RTVSPropertyOp53
 70
     1
102
RTVSPropertyOp54
 70
     1
102
RTVSPropertyOp55
 70
     1
102
RTVSPropertyOp56
 70
     1
102
RTVSPropertyOp57
 70
     1
102
RTVSPost2010Prop28
280
     0
102
RTVSPost2010PropOp28
 70
     1
102
RTVSPost2010Prop29
280
     1
102
RTVSPost2010PropOp29
 70
     1
102
RTVSPost2010Prop30
280
     1
102
RTVSPost2010PropOp30
 70
     1
102
RTVSPost2010Prop31
280
     0
102
RTVSPost2010PropOp31
 70
     1
102
RTVSPost2010Prop32
280
     0
102
RTVSPost2010PropOp32
 70
     1
102
RTVSPost2010Prop33
280
     0
102
RTVSPost2010PropOp33
 70
     1
102
RTVSPost2010Prop34
280
     0
102
RTVSPost2010PropOp34
 70
     1
102
RTVSPost2010Prop35
280
     0
102
RTVSPost2010PropOp35
 70
     1
102
RTVSPost2010Prop36
280
     0
102
RTVSPost2010PropOp36
 70
     1
102
RTVSPost2010Prop37
 90
       50
102
RTVSPost2010PropOp37
 70
     1
102
RTVSPost2010Prop38
140
0.0
102
RTVSPost2010PropOp38
 70
     1
102
RTVSPost2010Prop39
140
1.0
102
RTVSPost2010PropOp39
 70
     1
102
RTVSPost2010Prop40
 90
        0
102
RTVSPost2010PropOp40
 70
     1
102
RTVSPost2010Prop41ColorIndex
 90
       18
102
RTVSPost2010Prop41ColorRGB
 90
        0
102
RTVSPost2010PropOp41
 70
     1
102
RTVSPost2010Prop42
 90
       50
102
RTVSPost2010PropOp42
 70
     1
102
RTVSPost2010Prop43
 90
        3
102
RTVSPost2010PropOp43
 70
     1
102
RTVSPost2010Prop44ColorIndex
 90
        5
102
RTVSPost2010Prop44ColorRGB
 90
      255
102
RTVSPost2010PropOp44
 70
     1
102
RTVSPost2010Prop45
280
     0
102
RTVSPost2010PropOp45
 70
     1
102
RTVSPost2010Prop46
 90
       50
102
RTVSPost2010PropOp46
 70
     1
102
RTVSPost2010Prop47
 90
       50
102
RTVSPost2010PropOp47
 70
     1
102
RTVSPost2010Prop48
 90
       50
102
RTVSPost2010PropOp48
 70
     1
102
RTVSPost2010Prop49
280
     0
102
RTVSPost2010PropOp49
 70
     1
102
RTVSPost2010Prop50
 90
       50
102
RTVSPost2010PropOp50
 70
     1
102
RTVSPost2010Prop51ColorIndex
 90
      256
102
RTVSPost2010Prop51ColorRGB
 90
-16777216
102
RTVSPost2010PropOp51
 70
     0
102
RTVSPost2010Prop52
140
1.0
102
RTVSPost2010PropOp52
 70
     0
102
RTVSPost2010Prop53
 90
        2
102
RTVSPost2010PropOp53
 70
     1
102
RTVSPost2010Prop54
  1
strokes_ogs.tif
102
RTVSPost2010PropOp54
 70
     1
102
RTVSPost2010Prop55
280
     0
102
RTVSPost2010PropOp55
 70
     1
102
RTVSPost2010Prop56
140
1.0
102
RTVSPost2010PropOp56
 70
     1
102
RTVSPost2010Prop57
140
1.0
102
RTVSPost2010PropOp57
 70
     1
  0
XRECORD
  5
372
102
{ACAD_REACTORS
330
371
102
}
330
371
100
AcDbXrecord
280
     1
102
RTVSPropertyOp0
 70
     1
102
RTVSPropertyOp1
 70
     1
102
RTVSPropertyOp2
 70
     1
102
RTVSPropertyOp3
 70
     1
102
RTVSPropertyOp4
 70
     1
102
RTVSPropertyOp5
 70
     1
102
RTVSPropertyOp6
 70
     1
102
RTVSPropertyOp7
 70
     1
102
RTVSPropertyOp8
 70
     1
102
RTVSPropertyOp9
 70
     1
102
RTVSPropertyOp10
 70
     1
102
RTVSPropertyOp11
 70
     1
102
RTVSPropertyOp12
 70
     1
102
RTVSPropertyOp13
 70
     1
102
RTVSPropertyOp14
 70
     1
102
RTVSPropertyOp15
 70
     1
102
RTVSPropertyOp16
 70
     1
102
RTVSPropertyOp17
 70
     1
102
RTVSPropertyOp18
 70
     1
102
RTVSPropertyOp19
 70
     1
102
RTVSPropertyOp20
 70
     1
102
RTVSPropertyOp21
 70
     1
102
RTVSPropertyOp22
 70
     1
102
RTVSPropertyOp23
 70
     1
102
RTVSPropertyOp24
 70
     1
102
RTVSPropertyOp25
 70
     1
102
RTVSPropertyOp26
 70
     1
102
RTVSPropertyOp27
 70
     1
102
RTVSPropertyOp28
 70
     1
102
RTVSPropertyOp29
 70
     1
102
RTVSPropertyOp30
 70
     1
102
RTVSPropertyOp31
 70
     1
102
RTVSPropertyOp32
 70
     1
102
RTVSPropertyOp33
 70
     1
102
RTVSPropertyOp34
 70
     1
102
RTVSPropertyOp35
 70
     1
102
RTVSPropertyOp36
 70
     1
102
RTVSPropertyOp37
 70
     1
102
RTVSPropertyOp38
 70
     1
102
RTVSPropertyOp39
 70
     1
102
RTVSPropertyOp40
 70
     1
102
RTVSPropertyOp41
 70
     1
102
RTVSPropertyOp42
 70
     1
102
RTVSPropertyOp43
 70
     1
102
RTVSPropertyOp44
 70
     1
102
RTVSPropertyOp45
 70
     1
102
RTVSPropertyOp46
 70
     1
102
RTVSPropertyOp47
 70
     1
102
RTVSPropertyOp48
 70
     1
102
RTVSPropertyOp49
 70
     1
102
RTVSPropertyOp50
 70
     1
102
RTVSPropertyOp51
 70
     0
102
RTVSPropertyOp52
 70
     0
102
RTVSPropertyOp53
 70
     1
102
RTVSPropertyOp54
 70
     1
102
RTVSPropertyOp55
 70
     1
102
RTVSPropertyOp56
 70
     1
102
RTVSPropertyOp57
 70
     1
102
RTVSPost2010Prop28
280
     0
102
RTVSPost2010PropOp28
 70
     1
102
RTVSPost2010Prop29
280
     1
102
RTVSPost2010PropOp29
 70
     1
102
RTVSPost2010Prop30
280
     1
102
RTVSPost2010PropOp30
 70
     1
102
RTVSPost2010Prop31
280
     0
102
RTVSPost2010PropOp31
 70
     1
102
RTVSPost2010Prop32
280
     0
102
RTVSPost2010PropOp32
 70
     1
102
RTVSPost2010Prop33
280
     0
102
RTVSPost2010PropOp33
 70
     1
102
RTVSPost2010Prop34
280
     0
102
RTVSPost2010PropOp34
 70
     1
102
RTVSPost2010Prop35
280
     0
102
RTVSPost2010PropOp35
 70
     1
102
RTVSPost2010Prop36
280
     0
102
RTVSPost2010PropOp36
 70
     1
102
RTVSPost2010Prop37
 90
       50
102
RTVSPost2010PropOp37
 70
     1
102
RTVSPost2010Prop38
140
0.0
102
RTVSPost2010PropOp38
 70
     1
102
RTVSPost2010Prop39
140
1.0
102
RTVSPost2010PropOp39
 70
     1
102
RTVSPost2010Prop40
 90
        0
102
RTVSPost2010PropOp40
 70
     1
102
RTVSPost2010Prop41ColorIndex
 90
       18
102
RTVSPost2010Prop41ColorRGB
 90
        0
102
RTVSPost2010PropOp41
 70
     1
102
RTVSPost2010Prop42
 90
       50
102
RTVSPost2010PropOp42
 70
     1
102
RTVSPost2010Prop43
 90
        3
102
RTVSPost2010PropOp43
 70
     1
102
RTVSPost2010Prop44ColorIndex
 90
        5
102
RTVSPost2010Prop44ColorRGB
 90
      255
102
RTVSPost2010PropOp44
 70
     1
102
RTVSPost2010Prop45
280
     0
102
RTVSPost2010PropOp45
 70
     1
102
RTVSPost2010Prop46
 90
       50
102
RTVSPost2010PropOp46
 70
     1
102
RTVSPost2010Prop47
 90
       50
102
RTVSPost2010PropOp47
 70
     1
102
RTVSPost2010Prop48
 90
       50
102
RTVSPost2010PropOp48
 70
     1
102
RTVSPost2010Prop49
280
     0
102
RTVSPost2010PropOp49
 70
     1
102
RTVSPost2010Prop50
 90
       50
102
RTVSPost2010PropOp50
 70
     1
102
RTVSPost2010Prop51ColorIndex
 90
      256
102
RTVSPost2010Prop51ColorRGB
 90
-16777216
102
RTVSPost2010PropOp51
 70
     0
102
RTVSPost2010Prop52
140
1.0
102
RTVSPost2010PropOp52
 70
     0
102
RTVSPost2010Prop53
 90
        2
102
RTVSPost2010PropOp53
 70
     1
102
RTVSPost2010Prop54
  1
strokes_ogs.tif
102
RTVSPost2010PropOp54
 70
     1
102
RTVSPost2010Prop55
280
     0
102
RTVSPost2010PropOp55
 70
     1
102
RTVSPost2010Prop56
140
1.0
102
RTVSPost2010PropOp56
 70
     1
102
RTVSPost2010Prop57
140
1.0
102
RTVSPost2010PropOp57
 70
     1
  0
XRECORD
  5
36C
102
{ACAD_REACTORS
330
36B
102
}
330
36B
100
AcDbXrecord
280
     1
102
RTVSPropertyOp0
 70
     1
102
RTVSPropertyOp1
 70
     1
102
RTVSPropertyOp2
 70
     1
102
RTVSPropertyOp3
 70
     1
102
RTVSPropertyOp4
 70
     1
102
RTVSPropertyOp5
 70
     1
102
RTVSPropertyOp6
 70
     1
102
RTVSPropertyOp7
 70
     1
102
RTVSPropertyOp8
 70
     1
102
RTVSPropertyOp9
 70
     1
102
RTVSPropertyOp10
 70
     1
102
RTVSPropertyOp11
 70
     1
102
RTVSPropertyOp12
 70
     1
102
RTVSPropertyOp13
 70
     1
102
RTVSPropertyOp14
 70
     1
102
RTVSPropertyOp15
 70
     1
102
RTVSPropertyOp16
 70
     1
102
RTVSPropertyOp17
 70
     1
102
RTVSPropertyOp18
 70
     1
102
RTVSPropertyOp19
 70
     1
102
RTVSPropertyOp20
 70
     1
102
RTVSPropertyOp21
 70
     1
102
RTVSPropertyOp22
 70
     1
102
RTVSPropertyOp23
 70
     1
102
RTVSPropertyOp24
 70
     1
102
RTVSPropertyOp25
 70
     1
102
RTVSPropertyOp26
 70
     1
102
RTVSPropertyOp27
 70
     1
102
RTVSPropertyOp28
 70
     1
102
RTVSPropertyOp29
 70
     1
102
RTVSPropertyOp30
 70
     1
102
RTVSPropertyOp31
 70
     1
102
RTVSPropertyOp32
 70
     1
102
RTVSPropertyOp33
 70
     1
102
RTVSPropertyOp34
 70
     1
102
RTVSPropertyOp35
 70
     1
102
RTVSPropertyOp36
 70
     1
102
RTVSPropertyOp37
 70
     1
102
RTVSPropertyOp38
 70
     1
102
RTVSPropertyOp39
 70
     1
102
RTVSPropertyOp40
 70
     1
102
RTVSPropertyOp41
 70
     1
102
RTVSPropertyOp42
 70
     1
102
RTVSPropertyOp43
 70
     1
102
RTVSPropertyOp44
 70
     1
102
RTVSPropertyOp45
 70
     1
102
RTVSPropertyOp46
 70
     1
102
RTVSPropertyOp47
 70
     1
102
RTVSPropertyOp48
 70
     1
102
RTVSPropertyOp49
 70
     1
102
RTVSPropertyOp50
 70
     1
102
RTVSPropertyOp51
 70
     0
102
RTVSPropertyOp52
 70
     0
102
RTVSPropertyOp53
 70
     1
102
RTVSPropertyOp54
 70
     1
102
RTVSPropertyOp55
 70
     1
102
RTVSPropertyOp56
 70
     1
102
RTVSPropertyOp57
 70
     1
102
RTVSPost2010Prop28
280
     0
102
RTVSPost2010PropOp28
 70
     1
102
RTVSPost2010Prop29
280
     1
102
RTVSPost2010PropOp29
 70
     1
102
RTVSPost2010Prop30
280
     1
102
RTVSPost2010PropOp30
 70
     1
102
RTVSPost2010Prop31
280
     0
102
RTVSPost2010PropOp31
 70
     1
102
RTVSPost2010Prop32
280
     0
102
RTVSPost2010PropOp32
 70
     1
102
RTVSPost2010Prop33
280
     0
102
RTVSPost2010PropOp33
 70
     1
102
RTVSPost2010Prop34
280
     0
102
RTVSPost2010PropOp34
 70
     1
102
RTVSPost2010Prop35
280
     0
102
RTVSPost2010PropOp35
 70
     1
102
RTVSPost2010Prop36
280
     0
102
RTVSPost2010PropOp36
 70
     1
102
RTVSPost2010Prop37
 90
       50
102
RTVSPost2010PropOp37
 70
     1
102
RTVSPost2010Prop38
140
0.0
102
RTVSPost2010PropOp38
 70
     1
102
RTVSPost2010Prop39
140
1.0
102
RTVSPost2010PropOp39
 70
     1
102
RTVSPost2010Prop40
 90
        0
102
RTVSPost2010PropOp40
 70
     1
102
RTVSPost2010Prop41ColorIndex
 90
       18
102
RTVSPost2010Prop41ColorRGB
 90
        0
102
RTVSPost2010PropOp41
 70
     1
102
RTVSPost2010Prop42
 90
       50
102
RTVSPost2010PropOp42
 70
     1
102
RTVSPost2010Prop43
 90
        3
102
RTVSPost2010PropOp43
 70
     1
102
RTVSPost2010Prop44ColorIndex
 90
        5
102
RTVSPost2010Prop44ColorRGB
 90
      255
102
RTVSPost2010PropOp44
 70
     1
102
RTVSPost2010Prop45
280
     0
102
RTVSPost2010PropOp45
 70
     1
102
RTVSPost2010Prop46
 90
       50
102
RTVSPost2010PropOp46
 70
     1
102
RTVSPost2010Prop47
 90
       50
102
RTVSPost2010PropOp47
 70
     1
102
RTVSPost2010Prop48
 90
       50
102
RTVSPost2010PropOp48
 70
     1
102
RTVSPost2010Prop49
280
     0
102
RTVSPost2010PropOp49
 70
     1
102
RTVSPost2010Prop50
 90
       50
102
RTVSPost2010PropOp50
 70
     1
102
RTVSPost2010Prop51ColorIndex
 90
      256
102
RTVSPost2010Prop51ColorRGB
 90
-16777216
102
RTVSPost2010PropOp51
 70
     0
102
RTVSPost2010Prop52
140
1.0
102
RTVSPost2010PropOp52
 70
     0
102
RTVSPost2010Prop53
 90
        2
102
RTVSPost2010PropOp53
 70
     1
102
RTVSPost2010Prop54
  1
strokes_ogs.tif
102
RTVSPost2010PropOp54
 70
     1
102
RTVSPost2010Prop55
280
     0
102
RTVSPost2010PropOp55
 70
     1
102
RTVSPost2010Prop56
140
1.0
102
RTVSPost2010PropOp56
 70
     1
102
RTVSPost2010Prop57
140
1.0
102
RTVSPost2010PropOp57
 70
     1
  0
XRECORD
  5
36E
102
{ACAD_REACTORS
330
36D
102
}
330
36D
100
AcDbXrecord
280
     1
102
RTVSPropertyOp0
 70
     1
102
RTVSPropertyOp1
 70
     1
102
RTVSPropertyOp2
 70
     1
102
RTVSPropertyOp3
 70
     1
102
RTVSPropertyOp4
 70
     1
102
RTVSPropertyOp5
 70
     1
102
RTVSPropertyOp6
 70
     1
102
RTVSPropertyOp7
 70
     1
102
RTVSPropertyOp8
 70
     1
102
RTVSPropertyOp9
 70
     1
102
RTVSPropertyOp10
 70
     1
102
RTVSPropertyOp11
 70
     1
102
RTVSPropertyOp12
 70
     1
102
RTVSPropertyOp13
 70
     1
102
RTVSPropertyOp14
 70
     1
102
RTVSPropertyOp15
 70
     1
102
RTVSPropertyOp16
 70
     1
102
RTVSPropertyOp17
 70
     1
102
RTVSPropertyOp18
 70
     1
102
RTVSPropertyOp19
 70
     1
102
RTVSPropertyOp20
 70
     1
102
RTVSPropertyOp21
 70
     1
102
RTVSPropertyOp22
 70
     1
102
RTVSPropertyOp23
 70
     1
102
RTVSPropertyOp24
 70
     1
102
RTVSPropertyOp25
 70
     1
102
RTVSPropertyOp26
 70
     1
102
RTVSPropertyOp27
 70
     1
102
RTVSPropertyOp28
 70
     1
102
RTVSPropertyOp29
 70
     1
102
RTVSPropertyOp30
 70
     1
102
RTVSPropertyOp31
 70
     1
102
RTVSPropertyOp32
 70
     1
102
RTVSPropertyOp33
 70
     1
102
RTVSPropertyOp34
 70
     1
102
RTVSPropertyOp35
 70
     1
102
RTVSPropertyOp36
 70
     1
102
RTVSPropertyOp37
 70
     1
102
RTVSPropertyOp38
 70
     1
102
RTVSPropertyOp39
 70
     1
102
RTVSPropertyOp40
 70
     1
102
RTVSPropertyOp41
 70
     1
102
RTVSPropertyOp42
 70
     1
102
RTVSPropertyOp43
 70
     1
102
RTVSPropertyOp44
 70
     1
102
RTVSPropertyOp45
 70
     1
102
RTVSPropertyOp46
 70
     1
102
RTVSPropertyOp47
 70
     1
102
RTVSPropertyOp48
 70
     1
102
RTVSPropertyOp49
 70
     1
102
RTVSPropertyOp50
 70
     1
102
RTVSPropertyOp51
 70
     0
102
RTVSPropertyOp52
 70
     0
102
RTVSPropertyOp53
 70
     1
102
RTVSPropertyOp54
 70
     1
102
RTVSPropertyOp55
 70
     1
102
RTVSPropertyOp56
 70
     1
102
RTVSPropertyOp57
 70
     1
102
RTVSPost2010Prop28
280
     0
102
RTVSPost2010PropOp28
 70
     1
102
RTVSPost2010Prop29
280
     1
102
RTVSPost2010PropOp29
 70
     1
102
RTVSPost2010Prop30
280
     1
102
RTVSPost2010PropOp30
 70
     1
102
RTVSPost2010Prop31
280
     0
102
RTVSPost2010PropOp31
 70
     1
102
RTVSPost2010Prop32
280
     0
102
RTVSPost2010PropOp32
 70
     1
102
RTVSPost2010Prop33
280
     0
102
RTVSPost2010PropOp33
 70
     1
102
RTVSPost2010Prop34
280
     0
102
RTVSPost2010PropOp34
 70
     1
102
RTVSPost2010Prop35
280
     0
102
RTVSPost2010PropOp35
 70
     1
102
RTVSPost2010Prop36
280
     0
102
RTVSPost2010PropOp36
 70
     1
102
RTVSPost2010Prop37
 90
       50
102
RTVSPost2010PropOp37
 70
     1
102
RTVSPost2010Prop38
140
0.0
102
RTVSPost2010PropOp38
 70
     1
102
RTVSPost2010Prop39
140
1.0
102
RTVSPost2010PropOp39
 70
     1
102
RTVSPost2010Prop40
 90
        0
102
RTVSPost2010PropOp40
 70
     1
102
RTVSPost2010Prop41ColorIndex
 90
       18
102
RTVSPost2010Prop41ColorRGB
 90
        0
102
RTVSPost2010PropOp41
 70
     1
102
RTVSPost2010Prop42
 90
       50
102
RTVSPost2010PropOp42
 70
     1
102
RTVSPost2010Prop43
 90
        3
102
RTVSPost2010PropOp43
 70
     1
102
RTVSPost2010Prop44ColorIndex
 90
        5
102
RTVSPost2010Prop44ColorRGB
 90
      255
102
RTVSPost2010PropOp44
 70
     1
102
RTVSPost2010Prop45
280
     0
102
RTVSPost2010PropOp45
 70
     1
102
RTVSPost2010Prop46
 90
       50
102
RTVSPost2010PropOp46
 70
     1
102
RTVSPost2010Prop47
 90
       50
102
RTVSPost2010PropOp47
 70
     1
102
RTVSPost2010Prop48
 90
       50
102
RTVSPost2010PropOp48
 70
     1
102
RTVSPost2010Prop49
280
     0
102
RTVSPost2010PropOp49
 70
     1
102
RTVSPost2010Prop50
 90
       50
102
RTVSPost2010PropOp50
 70
     1
102
RTVSPost2010Prop51ColorIndex
 90
      256
102
RTVSPost2010Prop51ColorRGB
 90
-16777216
102
RTVSPost2010PropOp51
 70
     0
102
RTVSPost2010Prop52
140
1.0
102
RTVSPost2010PropOp52
 70
     0
102
RTVSPost2010Prop53
 90
        2
102
RTVSPost2010PropOp53
 70
     1
102
RTVSPost2010Prop54
  1
strokes_ogs.tif
102
RTVSPost2010PropOp54
 70
     1
102
RTVSPost2010Prop55
280
     0
102
RTVSPost2010PropOp55
 70
     1
102
RTVSPost2010Prop56
140
1.0
102
RTVSPost2010PropOp56
 70
     1
102
RTVSPost2010Prop57
140
1.0
102
RTVSPost2010PropOp57
 70
     1
  0
XRECORD
  5
35E
102
{ACAD_REACTORS
330
35D
102
}
330
35D
100
AcDbXrecord
280
     1
102
RTVSPropertyOp0
 70
     1
102
RTVSPropertyOp1
 70
     1
102
RTVSPropertyOp2
 70
     1
102
RTVSPropertyOp3
 70
     1
102
RTVSPropertyOp4
 70
     1
102
RTVSPropertyOp5
 70
     1
102
RTVSPropertyOp6
 70
     1
102
RTVSPropertyOp7
 70
     1
102
RTVSPropertyOp8
 70
     1
102
RTVSPropertyOp9
 70
     1
102
RTVSPropertyOp10
 70
     1
102
RTVSPropertyOp11
 70
     1
102
RTVSPropertyOp12
 70
     1
102
RTVSPropertyOp13
 70
     1
102
RTVSPropertyOp14
 70
     1
102
RTVSPropertyOp15
 70
     1
102
RTVSPropertyOp16
 70
     1
102
RTVSPropertyOp17
 70
     1
102
RTVSPropertyOp18
 70
     1
102
RTVSPropertyOp19
 70
     1
102
RTVSPropertyOp20
 70
     1
102
RTVSPropertyOp21
 70
     1
102
RTVSPropertyOp22
 70
     1
102
RTVSPropertyOp23
 70
     1
102
RTVSPropertyOp24
 70
     1
102
RTVSPropertyOp25
 70
     1
102
RTVSPropertyOp26
 70
     1
102
RTVSPropertyOp27
 70
     1
102
RTVSPropertyOp28
 70
     1
102
RTVSPropertyOp29
 70
     1
102
RTVSPropertyOp30
 70
     1
102
RTVSPropertyOp31
 70
     1
102
RTVSPropertyOp32
 70
     1
102
RTVSPropertyOp33
 70
     1
102
RTVSPropertyOp34
 70
     1
102
RTVSPropertyOp35
 70
     1
102
RTVSPropertyOp36
 70
     1
102
RTVSPropertyOp37
 70
     1
102
RTVSPropertyOp38
 70
     1
102
RTVSPropertyOp39
 70
     1
102
RTVSPropertyOp40
 70
     1
102
RTVSPropertyOp41
 70
     1
102
RTVSPropertyOp42
 70
     1
102
RTVSPropertyOp43
 70
     1
102
RTVSPropertyOp44
 70
     1
102
RTVSPropertyOp45
 70
     1
102
RTVSPropertyOp46
 70
     1
102
RTVSPropertyOp47
 70
     1
102
RTVSPropertyOp48
 70
     1
102
RTVSPropertyOp49
 70
     1
102
RTVSPropertyOp50
 70
     1
102
RTVSPropertyOp51
 70
     0
102
RTVSPropertyOp52
 70
     0
102
RTVSPropertyOp53
 70
     1
102
RTVSPropertyOp54
 70
     1
102
RTVSPropertyOp55
 70
     1
102
RTVSPropertyOp56
 70
     1
102
RTVSPropertyOp57
 70
     1
102
RTVSPost2010Prop28
280
     0
102
RTVSPost2010PropOp28
 70
     1
102
RTVSPost2010Prop29
280
     1
102
RTVSPost2010PropOp29
 70
     1
102
RTVSPost2010Prop30
280
     1
102
RTVSPost2010PropOp30
 70
     1
102
RTVSPost2010Prop31
280
     0
102
RTVSPost2010PropOp31
 70
     1
102
RTVSPost2010Prop32
280
     0
102
RTVSPost2010PropOp32
 70
     1
102
RTVSPost2010Prop33
280
     0
102
RTVSPost2010PropOp33
 70
     1
102
RTVSPost2010Prop34
280
     0
102
RTVSPost2010PropOp34
 70
     1
102
RTVSPost2010Prop35
280
     0
102
RTVSPost2010PropOp35
 70
     1
102
RTVSPost2010Prop36
280
     0
102
RTVSPost2010PropOp36
 70
     1
102
RTVSPost2010Prop37
 90
       50
102
RTVSPost2010PropOp37
 70
     1
102
RTVSPost2010Prop38
140
0.0
102
RTVSPost2010PropOp38
 70
     1
102
RTVSPost2010Prop39
140
1.0
102
RTVSPost2010PropOp39
 70
     1
102
RTVSPost2010Prop40
 90
        0
102
RTVSPost2010PropOp40
 70
     1
102
RTVSPost2010Prop41ColorIndex
 90
       18
102
RTVSPost2010Prop41ColorRGB
 90
        0
102
RTVSPost2010PropOp41
 70
     1
102
RTVSPost2010Prop42
 90
       50
102
RTVSPost2010PropOp42
 70
     1
102
RTVSPost2010Prop43
 90
        3
102
RTVSPost2010PropOp43
 70
     1
102
RTVSPost2010Prop44ColorIndex
 90
        5
102
RTVSPost2010Prop44ColorRGB
 90
      255
102
RTVSPost2010PropOp44
 70
     1
102
RTVSPost2010Prop45
280
     0
102
RTVSPost2010PropOp45
 70
     1
102
RTVSPost2010Prop46
 90
       50
102
RTVSPost2010PropOp46
 70
     1
102
RTVSPost2010Prop47
 90
       50
102
RTVSPost2010PropOp47
 70
     1
102
RTVSPost2010Prop48
 90
       50
102
RTVSPost2010PropOp48
 70
     1
102
RTVSPost2010Prop49
280
     0
102
RTVSPost2010PropOp49
 70
     1
102
RTVSPost2010Prop50
 90
       50
102
RTVSPost2010PropOp50
 70
     1
102
RTVSPost2010Prop51ColorIndex
 90
      256
102
RTVSPost2010Prop51ColorRGB
 90
-16777216
102
RTVSPost2010PropOp51
 70
     0
102
RTVSPost2010Prop52
140
1.0
102
RTVSPost2010PropOp52
 70
     0
102
RTVSPost2010Prop53
 90
        2
102
RTVSPost2010PropOp53
 70
     1
102
RTVSPost2010Prop54
  1
strokes_ogs.tif
102
RTVSPost2010PropOp54
 70
     1
102
RTVSPost2010Prop55
280
     0
102
RTVSPost2010PropOp55
 70
     1
102
RTVSPost2010Prop56
140
1.0
102
RTVSPost2010PropOp56
 70
     1
102
RTVSPost2010Prop57
140
1.0
102
RTVSPost2010PropOp57
 70
     1
  0
XRECORD
  5
350
102
{ACAD_REACTORS
330
34F
102
}
330
34F
100
AcDbXrecord
280
     1
102
RTVSPropertyOp0
 70
     1
102
RTVSPropertyOp1
 70
     1
102
RTVSPropertyOp2
 70
     1
102
RTVSPropertyOp3
 70
     1
102
RTVSPropertyOp4
 70
     1
102
RTVSPropertyOp5
 70
     1
102
RTVSPropertyOp6
 70
     1
102
RTVSPropertyOp7
 70
     1
102
RTVSPropertyOp8
 70
     1
102
RTVSPropertyOp9
 70
     1
102
RTVSPropertyOp10
 70
     1
102
RTVSPropertyOp11
 70
     1
102
RTVSPropertyOp12
 70
     1
102
RTVSPropertyOp13
 70
     1
102
RTVSPropertyOp14
 70
     1
102
RTVSPropertyOp15
 70
     1
102
RTVSPropertyOp16
 70
     1
102
RTVSPropertyOp17
 70
     1
102
RTVSPropertyOp18
 70
     1
102
RTVSPropertyOp19
 70
     1
102
RTVSPropertyOp20
 70
     1
102
RTVSPropertyOp21
 70
     1
102
RTVSPropertyOp22
 70
     1
102
RTVSPropertyOp23
 70
     1
102
RTVSPropertyOp24
 70
     1
102
RTVSPropertyOp25
 70
     1
102
RTVSPropertyOp26
 70
     1
102
RTVSPropertyOp27
 70
     1
102
RTVSPropertyOp28
 70
     1
102
RTVSPropertyOp29
 70
     1
102
RTVSPropertyOp30
 70
     1
102
RTVSPropertyOp31
 70
     1
102
RTVSPropertyOp32
 70
     1
102
RTVSPropertyOp33
 70
     1
102
RTVSPropertyOp34
 70
     1
102
RTVSPropertyOp35
 70
     1
102
RTVSPropertyOp36
 70
     1
102
RTVSPropertyOp37
 70
     1
102
RTVSPropertyOp38
 70
     1
102
RTVSPropertyOp39
 70
     1
102
RTVSPropertyOp40
 70
     1
102
RTVSPropertyOp41
 70
     1
102
RTVSPropertyOp42
 70
     1
102
RTVSPropertyOp43
 70
     1
102
RTVSPropertyOp44
 70
     1
102
RTVSPropertyOp45
 70
     1
102
RTVSPropertyOp46
 70
     1
102
RTVSPropertyOp47
 70
     1
102
RTVSPropertyOp48
 70
     1
102
RTVSPropertyOp49
 70
     1
102
RTVSPropertyOp50
 70
     1
102
RTVSPropertyOp51
 70
     0
102
RTVSPropertyOp52
 70
     0
102
RTVSPropertyOp53
 70
     1
102
RTVSPropertyOp54
 70
     1
102
RTVSPropertyOp55
 70
     1
102
RTVSPropertyOp56
 70
     1
102
RTVSPropertyOp57
 70
     1
102
RTVSPost2010Prop28
280
     0
102
RTVSPost2010PropOp28
 70
     1
102
RTVSPost2010Prop29
280
     1
102
RTVSPost2010PropOp29
 70
     1
102
RTVSPost2010Prop30
280
     1
102
RTVSPost2010PropOp30
 70
     1
102
RTVSPost2010Prop31
280
     0
102
RTVSPost2010PropOp31
 70
     1
102
RTVSPost2010Prop32
280
     0
102
RTVSPost2010PropOp32
 70
     1
102
RTVSPost2010Prop33
280
     0
102
RTVSPost2010PropOp33
 70
     1
102
RTVSPost2010Prop34
280
     0
102
RTVSPost2010PropOp34
 70
     1
102
RTVSPost2010Prop35
280
     0
102
RTVSPost2010PropOp35
 70
     1
102
RTVSPost2010Prop36
280
     0
102
RTVSPost2010PropOp36
 70
     1
102
RTVSPost2010Prop37
 90
       50
102
RTVSPost2010PropOp37
 70
     1
102
RTVSPost2010Prop38
140
0.0
102
RTVSPost2010PropOp38
 70
     1
102
RTVSPost2010Prop39
140
1.0
102
RTVSPost2010PropOp39
 70
     1
102
RTVSPost2010Prop40
 90
        0
102
RTVSPost2010PropOp40
 70
     1
102
RTVSPost2010Prop41ColorIndex
 90
       18
102
RTVSPost2010Prop41ColorRGB
 90
        0
102
RTVSPost2010PropOp41
 70
     1
102
RTVSPost2010Prop42
 90
       50
102
RTVSPost2010PropOp42
 70
     1
102
RTVSPost2010Prop43
 90
        3
102
RTVSPost2010PropOp43
 70
     1
102
RTVSPost2010Prop44ColorIndex
 90
        5
102
RTVSPost2010Prop44ColorRGB
 90
      255
102
RTVSPost2010PropOp44
 70
     1
102
RTVSPost2010Prop45
280
     0
102
RTVSPost2010PropOp45
 70
     1
102
RTVSPost2010Prop46
 90
       50
102
RTVSPost2010PropOp46
 70
     1
102
RTVSPost2010Prop47
 90
       50
102
RTVSPost2010PropOp47
 70
     1
102
RTVSPost2010Prop48
 90
       50
102
RTVSPost2010PropOp48
 70
     1
102
RTVSPost2010Prop49
280
     0
102
RTVSPost2010PropOp49
 70
     1
102
RTVSPost2010Prop50
 90
       50
102
RTVSPost2010PropOp50
 70
     1
102
RTVSPost2010Prop51ColorIndex
 90
      256
102
RTVSPost2010Prop51ColorRGB
 90
-16777216
102
RTVSPost2010PropOp51
 70
     0
102
RTVSPost2010Prop52
140
1.0
102
RTVSPost2010PropOp52
 70
     0
102
RTVSPost2010Prop53
 90
        2
102
RTVSPost2010PropOp53
 70
     1
102
RTVSPost2010Prop54
  1
strokes_ogs.tif
102
RTVSPost2010PropOp54
 70
     1
102
RTVSPost2010Prop55
280
     0
102
RTVSPost2010PropOp55
 70
     1
102
RTVSPost2010Prop56
140
1.0
102
RTVSPost2010PropOp56
 70
     1
102
RTVSPost2010Prop57
140
1.0
102
RTVSPost2010PropOp57
 70
     1
  0
XRECORD
  5
370
102
{ACAD_REACTORS
330
36F
102
}
330
36F
100
AcDbXrecord
280
     1
102
RTVSPropertyOp0
 70
     1
102
RTVSPropertyOp1
 70
     1
102
RTVSPropertyOp2
 70
     1
102
RTVSPropertyOp3
 70
     1
102
RTVSPropertyOp4
 70
     1
102
RTVSPropertyOp5
 70
     1
102
RTVSPropertyOp6
 70
     1
102
RTVSPropertyOp7
 70
     1
102
RTVSPropertyOp8
 70
     1
102
RTVSPropertyOp9
 70
     1
102
RTVSPropertyOp10
 70
     1
102
RTVSPropertyOp11
 70
     1
102
RTVSPropertyOp12
 70
     1
102
RTVSPropertyOp13
 70
     1
102
RTVSPropertyOp14
 70
     1
102
RTVSPropertyOp15
 70
     1
102
RTVSPropertyOp16
 70
     1
102
RTVSPropertyOp17
 70
     1
102
RTVSPropertyOp18
 70
     1
102
RTVSPropertyOp19
 70
     1
102
RTVSPropertyOp20
 70
     1
102
RTVSPropertyOp21
 70
     1
102
RTVSPropertyOp22
 70
     1
102
RTVSPropertyOp23
 70
     1
102
RTVSPropertyOp24
 70
     1
102
RTVSPropertyOp25
 70
     1
102
RTVSPropertyOp26
 70
     1
102
RTVSPropertyOp27
 70
     1
102
RTVSPropertyOp28
 70
     1
102
RTVSPropertyOp29
 70
     1
102
RTVSPropertyOp30
 70
     1
102
RTVSPropertyOp31
 70
     1
102
RTVSPropertyOp32
 70
     1
102
RTVSPropertyOp33
 70
     1
102
RTVSPropertyOp34
 70
     1
102
RTVSPropertyOp35
 70
     1
102
RTVSPropertyOp36
 70
     1
102
RTVSPropertyOp37
 70
     1
102
RTVSPropertyOp38
 70
     1
102
RTVSPropertyOp39
 70
     1
102
RTVSPropertyOp40
 70
     1
102
RTVSPropertyOp41
 70
     1
102
RTVSPropertyOp42
 70
     1
102
RTVSPropertyOp43
 70
     1
102
RTVSPropertyOp44
 70
     1
102
RTVSPropertyOp45
 70
     1
102
RTVSPropertyOp46
 70
     1
102
RTVSPropertyOp47
 70
     1
102
RTVSPropertyOp48
 70
     1
102
RTVSPropertyOp49
 70
     1
102
RTVSPropertyOp50
 70
     1
102
RTVSPropertyOp51
 70
     0
102
RTVSPropertyOp52
 70
     0
102
RTVSPropertyOp53
 70
     1
102
RTVSPropertyOp54
 70
     1
102
RTVSPropertyOp55
 70
     1
102
RTVSPropertyOp56
 70
     1
102
RTVSPropertyOp57
 70
     1
102
RTVSPost2010Prop28
280
     0
102
RTVSPost2010PropOp28
 70
     1
102
RTVSPost2010Prop29
280
     1
102
RTVSPost2010PropOp29
 70
     1
102
RTVSPost2010Prop30
280
     1
102
RTVSPost2010PropOp30
 70
     1
102
RTVSPost2010Prop31
280
     0
102
RTVSPost2010PropOp31
 70
     1
102
RTVSPost2010Prop32
280
     0
102
RTVSPost2010PropOp32
 70
     1
102
RTVSPost2010Prop33
280
     0
102
RTVSPost2010PropOp33
 70
     1
102
RTVSPost2010Prop34
280
     0
102
RTVSPost2010PropOp34
 70
     1
102
RTVSPost2010Prop35
280
     0
102
RTVSPost2010PropOp35
 70
     1
102
RTVSPost2010Prop36
280
     0
102
RTVSPost2010PropOp36
 70
     1
102
RTVSPost2010Prop37
 90
       50
102
RTVSPost2010PropOp37
 70
     1
102
RTVSPost2010Prop38
140
0.0
102
RTVSPost2010PropOp38
 70
     1
102
RTVSPost2010Prop39
140
1.0
102
RTVSPost2010PropOp39
 70
     1
102
RTVSPost2010Prop40
 90
        0
102
RTVSPost2010PropOp40
 70
     1
102
RTVSPost2010Prop41ColorIndex
 90
       18
102
RTVSPost2010Prop41ColorRGB
 90
        0
102
RTVSPost2010PropOp41
 70
     1
102
RTVSPost2010Prop42
 90
       50
102
RTVSPost2010PropOp42
 70
     1
102
RTVSPost2010Prop43
 90
        3
102
RTVSPost2010PropOp43
 70
     1
102
RTVSPost2010Prop44ColorIndex
 90
        5
102
RTVSPost2010Prop44ColorRGB
 90
      255
102
RTVSPost2010PropOp44
 70
     1
102
RTVSPost2010Prop45
280
     0
102
RTVSPost2010PropOp45
 70
     1
102
RTVSPost2010Prop46
 90
       50
102
RTVSPost2010PropOp46
 70
     1
102
RTVSPost2010Prop47
 90
       50
102
RTVSPost2010PropOp47
 70
     1
102
RTVSPost2010Prop48
 90
       50
102
RTVSPost2010PropOp48
 70
     1
102
RTVSPost2010Prop49
280
     0
102
RTVSPost2010PropOp49
 70
     1
102
RTVSPost2010Prop50
 90
       50
102
RTVSPost2010PropOp50
 70
     1
102
RTVSPost2010Prop51ColorIndex
 90
      256
102
RTVSPost2010Prop51ColorRGB
 90
-16777216
102
RTVSPost2010PropOp51
 70
     0
102
RTVSPost2010Prop52
140
1.0
102
RTVSPost2010PropOp52
 70
     0
102
RTVSPost2010Prop53
 90
        2
102
RTVSPost2010PropOp53
 70
     1
102
RTVSPost2010Prop54
  1
strokes_ogs.tif
102
RTVSPost2010PropOp54
 70
     1
102
RTVSPost2010Prop55
280
     0
102
RTVSPost2010PropOp55
 70
     1
102
RTVSPost2010Prop56
140
1.0
102
RTVSPost2010PropOp56
 70
     1
102
RTVSPost2010Prop57
140
1.0
102
RTVSPost2010PropOp57
 70
     1
  0
ENDSEC
  0
EOF
