  0
SECTION
  2
HEADER
  9
$ACADVER
  1
AC1015
  9
$ACADMAINTVER
 70
     6
  9
$DWGCODEPAGE
  3
ANSI_932
  9
$INSBASE
 10
0.0
 20
0.0
 30
0.0
  9
$EXTMIN
 10
-103.6318163748127
 20
-34.6443355089935
 30
0.0
  9
$EXTMAX
 10
101.8186384958148
 20
106.57606436728
 30
0.0
  9
$LIMMIN
 10
0.0
 20
0.0
  9
$LIMMAX
 10
12.0
 20
9.0
  9
$ORTHOMODE
 70
     0
  9
$REGENMODE
 70
     1
  9
$FILLMODE
 70
     1
  9
$QTEXTMODE
 70
     0
  9
$MIRRTEXT
 70
     1
  9
$LTSCALE
 40
1.0
  9
$ATTMODE
 70
     1
  9
$TEXTSIZE
 40
0.2
  9
$TRACEWID
 40
0.05
  9
$TEXTSTYLE
  7
Standard
  9
$CLAYER
  8
0
  9
$CELTYPE
  6
ByLayer
  9
$CECOLOR
 62
   256
  9
$CELTSCALE
 40
1.0
  9
$DISPSILH
 70
     0
  9
$DIMSCALE
 40
1.0
  9
$DIMASZ
 40
0.18
  9
$DIMEXO
 40
0.0625
  9
$DIMDLI
 40
0.38
  9
$DIMRND
 40
0.0
  9
$DIMDLE
 40
0.0
  9
$DIMEXE
 40
0.18
  9
$DIMTP
 40
0.0
  9
$DIMTM
 40
0.0
  9
$DIMTXT
 40
0.18
  9
$DIMCEN
 40
0.09
  9
$DIMTSZ
 40
0.0
  9
$DIMTOL
 70
     0
  9
$DIMLIM
 70
     0
  9
$DIMTIH
 70
     1
  9
$DIMTOH
 70
     1
  9
$DIMSE1
 70
     0
  9
$DIMSE2
 70
     0
  9
$DIMTAD
 70
     0
  9
$DIMZIN
 70
     0
  9
$DIMBLK
  1

  9
$DIMASO
 70
     1
  9
$DIMSHO
 70
     1
  9
$DIMPOST
  1

  9
$DIMAPOST
  1

  9
$DIMALT
 70
     0
  9
$DIMALTD
 70
     2
  9
$DIMALTF
 40
25.4
  9
$DIMLFAC
 40
1.0
  9
$DIMTOFL
 70
     0
  9
$DIMTVP
 40
0.0
  9
$DIMTIX
 70
     0
  9
$DIMSOXD
 70
     0
  9
$DIMSAH
 70
     0
  9
$DIMBLK1
  1

  9
$DIMBLK2
  1

  9
$DIMSTYLE
  2
Standard
  9
$DIMCLRD
 70
     0
  9
$DIMCLRE
 70
     0
  9
$DIMCLRT
 70
     0
  9
$DIMTFAC
 40
1.0
  9
$DIMGAP
 40
0.09
  9
$DIMJUST
 70
     0
  9
$DIMSD1
 70
     0
  9
$DIMSD2
 70
     0
  9
$DIMTOLJ
 70
     1
  9
$DIMTZIN
 70
     0
  9
$DIMALTZ
 70
     0
  9
$DIMALTTZ
 70
     0
  9
$DIMUPT
 70
     0
  9
$DIMDEC
 70
     4
  9
$DIMTDEC
 70
     4
  9
$DIMALTU
 70
     2
  9
$DIMALTTD
 70
     2
  9
$DIMTXSTY
  7
Standard
  9
$DIMAUNIT
 70
     0
  9
$DIMADEC
 70
     0
  9
$DIMALTRND
 40
0.0
  9
$DIMAZIN
 70
     0
  9
$DIMDSEP
 70
    46
  9
$DIMATFIT
 70
     3
  9
$DIMFRAC
 70
     0
  9
$DIMLDRBLK
  1

  9
$DIMLUNIT
 70
     2
  9
$DIMLWD
 70
    -2
  9
$DIMLWE
 70
    -2
  9
$DIMTMOVE
 70
     0
  9
$LUNITS
 70
     2
  9
$LUPREC
 70
     4
  9
$SKETCHINC
 40
0.1
  9
$FILLETRAD
 40
0.5
  9
$AUNITS
 70
     0
  9
$AUPREC
 70
     0
  9
$MENU
  1
.
  9
$ELEVATION
 40
0.0
  9
$PELEVATION
 40
0.0
  9
$THICKNESS
 40
0.0
  9
$LIMCHECK
 70
     0
  9
$CHAMFERA
 40
0.0
  9
$CHAMFERB
 40
0.0
  9
$CHAMFERC
 40
0.0
  9
$CHAMFERD
 40
0.0
  9
$SKPOLY
 70
     0
  9
$TDCREATE
 40
2458080.447103565
  9
$TDUCREATE
 40
2458080.072103565
  9
$TDUPDATE
 40
2458080.447105011
  9
$TDUUPDATE
 40
2458080.072105011
  9
$TDINDWG
 40
0.0000000116
  9
$TDUSRTIMER
 40
0.0000000116
  9
$USRTIMER
 70
     1
  9
$ANGBASE
 50
0.0
  9
$ANGDIR
 70
     0
  9
$PDMODE
 70
     0
  9
$PDSIZE
 40
0.0
  9
$PLINEWID
 40
0.0
  9
$SPLFRAME
 70
     0
  9
$SPLINETYPE
 70
     6
  9
$SPLINESEGS
 70
     8
  9
$HANDSEED
  5
394
  9
$SURFTAB1
 70
     6
  9
$SURFTAB2
 70
     6
  9
$SURFTYPE
 70
     6
  9
$SURFU
 70
     6
  9
$SURFV
 70
     6
  9
$UCSBASE
  2

  9
$UCSNAME
  2

  9
$UCSORG
 10
0.0
 20
0.0
 30
0.0
  9
$UCSXDIR
 10
1.0
 20
0.0
 30
0.0
  9
$UCSYDIR
 10
0.0
 20
1.0
 30
0.0
  9
$UCSORTHOREF
  2

  9
$UCSORTHOVIEW
 70
     0
  9
$UCSORGTOP
 10
0.0
 20
0.0
 30
0.0
  9
$UCSORGBOTTOM
 10
0.0
 20
0.0
 30
0.0
  9
$UCSORGLEFT
 10
0.0
 20
0.0
 30
0.0
  9
$UCSORGRIGHT
 10
0.0
 20
0.0
 30
0.0
  9
$UCSORGFRONT
 10
0.0
 20
0.0
 30
0.0
  9
$UCSORGBACK
 10
0.0
 20
0.0
 30
0.0
  9
$PUCSBASE
  2

  9
$PUCSNAME
  2

  9
$PUCSORG
 10
0.0
 20
0.0
 30
0.0
  9
$PUCSXDIR
 10
1.0
 20
0.0
 30
0.0
  9
$PUCSYDIR
 10
0.0
 20
1.0
 30
0.0
  9
$PUCSORTHOREF
  2

  9
$PUCSORTHOVIEW
 70
     0
  9
$PUCSORGTOP
 10
0.0
 20
0.0
 30
0.0
  9
$PUCSORGBOTTOM
 10
0.0
 20
0.0
 30
0.0
  9
$PUCSORGLEFT
 10
0.0
 20
0.0
 30
0.0
  9
$PUCSORGRIGHT
 10
0.0
 20
0.0
 30
0.0
  9
$PUCSORGFRONT
 10
0.0
 20
0.0
 30
0.0
  9
$PUCSORGBACK
 10
0.0
 20
0.0
 30
0.0
  9
$USERI1
 70
     0
  9
$USERI2
 70
     0
  9
$USERI3
 70
     0
  9
$USERI4
 70
     0
  9
$USERI5
 70
     0
  9
$USERR1
 40
19.0
  9
$USERR2
 40
0.0
  9
$USERR3
 40
0.0
  9
$USERR4
 40
0.0
  9
$USERR5
 40
0.0
  9
$WORLDVIEW
 70
     1
  9
$SHADEDGE
 70
     3
  9
$SHADEDIF
 70
    70
  9
$TILEMODE
 70
     1
  9
$MAXACTVP
 70
    64
  9
$PINSBASE
 10
0.0
 20
0.0
 30
0.0
  9
$PLIMCHECK
 70
     0
  9
$PEXTMIN
 10
1.00000000000000E+20
 20
1.00000000000000E+20
 30
1.00000000000000E+20
  9
$PEXTMAX
 10
-1.00000000000000E+20
 20
-1.00000000000000E+20
 30
-1.00000000000000E+20
  9
$PLIMMIN
 10
0.0
 20
0.0
  9
$PLIMMAX
 10
12.0
 20
9.0
  9
$UNITMODE
 70
     0
  9
$VISRETAIN
 70
     1
  9
$PLINEGEN
 70
     0
  9
$PSLTSCALE
 70
     1
  9
$TREEDEPTH
 70
  3020
  9
$CMLSTYLE
  2
Standard
  9
$CMLJUST
 70
     0
  9
$CMLSCALE
 40
1.0
  9
$PROXYGRAPHICS
 70
     1
  9
$MEASUREMENT
 70
     1
  9
$CELWEIGHT
370
    -1
  9
$ENDCAPS
280
     0
  9
$JOINSTYLE
280
     0
  9
$LWDISPLAY
290
     0
  9
$INSUNITS
 70
     4
  9
$HYPERLINKBASE
  1

  9
$STYLESHEET
  1

  9
$XEDIT
290
     1
  9
$CEPSNTYPE
380
     0
  9
$PSTYLEMODE
290
     1
  9
$FINGERPRINTGUID
  2
{1D4C7635-D2D1-43BE-B9F3-2EA6FC15068D}
  9
$VERSIONGUID
  2
{FAEB1C32-E019-11D5-929B-00C0DF256EC4}
  9
$EXTNAMES
290
     1
  9
$PSVPSCALE
 40
0.0
  9
$OLESTARTUP
290
     0
  0
ENDSEC
  0
SECTION
  2
CLASSES
  0
CLASS
  1
ACDBDICTIONARYWDFLT
  2
AcDbDictionaryWithDefault
  3
ObjectDBX Classes
 90
        0
280
     0
281
     0
  0
CLASS
  1
VISUALSTYLE
  2
AcDbVisualStyle
  3
ObjectDBX Classes
 90
     4095
280
     0
281
     0
  0
CLASS
  1
MATERIAL
  2
AcDbMaterial
  3
ObjectDBX Classes
 90
     1153
280
     0
281
     0
  0
CLASS
  1
SCALE
  2
AcDbScale
  3
ObjectDBX Classes
 90
     1153
280
     0
281
     0
  0
CLASS
  1
SUN
  2
AcDbSun
  3
SCENEOE
 90
     1153
280
     0
281
     0
  0
CLASS
  1
DICTIONARYVAR
  2
AcDbDictionaryVar
  3
ObjectDBX Classes
 90
        0
280
     0
281
     0
  0
CLASS
  1
ACDBPLACEHOLDER
  2
AcDbPlaceHolder
  3
ObjectDBX Classes
 90
        0
280
     0
281
     0
  0
CLASS
  1
LAYOUT
  2
AcDbLayout
  3
ObjectDBX Classes
 90
        0
280
     0
281
     0
  0
ENDSEC
  0
SECTION
  2
TABLES
  0
TABLE
  2
VPORT
  5
8
330
0
100
AcDbSymbolTable
 70
     1
  0
VPORT
  5
29
330
8
100
AcDbSymbolTableRecord
100
AcDbViewportTableRecord
  2
*Active
 70
     0
 10
0.0
 20
0.0
 11
1.0
 21
1.0
 12
-0.90658893949895
 22
35.96586442914325
 13
0.0
 23
0.0
 14
0.5
 24
0.5
 15
0.5
 25
0.5
 16
0.0
 26
0.0
 36
1.0
 17
0.0
 27
0.0
 37
0.0
 40
155.3424398639009
 41
1.60267857142857
 42
50.0
 43
0.0
 44
0.0
 50
0.0
 51
0.0
 71
     0
 72
   100
 73
     1
 74
     3
 75
     0
 76
     0
 77
     0
 78
     0
281
     0
 65
     1
110
0.0
120
0.0
130
0.0
111
1.0
121
0.0
131
0.0
112
0.0
122
1.0
132
0.0
 79
     0
146
0.0
  0
ENDTAB
  0
TABLE
  2
LTYPE
  5
5
330
0
100
AcDbSymbolTable
 70
     8
  0
LTYPE
  5
14
330
5
100
AcDbSymbolTableRecord
100
AcDbLinetypeTableRecord
  2
ByBlock
 70
     0
  3

 72
    65
 73
     0
 40
0.0
  0
LTYPE
  5
15
330
5
100
AcDbSymbolTableRecord
100
AcDbLinetypeTableRecord
  2
ByLayer
 70
     0
  3

 72
    65
 73
     0
 40
0.0
  0
LTYPE
  5
16
330
5
100
AcDbSymbolTableRecord
100
AcDbLinetypeTableRecord
  2
Continuous
 70
     0
  3
Solid line
 72
    65
 73
     0
 40
0.0
  0
LTYPE
  5
6A
330
5
100
AcDbSymbolTableRecord
100
AcDbLinetypeTableRecord
  2
DASHED
 70
     0
  3
Dashed
 72
    65
 73
     2
 40
15.0
 49
7.0
 74
     0
 49
-8.0
 74
     0
  0
LTYPE
  5
6B
330
5
100
AcDbSymbolTableRecord
100
AcDbLinetypeTableRecord
  2
DOTTED
 70
     0
  3
Dotted
 72
    65
 73
     2
 40
1.0
 49
0.0
 74
     0
 49
-1.0
 74
     0
  0
LTYPE
  5
6C
330
5
100
AcDbSymbolTableRecord
100
AcDbLinetypeTableRecord
  2
DOT_CENTER
 70
     0
  3
Dot_Center
 72
    65
 73
     4
 40
14.0
 49
12.0
 74
     0
 49
-1.0
 74
     0
 49
0.0
 74
     0
 49
-1.0
 74
     0
  0
LTYPE
  5
6D
330
5
100
AcDbSymbolTableRecord
100
AcDbLinetypeTableRecord
  2
LONG_DASHED
 70
     0
  3
Long_Dashed
 72
    65
 73
     2
 40
15.0
 49
10.0
 74
     0
 49
-5.0
 74
     0
  0
LTYPE
  5
6E
330
5
100
AcDbSymbolTableRecord
100
AcDbLinetypeTableRecord
  2
DASH_CENTER
 70
     0
  3
Dash_Center
 72
    65
 73
     4
 40
14.0
 49
11.0
 74
     0
 49
-1.0
 74
     0
 49
1.0
 74
     0
 49
-1.0
 74
     0
  0
LTYPE
  5
6F
330
5
100
AcDbSymbolTableRecord
100
AcDbLinetypeTableRecord
  2
PHANTOM
 70
     0
  3
Phantom
 72
    65
 73
     6
 40
13.0
 49
10.0
 74
     0
 49
-1.0
 74
     0
 49
0.0
 74
     0
 49
-1.0
 74
     0
 49
0.0
 74
     0
 49
-1.0
 74
     0
  0
LTYPE
  5
70
330
5
100
AcDbSymbolTableRecord
100
AcDbLinetypeTableRecord
  2
CENTER_DASH_DASH
 70
     0
  3
Center_Dash_Dash
 72
    65
 73
     6
 40
14.0
 49
9.0
 74
     0
 49
-1.0
 74
     0
 49
1.0
 74
     0
 49
-1.0
 74
     0
 49
1.0
 74
     0
 49
-1.0
 74
     0
  0
ENDTAB
  0
TABLE
  2
LAYER
  5
2
330
0
100
AcDbSymbolTable
 70
     2
  0
LAYER
  5
10
330
2
100
AcDbSymbolTableRecord
100
AcDbLayerTableRecord
  2
0
 70
     0
 62
     7
  6
Continuous
370
    -3
390
F
  0
LAYER
  5
71
330
2
100
AcDbSymbolTableRecord
100
AcDbLayerTableRecord
  2
1
 70
     0
 62
     7
  6
Continuous
370
    -3
390
F
  0
ENDTAB
  0
TABLE
  2
STYLE
  5
3
330
0
100
AcDbSymbolTable
 70
     1
  0
STYLE
  5
11
330
3
100
AcDbSymbolTableRecord
100
AcDbTextStyleTableRecord
  2
Standard
 70
     0
 40
0.0
 41
1.0
 50
0.0
 71
     0
 42
0.2
  3
txt
  4

  0
ENDTAB
  0
TABLE
  2
VIEW
  5
6
330
0
100
AcDbSymbolTable
 70
     0
  0
ENDTAB
  0
TABLE
  2
UCS
  5
7
330
0
100
AcDbSymbolTable
 70
     0
  0
ENDTAB
  0
TABLE
  2
APPID
  5
9
330
0
100
AcDbSymbolTable
 70
     1
  0
APPID
  5
12
330
9
100
AcDbSymbolTableRecord
100
AcDbRegAppTableRecord
  2
ACAD
 70
     0
  0
ENDTAB
  0
TABLE
  2
DIMSTYLE
  5
A
330
0
100
AcDbSymbolTable
 70
     1
100
AcDbDimStyleTable
  0
DIMSTYLE
105
27
330
A
100
AcDbSymbolTableRecord
100
AcDbDimStyleTableRecord
  2
Standard
 70
     0
178
     0
340
11
  0
ENDTAB
  0
TABLE
  2
BLOCK_RECORD
  5
1
330
0
100
AcDbSymbolTable
 70
     1
  0
BLOCK_RECORD
  5
1F
330
1
100
AcDbSymbolTableRecord
100
AcDbBlockTableRecord
  2
*Model_Space
340
22
  0
BLOCK_RECORD
  5
1B
330
1
100
AcDbSymbolTableRecord
100
AcDbBlockTableRecord
  2
*Paper_Space
340
1E
  0
BLOCK_RECORD
  5
23
330
1
100
AcDbSymbolTableRecord
100
AcDbBlockTableRecord
  2
*Paper_Space0
340
26
  0
ENDTAB
  0
ENDSEC
  0
SECTION
  2
BLOCKS
  0
BLOCK
  5
20
330
1F
100
AcDbEntity
  8
0
100
AcDbBlockBegin
  2
*Model_Space
 70
     0
 10
0.0
 20
0.0
 30
0.0
  3
*Model_Space
  1
*Model_Space
  0
ENDBLK
  5
21
330
1F
100
AcDbEntity
  8
0
100
AcDbBlockEnd
  0
BLOCK
  5
1C
330
1B
100
AcDbEntity
 67
     1
  8
0
100
AcDbBlockBegin
  2
*Paper_Space
 70
     0
 10
0.0
 20
0.0
 30
0.0
  3
*Paper_Space
  1
*Paper_Space
  0
ENDBLK
  5
1D
330
1B
100
AcDbEntity
 67
     1
  8
0
100
AcDbBlockEnd
  0
BLOCK
  5
24
330
23
100
AcDbEntity
  8
0
100
AcDbBlockBegin
  2
*Paper_Space0
 70
     0
 10
0.0
 20
0.0
 30
0.0
  3
*Paper_Space0
  1
*Paper_Space0
  0
ENDBLK
  5
25
330
23
100
AcDbEntity
  8
0
100
AcDbBlockEnd
  0
ENDSEC
  0
SECTION
  2
ENTITIES
  0
POINT
  5
72
330
1F
100
AcDbEntity
  8
1
 62
     3
 60
     1
100
AcDbPoint
 10
-35.06239782971772
 20
94.30488632502329
 30
0.0
  0
POINT
  5
73
330
1F
100
AcDbEntity
  8
1
 62
     3
 60
     1
100
AcDbPoint
 10
-35.06239782971761
 20
72.3048863250233
 30
0.0
  0
POINT
  5
74
330
1F
100
AcDbEntity
  8
1
 62
     3
 60
     1
100
AcDbPoint
 10
-36.49999999999999
 20
83.3048863250233
 30
0.0
  0
POINT
  5
75
330
1F
100
AcDbEntity
  8
1
 62
     3
 60
     1
100
AcDbPoint
 10
36.80298844793576
 20
61.3655760958175
 30
0.0
  0
POINT
  5
76
330
1F
100
AcDbEntity
  8
1
 62
     3
 60
     1
100
AcDbPoint
 10
-34.80298844793574
 20
61.3655760958175
 30
0.0
  0
POINT
  5
77
330
1F
100
AcDbEntity
  8
1
 62
     3
 60
     1
100
AcDbPoint
 10
36.80298844793576
 20
105.2441965542296
 30
0.0
  0
POINT
  5
78
330
1F
100
AcDbEntity
  8
1
 62
     3
 60
     1
100
AcDbPoint
 10
-34.80298844793574
 20
105.2441965542296
 30
0.0
  0
LINE
  5
79
330
1F
100
AcDbEntity
  8
1
  6
DOT_CENTER
 62
     4
100
AcDbLine
 10
-103.6318163748127
 20
0.0
 30
0.0
 11
-53.63181637481272
 21
0.0
 31
0.0
  0
LINE
  5
7A
330
1F
100
AcDbEntity
  8
1
  6
Continuous
 62
     3
100
AcDbLine
 10
-34.80298844793574
 20
61.3655760958175
 30
0.0
 11
-36.5
 21
64.3048863250233
 31
0.0
  0
LINE
  5
7B
330
1F
100
AcDbEntity
  8
1
  6
Continuous
 62
     3
100
AcDbLine
 10
-34.80298844793574
 20
61.3655760958175
 30
0.0
 11
36.80298844793576
 21
61.3655760958175
 31
0.0
  0
LINE
  5
7C
330
1F
100
AcDbEntity
  8
1
  6
Continuous
 62
     3
100
AcDbLine
 10
36.80298844793576
 20
105.2441965542296
 30
0.0
 11
38.5
 21
102.304886325023
 31
0.0
  0
LINE
  5
7D
330
1F
100
AcDbEntity
  8
1
  6
Continuous
 62
     3
100
AcDbLine
 10
-34.80298844793574
 20
105.2441965542296
 30
0.0
 11
36.80298844793576
 21
105.2441965542296
 31
0.0
  0
LINE
  5
7E
102
{ACAD_REACTORS
330
350
102
}
330
1F
100
AcDbEntity
  8
1
  6
Continuous
 62
     3
100
AcDbLine
 10
74.65246826601616
 20
89.1519290702753
 30
0.0
 11
74.98581463122824
 21
89.1519290702753
 31
0.0
  0
LINE
  5
7F
102
{ACAD_REACTORS
330
350
102
}
330
1F
100
AcDbEntity
  8
1
  6
Continuous
 62
     3
100
AcDbLine
 10
74.60206826601616
 20
88.97611511678693
 30
0.0
 11
74.65246826601616
 21
89.1519290702753
 31
0.0
  0
LINE
  5
80
102
{ACAD_REACTORS
330
350
102
}
330
1F
100
AcDbEntity
  8
1
  6
Continuous
 62
     3
100
AcDbLine
 10
74.51806826601616
 20
88.83937093074042
 30
0.0
 11
74.60206826601616
 21
88.97611511678693
 31
0.0
  0
LINE
  5
81
102
{ACAD_REACTORS
330
350
102
}
330
1F
100
AcDbEntity
  8
1
  6
Continuous
 62
     3
100
AcDbLine
 10
74.28286826601615
 20
88.68309186097298
 30
0.0
 11
74.51806826601616
 21
88.83937093074042
 31
0.0
  0
LINE
  5
82
102
{ACAD_REACTORS
330
350
102
}
330
1F
100
AcDbEntity
  8
1
  6
Continuous
 62
     3
100
AcDbLine
 10
73.96366826601616
 20
88.62448720981018
 30
0.0
 11
74.28286826601615
 21
88.68309186097298
 31
0.0
  0
LINE
  5
83
102
{ACAD_REACTORS
330
350
102
}
330
1F
100
AcDbEntity
  8
1
  6
Continuous
 62
     3
100
AcDbLine
 10
73.96366826601616
 20
88.40960348887995
 30
0.0
 11
73.96366826601616
 21
88.62448720981018
 31
0.0
  0
LINE
  5
84
102
{ACAD_REACTORS
330
350
102
}
330
1F
100
AcDbEntity
  8
1
  6
Continuous
 62
     3
100
AcDbLine
 10
74.48446826601615
 20
88.40960348887995
 30
0.0
 11
73.96366826601616
 21
88.40960348887995
 31
0.0
  0
LINE
  5
85
102
{ACAD_REACTORS
330
350
102
}
330
1F
100
AcDbEntity
  8
1
  6
Continuous
 62
     3
100
AcDbLine
 10
74.48446826601615
 20
85.4012313958567
 30
0.0
 11
74.48446826601615
 21
88.40960348887995
 31
0.0
  0
LINE
  5
86
102
{ACAD_REACTORS
330
350
102
}
330
1F
100
AcDbEntity
  8
1
  6
Continuous
 62
     3
100
AcDbLine
 10
74.98581463122824
 20
85.40123139585671
 30
0.0
 11
74.48446826601615
 21
85.4012313958567
 31
0.0
  0
LINE
  5
87
102
{ACAD_REACTORS
330
350
102
}
330
1F
100
AcDbEntity
  8
1
  6
Continuous
 62
     3
100
AcDbLine
 10
74.98581463122824
 20
89.1519290702753
 30
0.0
 11
74.98581463122824
 21
85.40123139585671
 31
0.0
  0
LINE
  5
88
102
{ACAD_REACTORS
330
351
102
}
330
1F
100
AcDbEntity
  8
1
  6
Continuous
 62
     3
100
AcDbLine
 10
76.56686705374537
 20
87.5259310301598
 30
0.0
 11
76.56686705374537
 21
87.1479976459417
 31
0.0
  0
LINE
  5
89
102
{ACAD_REACTORS
330
352
102
}
330
1F
100
AcDbEntity
  8
1
  6
Continuous
 62
     3
100
AcDbLine
 10
80.47494759434068
 20
89.2595040785399
 30
0.0
 11
81.07886916296826
 21
89.2595040785399
 31
0.0
  0
LINE
  5
8A
102
{ACAD_REACTORS
330
352
102
}
330
1F
100
AcDbEntity
  8
1
  6
Continuous
 62
     3
100
AcDbLine
 10
81.53181033943866
 20
88.8065629020694
 30
0.0
 11
81.53181033943866
 21
88.3332276529956
 31
0.0
  0
LINE
  5
8B
102
{ACAD_REACTORS
330
352
102
}
330
1F
100
AcDbEntity
  8
1
  6
Continuous
 62
     3
100
AcDbLine
 10
81.07886916296826
 20
85.4095040785399
 30
0.0
 11
80.47494759434068
 21
85.4095040785399
 31
0.0
  0
LINE
  5
8C
102
{ACAD_REACTORS
330
352
102
}
330
1F
100
AcDbEntity
  8
1
  6
Continuous
 62
     3
100
AcDbLine
 10
80.02200641787016
 20
85.8624452550103
 30
0.0
 11
80.02200641787016
 21
88.8065629020694
 31
0.0
  0
LINE
  5
8D
102
{ACAD_REACTORS
330
352
102
}
330
1F
100
AcDbEntity
  8
1
  6
Continuous
 62
     3
100
AcDbLine
 10
80.70141818257605
 20
88.8065629020694
 30
0.0
 11
80.85239857473306
 21
88.8065629020694
 31
0.0
  0
LINE
  5
8E
102
{ACAD_REACTORS
330
352
102
}
330
1F
100
AcDbEntity
  8
1
  6
Continuous
 62
     3
100
AcDbLine
 10
81.07886916296826
 20
88.5800923138342
 30
0.0
 11
81.07886916296826
 21
88.3332276529956
 31
0.0
  0
LINE
  5
8F
102
{ACAD_REACTORS
330
352
102
}
330
1F
100
AcDbEntity
  8
1
  6
Continuous
 62
     3
100
AcDbLine
 10
80.85239857473306
 20
85.8624452550103
 30
0.0
 11
80.70141818257605
 21
85.8624452550103
 31
0.0
  0
LINE
  5
90
102
{ACAD_REACTORS
330
352
102
}
330
1F
100
AcDbEntity
  8
1
  6
Continuous
 62
     3
100
AcDbLine
 10
80.47494759434068
 20
86.0889158432456
 30
0.0
 11
80.47494759434068
 21
86.8815629020693
 31
0.0
  0
LINE
  5
91
102
{ACAD_REACTORS
330
352
102
}
330
1F
100
AcDbEntity
  8
1
  6
Continuous
 62
     3
100
AcDbLine
 10
81.07886916296826
 20
88.3332276529956
 30
0.0
 11
81.53181033943866
 21
88.3332276529956
 31
0.0
  0
LINE
  5
92
102
{ACAD_REACTORS
330
352
102
}
330
1F
100
AcDbEntity
  8
1
  6
Continuous
 62
     3
100
AcDbLine
 10
81.53181033943866
 20
86.3720040785398
 30
0.0
 11
81.53181033943866
 21
85.8624452550103
 31
0.0
  0
LINE
  5
93
102
{ACAD_REACTORS
330
352
102
}
330
1F
100
AcDbEntity
  8
1
  6
Continuous
 62
     3
100
AcDbLine
 10
81.07886916296826
 20
86.3720040785398
 30
0.0
 11
81.07886916296826
 21
86.0889158432456
 31
0.0
  0
LINE
  5
94
102
{ACAD_REACTORS
330
352
102
}
330
1F
100
AcDbEntity
  8
1
  6
Continuous
 62
     3
100
AcDbLine
 10
81.53181033943866
 20
87.1080334903045
 30
0.0
 11
81.53181033943866
 21
86.3720040785398
 31
0.0
  0
LINE
  5
95
102
{ACAD_REACTORS
330
352
102
}
330
1F
100
AcDbEntity
  8
1
  6
Continuous
 62
     3
100
AcDbLine
 10
81.07886916296826
 20
86.8815629020693
 30
0.0
 11
81.07886916296826
 21
86.3720040785398
 31
0.0
  0
LINE
  5
96
102
{ACAD_REACTORS
330
352
102
}
330
1F
100
AcDbEntity
  8
1
  6
Continuous
 62
     3
100
AcDbLine
 10
80.70141818257599
 20
87.1080334903045
 30
0.0
 11
80.85239857473306
 21
87.1080334903045
 31
0.0
  0
LINE
  5
97
102
{ACAD_REACTORS
330
352
102
}
330
1F
100
AcDbEntity
  8
1
  6
Continuous
 62
     3
100
AcDbLine
 10
80.47494759434068
 20
87.5991587335978
 30
0.0
 11
80.47494759434068
 21
88.5800923138342
 31
0.0
  0
LINE
  5
98
102
{ACAD_REACTORS
330
34A
102
}
330
1F
100
AcDbEntity
  8
1
  6
Continuous
 62
     3
100
AcDbLine
 10
80.48131532483956
 20
84.1144245975617
 30
0.0
 11
81.08523689346691
 21
84.1144245975617
 31
0.0
  0
LINE
  5
99
102
{ACAD_REACTORS
330
34A
102
}
330
1F
100
AcDbEntity
  8
1
  6
Continuous
 62
     3
100
AcDbLine
 10
81.53817806993766
 20
83.6614834210912
 30
0.0
 11
81.53817806993766
 21
82.8310912642283
 31
0.0
  0
LINE
  5
9A
102
{ACAD_REACTORS
330
34A
102
}
330
1F
100
AcDbEntity
  8
1
  6
Continuous
 62
     3
100
AcDbLine
 10
81.08523689346691
 20
80.2644245975617
 30
0.0
 11
80.48131532483956
 21
80.2644245975617
 31
0.0
  0
LINE
  5
9B
102
{ACAD_REACTORS
330
34A
102
}
330
1F
100
AcDbEntity
  8
1
  6
Continuous
 62
     3
100
AcDbLine
 10
80.02837414836887
 20
80.7173657740321
 30
0.0
 11
80.02837414836887
 21
81.7742285191303
 31
0.0
  0
LINE
  5
9C
102
{ACAD_REACTORS
330
34A
102
}
330
1F
100
AcDbEntity
  8
1
  6
Continuous
 62
     3
100
AcDbLine
 10
80.70778591307499
 20
83.6614834210912
 30
0.0
 11
80.85876630523177
 21
83.6614834210912
 31
0.0
  0
LINE
  5
9D
102
{ACAD_REACTORS
330
34A
102
}
330
1F
100
AcDbEntity
  8
1
  6
Continuous
 62
     3
100
AcDbLine
 10
81.08523689346691
 20
83.4350128328558
 30
0.0
 11
81.08523689346691
 21
82.8310912642283
 31
0.0
  0
LINE
  5
9E
102
{ACAD_REACTORS
330
34A
102
}
330
1F
100
AcDbEntity
  8
1
  6
Continuous
 62
     3
100
AcDbLine
 10
80.85876630523177
 20
80.7173657740321
 30
0.0
 11
80.70778591307499
 21
80.7173657740321
 31
0.0
  0
LINE
  5
9F
102
{ACAD_REACTORS
330
34A
102
}
330
1F
100
AcDbEntity
  8
1
  6
Continuous
 62
     3
100
AcDbLine
 10
80.48131532483956
 20
80.9438363622674
 30
0.0
 11
80.48131532483956
 21
81.7742285191303
 31
0.0
  0
LINE
  5
A0
102
{ACAD_REACTORS
330
34A
102
}
330
1F
100
AcDbEntity
  8
1
  6
Continuous
 62
     3
100
AcDbLine
 10
80.02837414836887
 20
81.7742285191303
 30
0.0
 11
80.48131532483956
 21
81.7742285191303
 31
0.0
  0
LINE
  5
A1
102
{ACAD_REACTORS
330
34A
102
}
330
1F
100
AcDbEntity
  8
1
  6
Continuous
 62
     3
100
AcDbLine
 10
80.02837414836887
 20
82.9065814603066
 30
0.0
 11
80.48131532483956
 21
82.9065814603066
 31
0.0
  0
LINE
  5
A2
102
{ACAD_REACTORS
330
34A
102
}
330
1F
100
AcDbEntity
  8
1
  6
Continuous
 62
     3
100
AcDbLine
 10
80.02837414836887
 20
82.9065814603066
 30
0.0
 11
80.02837414836887
 21
83.6614834210912
 31
0.0
  0
LINE
  5
A3
102
{ACAD_REACTORS
330
34A
102
}
330
1F
100
AcDbEntity
  8
1
  6
Continuous
 62
     3
100
AcDbLine
 10
80.48131532483956
 20
82.9065814603066
 30
0.0
 11
80.48131532483956
 21
83.4350128328558
 31
0.0
  0
LINE
  5
A4
102
{ACAD_REACTORS
330
34A
102
}
330
1F
100
AcDbEntity
  8
1
  6
Continuous
 62
     3
100
AcDbLine
 10
80.85876630523177
 20
82.6046206759931
 30
0.0
 11
80.55680552091798
 21
82.6046206759931
 31
0.0
  0
LINE
  5
A5
102
{ACAD_REACTORS
330
34A
102
}
330
1F
100
AcDbEntity
  8
1
  6
Continuous
 62
     3
100
AcDbLine
 10
80.55680552091798
 20
82.6046206759931
 30
0.0
 11
80.55680552091798
 21
82.1516794995223
 31
0.0
  0
LINE
  5
A6
102
{ACAD_REACTORS
330
34A
102
}
330
1F
100
AcDbEntity
  8
1
  6
Continuous
 62
     3
100
AcDbLine
 10
80.55680552091798
 20
82.1516794995223
 30
0.0
 11
80.85876630523177
 21
82.1516794995223
 31
0.0
  0
LINE
  5
A7
102
{ACAD_REACTORS
330
34A
102
}
330
1F
100
AcDbEntity
  8
1
  6
Continuous
 62
     3
100
AcDbLine
 10
81.08523689346691
 20
81.925208911287
 30
0.0
 11
81.08523689346691
 21
80.9438363622674
 31
0.0
  0
LINE
  5
A8
102
{ACAD_REACTORS
330
34A
102
}
330
1F
100
AcDbEntity
  8
1
  6
Continuous
 62
     3
100
AcDbLine
 10
81.53817806993766
 20
81.925208911287
 30
0.0
 11
81.53817806993766
 21
80.7173657740321
 31
0.0
  0
LINE
  5
A9
102
{ACAD_REACTORS
330
348
102
}
330
1F
100
AcDbEntity
  8
1
  6
Continuous
 62
     3
100
AcDbLine
 10
84.40680552091817
 20
84.1144245975617
 30
0.0
 11
85.0107270895457
 21
84.1144245975617
 31
0.0
  0
LINE
  5
AA
102
{ACAD_REACTORS
330
348
102
}
330
1F
100
AcDbEntity
  8
1
  6
Continuous
 62
     3
100
AcDbLine
 10
85.46366826601616
 20
83.6614834210912
 30
0.0
 11
85.46366826601616
 21
83.1881481720174
 31
0.0
  0
LINE
  5
AB
102
{ACAD_REACTORS
330
348
102
}
330
1F
100
AcDbEntity
  8
1
  6
Continuous
 62
     3
100
AcDbLine
 10
85.0107270895457
 20
80.2644245975617
 30
0.0
 11
84.40680552091817
 21
80.2644245975617
 31
0.0
  0
LINE
  5
AC
102
{ACAD_REACTORS
330
348
102
}
330
1F
100
AcDbEntity
  8
1
  6
Continuous
 62
     3
100
AcDbLine
 10
83.9538643444476
 20
80.7173657740321
 30
0.0
 11
83.9538643444476
 21
83.6614834210912
 31
0.0
  0
LINE
  5
AD
102
{ACAD_REACTORS
330
348
102
}
330
1F
100
AcDbEntity
  8
1
  6
Continuous
 62
     3
100
AcDbLine
 10
84.63327610915348
 20
83.6614834210912
 30
0.0
 11
84.78425650131038
 21
83.6614834210912
 31
0.0
  0
LINE
  5
AE
102
{ACAD_REACTORS
330
348
102
}
330
1F
100
AcDbEntity
  8
1
  6
Continuous
 62
     3
100
AcDbLine
 10
85.0107270895457
 20
83.4350128328558
 30
0.0
 11
85.0107270895457
 21
83.1881481720174
 31
0.0
  0
LINE
  5
AF
102
{ACAD_REACTORS
330
348
102
}
330
1F
100
AcDbEntity
  8
1
  6
Continuous
 62
     3
100
AcDbLine
 10
84.78425650131038
 20
80.7173657740321
 30
0.0
 11
84.63327610915348
 21
80.7173657740321
 31
0.0
  0
LINE
  5
B0
102
{ACAD_REACTORS
330
348
102
}
330
1F
100
AcDbEntity
  8
1
  6
Continuous
 62
     3
100
AcDbLine
 10
84.40680552091817
 20
80.9438363622674
 30
0.0
 11
84.40680552091817
 21
81.7364834210911
 31
0.0
  0
LINE
  5
B1
102
{ACAD_REACTORS
330
348
102
}
330
1F
100
AcDbEntity
  8
1
  6
Continuous
 62
     3
100
AcDbLine
 10
85.0107270895457
 20
83.1881481720174
 30
0.0
 11
85.46366826601616
 21
83.1881481720174
 31
0.0
  0
LINE
  5
B2
102
{ACAD_REACTORS
330
348
102
}
330
1F
100
AcDbEntity
  8
1
  6
Continuous
 62
     3
100
AcDbLine
 10
85.46366826601616
 20
81.2269245975616
 30
0.0
 11
85.46366826601616
 21
80.7173657740321
 31
0.0
  0
LINE
  5
B3
102
{ACAD_REACTORS
330
348
102
}
330
1F
100
AcDbEntity
  8
1
  6
Continuous
 62
     3
100
AcDbLine
 10
85.0107270895457
 20
81.2269245975616
 30
0.0
 11
85.0107270895457
 21
80.9438363622674
 31
0.0
  0
LINE
  5
B4
102
{ACAD_REACTORS
330
348
102
}
330
1F
100
AcDbEntity
  8
1
  6
Continuous
 62
     3
100
AcDbLine
 10
85.46366826601616
 20
81.9629540093263
 30
0.0
 11
85.46366826601616
 21
81.2269245975616
 31
0.0
  0
LINE
  5
B5
102
{ACAD_REACTORS
330
348
102
}
330
1F
100
AcDbEntity
  8
1
  6
Continuous
 62
     3
100
AcDbLine
 10
85.0107270895457
 20
81.7364834210911
 30
0.0
 11
85.0107270895457
 21
81.2269245975616
 31
0.0
  0
LINE
  5
B6
102
{ACAD_REACTORS
330
348
102
}
330
1F
100
AcDbEntity
  8
1
  6
Continuous
 62
     3
100
AcDbLine
 10
84.63327610915348
 20
81.9629540093263
 30
0.0
 11
84.78425650131038
 21
81.9629540093263
 31
0.0
  0
LINE
  5
B7
102
{ACAD_REACTORS
330
348
102
}
330
1F
100
AcDbEntity
  8
1
  6
Continuous
 62
     3
100
AcDbLine
 10
84.40680552091817
 20
82.45407925261961
 30
0.0
 11
84.40680552091817
 21
83.4350128328558
 31
0.0
  0
LINE
  5
B8
102
{ACAD_REACTORS
330
349
102
}
330
1F
100
AcDbEntity
  8
1
  6
Continuous
 62
     3
100
AcDbLine
 10
82.74540881935616
 20
80.2644245975617
 30
0.0
 11
82.74540881935616
 21
83.0473648161621
 31
0.0
  0
LINE
  5
B9
102
{ACAD_REACTORS
330
349
102
}
330
1F
100
AcDbEntity
  8
1
  6
Continuous
 62
     3
100
AcDbLine
 10
83.19834999582679
 20
80.2644245975617
 30
0.0
 11
83.19834999582679
 21
84.1144245975617
 31
0.0
  0
LINE
  5
BA
102
{ACAD_REACTORS
330
349
102
}
330
1F
100
AcDbEntity
  8
1
  6
Continuous
 62
     3
100
AcDbLine
 10
83.19834999582679
 20
84.1144245975617
 30
0.0
 11
82.74540881935616
 21
84.1144245975617
 31
0.0
  0
LINE
  5
BB
102
{ACAD_REACTORS
330
349
102
}
330
1F
100
AcDbEntity
  8
1
  6
Continuous
 62
     3
100
AcDbLine
 10
82.2924676428857
 20
83.0473648161621
 30
0.0
 11
82.74540881935616
 21
83.0473648161621
 31
0.0
  0
LINE
  5
BC
102
{ACAD_REACTORS
330
349
102
}
330
1F
100
AcDbEntity
  8
1
  6
Continuous
 62
     3
100
AcDbLine
 10
82.2924676428857
 20
83.0473648161621
 30
0.0
 11
82.2924676428857
 21
83.5808947068619
 31
0.0
  0
LINE
  5
BD
102
{ACAD_REACTORS
330
349
102
}
330
1F
100
AcDbEntity
  8
1
  6
Continuous
 62
     3
100
AcDbLine
 10
82.74540881935616
 20
80.2644245975617
 30
0.0
 11
83.19834999582679
 21
80.2644245975617
 31
0.0
  0
LINE
  5
BE
102
{ACAD_REACTORS
330
34B
102
}
330
1F
100
AcDbEntity
  8
1
  6
Continuous
 62
     3
100
AcDbLine
 10
78.3350685026345
 20
84.1144245975617
 30
0.0
 11
78.93899007126197
 21
84.1144245975617
 31
0.0
  0
LINE
  5
BF
102
{ACAD_REACTORS
330
34B
102
}
330
1F
100
AcDbEntity
  8
1
  6
Continuous
 62
     3
100
AcDbLine
 10
77.88212732616387
 20
82.9302458017162
 30
0.0
 11
77.88212732616387
 21
83.6614834210912
 31
0.0
  0
LINE
  5
C0
102
{ACAD_REACTORS
330
34B
102
}
330
1F
100
AcDbEntity
  8
1
  6
Continuous
 62
     3
100
AcDbLine
 10
78.93899007126197
 20
80.2644245975617
 30
0.0
 11
78.3350685026345
 21
80.2644245975617
 31
0.0
  0
LINE
  5
C1
102
{ACAD_REACTORS
330
34B
102
}
330
1F
100
AcDbEntity
  8
1
  6
Continuous
 62
     3
100
AcDbLine
 10
77.88212732616387
 20
80.7173657740321
 30
0.0
 11
77.88212732616387
 21
81.7742285191303
 31
0.0
  0
LINE
  5
C2
102
{ACAD_REACTORS
330
34B
102
}
330
1F
100
AcDbEntity
  8
1
  6
Continuous
 62
     3
100
AcDbLine
 10
78.56153909086976
 20
83.6614834210912
 30
0.0
 11
78.71251948302688
 21
83.6614834210912
 31
0.0
  0
LINE
  5
C3
102
{ACAD_REACTORS
330
34B
102
}
330
1F
100
AcDbEntity
  8
1
  6
Continuous
 62
     3
100
AcDbLine
 10
78.3350685026345
 20
82.9278079908503
 30
0.0
 11
78.3350685026345
 21
83.4350128328558
 31
0.0
  0
LINE
  5
C4
102
{ACAD_REACTORS
330
34B
102
}
330
1F
100
AcDbEntity
  8
1
  6
Continuous
 62
     3
100
AcDbLine
 10
78.71251948302688
 20
80.7173657740321
 30
0.0
 11
78.56153909086976
 21
80.7173657740321
 31
0.0
  0
LINE
  5
C5
102
{ACAD_REACTORS
330
34B
102
}
330
1F
100
AcDbEntity
  8
1
  6
Continuous
 62
     3
100
AcDbLine
 10
78.3350685026345
 20
80.9438363622674
 30
0.0
 11
78.3350685026345
 21
81.7742285191303
 31
0.0
  0
LINE
  5
C6
102
{ACAD_REACTORS
330
34B
102
}
330
1F
100
AcDbEntity
  8
1
  6
Continuous
 62
     3
100
AcDbLine
 10
77.88212732616387
 20
81.7742285191303
 30
0.0
 11
78.3350685026345
 21
81.7742285191303
 31
0.0
  0
LINE
  5
C7
102
{ACAD_REACTORS
330
34B
102
}
330
1F
100
AcDbEntity
  8
1
  6
Continuous
 62
     3
100
AcDbLine
 10
78.93899007126197
 20
82.9065814603066
 30
0.0
 11
79.39193124773249
 21
82.9065814603066
 31
0.0
  0
LINE
  5
C8
102
{ACAD_REACTORS
330
34B
102
}
330
1F
100
AcDbEntity
  8
1
  6
Continuous
 62
     3
100
AcDbLine
 10
79.39193124773249
 20
83.6614834210912
 30
0.0
 11
79.39193124773249
 21
82.9065814603066
 31
0.0
  0
LINE
  5
C9
102
{ACAD_REACTORS
330
34B
102
}
330
1F
100
AcDbEntity
  8
1
  6
Continuous
 62
     3
100
AcDbLine
 10
78.93899007126197
 20
83.4350128328558
 30
0.0
 11
78.93899007126197
 21
82.9065814603066
 31
0.0
  0
LINE
  5
CA
102
{ACAD_REACTORS
330
34B
102
}
330
1F
100
AcDbEntity
  8
1
  6
Continuous
 62
     3
100
AcDbLine
 10
78.93899007126197
 20
81.7530019885866
 30
0.0
 11
78.93899007126197
 21
80.9438363622674
 31
0.0
  0
LINE
  5
CB
102
{ACAD_REACTORS
330
34B
102
}
330
1F
100
AcDbEntity
  8
1
  6
Continuous
 62
     3
100
AcDbLine
 10
79.39193124773249
 20
81.7505641777207
 30
0.0
 11
79.39193124773249
 21
80.7173657740321
 31
0.0
  0
LINE
  5
CC
102
{ACAD_REACTORS
330
34B
102
}
330
1F
100
AcDbEntity
  8
1
  6
Continuous
 62
     3
100
AcDbLine
 10
78.42099170049659
 20
82.7636659383832
 30
0.0
 11
79.11268085468078
 21
82.2840258482391
 31
0.0
  0
LINE
  5
CD
102
{ACAD_REACTORS
330
34B
102
}
330
1F
100
AcDbEntity
  8
1
  6
Continuous
 62
     3
100
AcDbLine
 10
78.16137771921558
 20
82.3967841311978
 30
0.0
 11
78.85306687339977
 21
81.9171440410537
 31
0.0
  0
LINE
  5
CE
102
{ACAD_REACTORS
330
34D
102
}
330
1F
100
AcDbEntity
  8
1
  6
Continuous
 62
     3
100
AcDbLine
 10
74.41660944248679
 20
84.1144245975617
 30
0.0
 11
75.02053101111426
 21
84.1144245975617
 31
0.0
  0
LINE
  5
CF
102
{ACAD_REACTORS
330
34D
102
}
330
1F
100
AcDbEntity
  8
1
  6
Continuous
 62
     3
100
AcDbLine
 10
73.96366826601616
 20
82.9302458017162
 30
0.0
 11
73.96366826601616
 21
83.6614834210912
 31
0.0
  0
LINE
  5
D0
102
{ACAD_REACTORS
330
34D
102
}
330
1F
100
AcDbEntity
  8
1
  6
Continuous
 62
     3
100
AcDbLine
 10
75.02053101111426
 20
80.2644245975617
 30
0.0
 11
74.41660944248679
 21
80.2644245975617
 31
0.0
  0
LINE
  5
D1
102
{ACAD_REACTORS
330
34D
102
}
330
1F
100
AcDbEntity
  8
1
  6
Continuous
 62
     3
100
AcDbLine
 10
73.96366826601616
 20
80.7173657740321
 30
0.0
 11
73.96366826601616
 21
81.7742285191303
 31
0.0
  0
LINE
  5
D2
102
{ACAD_REACTORS
330
34D
102
}
330
1F
100
AcDbEntity
  8
1
  6
Continuous
 62
     3
100
AcDbLine
 10
74.64308003072227
 20
83.6614834210912
 30
0.0
 11
74.79406042287917
 21
83.6614834210912
 31
0.0
  0
LINE
  5
D3
102
{ACAD_REACTORS
330
34D
102
}
330
1F
100
AcDbEntity
  8
1
  6
Continuous
 62
     3
100
AcDbLine
 10
74.41660944248679
 20
82.9278079908503
 30
0.0
 11
74.41660944248679
 21
83.4350128328558
 31
0.0
  0
LINE
  5
D4
102
{ACAD_REACTORS
330
34D
102
}
330
1F
100
AcDbEntity
  8
1
  6
Continuous
 62
     3
100
AcDbLine
 10
74.79406042287917
 20
80.7173657740321
 30
0.0
 11
74.64308003072227
 21
80.7173657740321
 31
0.0
  0
LINE
  5
D5
102
{ACAD_REACTORS
330
34D
102
}
330
1F
100
AcDbEntity
  8
1
  6
Continuous
 62
     3
100
AcDbLine
 10
74.41660944248679
 20
80.9438363622674
 30
0.0
 11
74.41660944248679
 21
81.7742285191303
 31
0.0
  0
LINE
  5
D6
102
{ACAD_REACTORS
330
34D
102
}
330
1F
100
AcDbEntity
  8
1
  6
Continuous
 62
     3
100
AcDbLine
 10
73.96366826601616
 20
81.7742285191303
 30
0.0
 11
74.41660944248679
 21
81.7742285191303
 31
0.0
  0
LINE
  5
D7
102
{ACAD_REACTORS
330
34D
102
}
330
1F
100
AcDbEntity
  8
1
  6
Continuous
 62
     3
100
AcDbLine
 10
75.02053101111426
 20
82.9065814603066
 30
0.0
 11
75.473472187585
 21
82.9065814603066
 31
0.0
  0
LINE
  5
D8
102
{ACAD_REACTORS
330
34D
102
}
330
1F
100
AcDbEntity
  8
1
  6
Continuous
 62
     3
100
AcDbLine
 10
75.473472187585
 20
83.6614834210912
 30
0.0
 11
75.473472187585
 21
82.9065814603066
 31
0.0
  0
LINE
  5
D9
102
{ACAD_REACTORS
330
34D
102
}
330
1F
100
AcDbEntity
  8
1
  6
Continuous
 62
     3
100
AcDbLine
 10
75.02053101111426
 20
83.4350128328558
 30
0.0
 11
75.02053101111426
 21
82.9065814603066
 31
0.0
  0
LINE
  5
DA
102
{ACAD_REACTORS
330
34D
102
}
330
1F
100
AcDbEntity
  8
1
  6
Continuous
 62
     3
100
AcDbLine
 10
75.02053101111426
 20
81.7530019885866
 30
0.0
 11
75.02053101111426
 21
80.9438363622674
 31
0.0
  0
LINE
  5
DB
102
{ACAD_REACTORS
330
34D
102
}
330
1F
100
AcDbEntity
  8
1
  6
Continuous
 62
     3
100
AcDbLine
 10
75.473472187585
 20
81.7505641777207
 30
0.0
 11
75.473472187585
 21
80.7173657740321
 31
0.0
  0
LINE
  5
DC
102
{ACAD_REACTORS
330
34D
102
}
330
1F
100
AcDbEntity
  8
1
  6
Continuous
 62
     3
100
AcDbLine
 10
74.50253264034887
 20
82.7636659383832
 30
0.0
 11
75.19422179453318
 21
82.2840258482391
 31
0.0
  0
LINE
  5
DD
102
{ACAD_REACTORS
330
34D
102
}
330
1F
100
AcDbEntity
  8
1
  6
Continuous
 62
     3
100
AcDbLine
 10
74.24291865906798
 20
82.3967841311978
 30
0.0
 11
74.93460781325228
 21
81.9171440410537
 31
0.0
  0
LINE
  5
DE
102
{ACAD_REACTORS
330
34C
102
}
330
1F
100
AcDbEntity
  8
1
  6
Continuous
 62
     3
100
AcDbLine
 10
75.92289779608996
 20
80.7173657740321
 30
0.0
 11
75.92289779608996
 21
84.1144245975617
 31
0.0
  0
LINE
  5
DF
102
{ACAD_REACTORS
330
34C
102
}
330
1F
100
AcDbEntity
  8
1
  6
Continuous
 62
     3
100
AcDbLine
 10
76.75328995295297
 20
80.7173657740321
 30
0.0
 11
76.60230956079607
 21
80.7173657740321
 31
0.0
  0
LINE
  5
E0
102
{ACAD_REACTORS
330
34C
102
}
330
1F
100
AcDbEntity
  8
1
  6
Continuous
 62
     3
100
AcDbLine
 10
76.3758389725607
 20
80.9438363622674
 30
0.0
 11
76.37583897256059
 21
84.1144245975617
 31
0.0
  0
LINE
  5
E1
102
{ACAD_REACTORS
330
34C
102
}
330
1F
100
AcDbEntity
  8
1
  6
Continuous
 62
     3
100
AcDbLine
 10
75.92289779608996
 20
84.1144245975617
 30
0.0
 11
76.37583897256059
 21
84.1144245975617
 31
0.0
  0
LINE
  5
E2
102
{ACAD_REACTORS
330
34C
102
}
330
1F
100
AcDbEntity
  8
1
  6
Continuous
 62
     3
100
AcDbLine
 10
76.97976054118806
 20
84.093198067018
 30
0.0
 11
76.97976054118806
 21
80.9438363622674
 31
0.0
  0
LINE
  5
E3
102
{ACAD_REACTORS
330
34C
102
}
330
1F
100
AcDbEntity
  8
1
  6
Continuous
 62
     3
100
AcDbLine
 10
76.97976054118806
 20
80.2644245975617
 30
0.0
 11
76.3758389725607
 21
80.2644245975617
 31
0.0
  0
LINE
  5
E4
102
{ACAD_REACTORS
330
34C
102
}
330
1F
100
AcDbEntity
  8
1
  6
Continuous
 62
     3
100
AcDbLine
 10
76.97976054118806
 20
84.093198067018
 30
0.0
 11
77.43270171765886
 21
84.093198067018
 31
0.0
  0
LINE
  5
E5
102
{ACAD_REACTORS
330
34C
102
}
330
1F
100
AcDbEntity
  8
1
  6
Continuous
 62
     3
100
AcDbLine
 10
77.43270171765886
 20
84.093198067018
 30
0.0
 11
77.43270171765886
 21
80.7173657740321
 31
0.0
  0
LINE
  5
E6
102
{ACAD_REACTORS
330
351
102
}
330
1F
100
AcDbEntity
  8
1
  6
Continuous
 62
     3
100
AcDbLine
 10
78.99729190651135
 20
87.1479976459417
 30
0.0
 11
76.56686705374537
 21
87.1479976459417
 31
0.0
  0
LINE
  5
E7
102
{ACAD_REACTORS
330
351
102
}
330
1F
100
AcDbEntity
  8
1
  6
Continuous
 62
     3
100
AcDbLine
 10
78.99729190651135
 20
87.5259310301598
 30
0.0
 11
78.99729190651135
 21
87.1479976459417
 31
0.0
  0
LINE
  5
E8
102
{ACAD_REACTORS
330
351
102
}
330
1F
100
AcDbEntity
  8
1
  6
Continuous
 62
     3
100
AcDbLine
 10
76.56686705374537
 20
87.5259310301598
 30
0.0
 11
78.99729190651135
 21
87.5259310301598
 31
0.0
  0
LINE
  5
E9
102
{ACAD_REACTORS
330
353
102
}
330
1F
100
AcDbEntity
  8
1
  6
Continuous
 62
     3
100
AcDbLine
 10
82.44020119227349
 20
86.08978417013181
 30
0.0
 11
82.44020119227349
 21
88.5841445059697
 31
0.0
  0
LINE
  5
EA
102
{ACAD_REACTORS
330
353
102
}
330
1F
100
AcDbEntity
  8
1
  6
Continuous
 62
     3
100
AcDbLine
 10
82.81813457649156
 20
85.8630241396012
 30
0.0
 11
82.66696122280428
 21
85.8630241396012
 31
0.0
  0
LINE
  5
EB
102
{ACAD_REACTORS
330
353
102
}
330
1F
100
AcDbEntity
  8
1
  6
Continuous
 62
     3
100
AcDbLine
 10
83.04489460702206
 20
88.5841445059697
 30
0.0
 11
83.04489460702206
 21
86.08978417013181
 31
0.0
  0
LINE
  5
EC
102
{ACAD_REACTORS
330
353
102
}
330
1F
100
AcDbEntity
  8
1
  6
Continuous
 62
     3
100
AcDbLine
 10
82.66696122280428
 20
88.8109045365003
 30
0.0
 11
82.81813457649156
 21
88.8109045365003
 31
0.0
  0
LINE
  5
ED
102
{ACAD_REACTORS
330
353
102
}
330
1F
100
AcDbEntity
  8
1
  6
Continuous
 62
     3
100
AcDbLine
 10
81.9866811312121
 20
85.8630241396012
 30
0.0
 11
81.9866811312121
 21
88.8109045365003
 31
0.0
  0
LINE
  5
EE
102
{ACAD_REACTORS
330
353
102
}
330
1F
100
AcDbEntity
  8
1
  6
Continuous
 62
     3
100
AcDbLine
 10
83.04489460702206
 20
85.4095040785399
 30
0.0
 11
82.44020119227349
 21
85.4095040785399
 31
0.0
  0
LINE
  5
EF
102
{ACAD_REACTORS
330
353
102
}
330
1F
100
AcDbEntity
  8
1
  6
Continuous
 62
     3
100
AcDbLine
 10
83.49841466808346
 20
88.8109045365003
 30
0.0
 11
83.49841466808346
 21
85.8630241396012
 31
0.0
  0
LINE
  5
F0
102
{ACAD_REACTORS
330
353
102
}
330
1F
100
AcDbEntity
  8
1
  6
Continuous
 62
     3
100
AcDbLine
 10
82.44020119227349
 20
89.2644245975617
 30
0.0
 11
83.04489460702206
 21
89.2644245975617
 31
0.0
  0
LINE
  5
F1
102
{ACAD_REACTORS
330
354
102
}
330
1F
100
AcDbEntity
  8
1
  6
Continuous
 62
     3
100
AcDbLine
 10
84.40545479020636
 20
86.08978417013181
 30
0.0
 11
84.40545479020636
 21
88.5841445059697
 31
0.0
  0
LINE
  5
F2
102
{ACAD_REACTORS
330
354
102
}
330
1F
100
AcDbEntity
  8
1
  6
Continuous
 62
     3
100
AcDbLine
 10
84.78338817442426
 20
85.8630241396012
 30
0.0
 11
84.63221482073709
 21
85.8630241396012
 31
0.0
  0
LINE
  5
F3
102
{ACAD_REACTORS
330
354
102
}
330
1F
100
AcDbEntity
  8
1
  6
Continuous
 62
     3
100
AcDbLine
 10
85.01014820495487
 20
88.5841445059697
 30
0.0
 11
85.01014820495487
 21
86.08978417013181
 31
0.0
  0
LINE
  5
F4
102
{ACAD_REACTORS
330
354
102
}
330
1F
100
AcDbEntity
  8
1
  6
Continuous
 62
     3
100
AcDbLine
 10
84.63221482073709
 20
88.8109045365003
 30
0.0
 11
84.78338817442426
 21
88.8109045365003
 31
0.0
  0
LINE
  5
F5
102
{ACAD_REACTORS
330
354
102
}
330
1F
100
AcDbEntity
  8
1
  6
Continuous
 62
     3
100
AcDbLine
 10
83.95193472914491
 20
85.8630241396012
 30
0.0
 11
83.95193472914491
 21
88.8109045365003
 31
0.0
  0
LINE
  5
F6
102
{ACAD_REACTORS
330
354
102
}
330
1F
100
AcDbEntity
  8
1
  6
Continuous
 62
     3
100
AcDbLine
 10
85.01014820495487
 20
85.4095040785399
 30
0.0
 11
84.40545479020636
 21
85.4095040785399
 31
0.0
  0
LINE
  5
F7
102
{ACAD_REACTORS
330
354
102
}
330
1F
100
AcDbEntity
  8
1
  6
Continuous
 62
     3
100
AcDbLine
 10
85.46366826601616
 20
88.8109045365003
 30
0.0
 11
85.46366826601616
 21
85.8630241396012
 31
0.0
  0
LINE
  5
F8
102
{ACAD_REACTORS
330
354
102
}
330
1F
100
AcDbEntity
  8
1
  6
Continuous
 62
     3
100
AcDbLine
 10
84.40545479020636
 20
89.2644245975617
 30
0.0
 11
85.01014820495487
 21
89.2644245975617
 31
0.0
  0
LINE
  5
F9
330
1F
100
AcDbEntity
  8
1
  6
Continuous
 62
     3
100
AcDbLine
 10
-90.8309161264624
 20
22.6003011506089
 30
0.0
 11
-95.713648960511
 21
22.6003011506089
 31
0.0
  0
LINE
  5
119
330
1F
100
AcDbEntity
  8
1
  6
Continuous
 62
     3
100
AcDbLine
 10
-34.7679491924313
 20
-19.0
 30
0.0
 11
36.7679491924309
 21
-19.0
 31
0.0
  0
LINE
  5
11A
330
1F
100
AcDbEntity
  8
1
  6
Continuous
 62
     3
100
AcDbLine
 10
-34.7679491924313
 20
19.0
 30
0.0
 11
-36.5000000000001
 21
19.0
 31
0.0
  0
LINE
  5
11B
330
1F
100
AcDbEntity
  8
1
  6
Continuous
 62
     3
100
AcDbLine
 10
36.7679491924309
 20
-19.0
 30
0.0
 11
38.4999999999998
 21
-19.0
 31
0.0
  0
LINE
  5
11C
330
1F
100
AcDbEntity
  8
1
  6
Continuous
 62
     3
100
AcDbLine
 10
36.7679491924309
 20
19.0
 30
0.0
 11
-34.7679491924313
 21
19.0
 31
0.0
  0
LINE
  5
11D
330
1F
100
AcDbEntity
  8
1
  6
DOT_CENTER
 62
     4
100
AcDbLine
 10
-38.8091715976334
 20
0.0
 30
0.0
 11
-34.7679491924313
 21
0.0
 31
0.0
  0
LINE
  5
11E
330
1F
100
AcDbEntity
  8
1
  6
Continuous
 62
     3
100
AcDbLine
 10
-34.7679491924313
 20
0.0
 30
0.0
 11
36.7679491924309
 21
0.0
 31
0.0
  0
LINE
  5
11F
330
1F
100
AcDbEntity
  8
1
  6
Continuous
 62
     3
100
AcDbLine
 10
38.4999999999998
 20
19.0
 30
0.0
 11
38.4999999999998
 21
-19.0
 31
0.0
  0
LINE
  5
120
330
1F
100
AcDbEntity
  8
1
  6
Continuous
 62
     3
100
AcDbLine
 10
-36.5000000000001
 20
19.0
 30
0.0
 11
-36.5000000000001
 21
-19.0
 31
0.0
  0
LINE
  5
121
330
1F
100
AcDbEntity
  8
1
  6
Continuous
 62
     3
100
AcDbLine
 10
-36.5000000000001
 20
-19.0
 30
0.0
 11
-34.7679491924313
 21
-19.0
 31
0.0
  0
LINE
  5
122
330
1F
100
AcDbEntity
  8
1
  6
Continuous
 62
     3
100
AcDbLine
 10
38.4999999999998
 20
19.0
 30
0.0
 11
36.7679491924309
 21
19.0
 31
0.0
  0
LINE
  5
123
330
1F
100
AcDbEntity
  8
1
  6
DOT_CENTER
 62
     4
100
AcDbLine
 10
36.7679491924309
 20
0.0
 30
0.0
 11
40.8091715976331
 21
0.0
 31
0.0
  0
LINE
  5
124
330
1F
100
AcDbEntity
  8
1
  6
Continuous
 62
     3
100
AcDbLine
 10
-92.3496879298321
 20
14.2001505753045
 30
0.0
 11
-93.7639014922052
 21
14.2001505753045
 31
0.0
  0
LINE
  5
125
330
1F
100
AcDbEntity
  8
1
  6
Continuous
 62
     3
100
AcDbLine
 10
-76.1318163748127
 20
32.0
 30
0.0
 11
-76.1318163748127
 21
29.6
 31
0.0
  0
LINE
  5
126
330
1F
100
AcDbEntity
  8
1
  6
Continuous
 62
     3
100
AcDbLine
 10
-81.1318163748127
 20
32.0
 30
0.0
 11
-81.1318163748127
 21
29.6
 31
0.0
  0
LINE
  5
127
330
1F
100
AcDbEntity
  8
1
  6
Continuous
 62
     3
100
AcDbLine
 10
-81.1318163748127
 20
32.0
 30
0.0
 11
-76.1318163748127
 21
32.0
 31
0.0
  0
LINE
  5
128
330
1F
100
AcDbEntity
  8
1
  6
DOT_CENTER
 62
     4
100
AcDbLine
 10
-78.6318163748127
 20
32.5515621187164
 30
0.0
 11
-78.6318163748127
 21
-23.0
 31
0.0
  0
LINE
  5
129
330
1F
100
AcDbEntity
  8
1
  6
Continuous
 62
     3
100
AcDbLine
 10
-72.3818163748127
 20
29.6001505753045
 30
0.0
 11
-84.8818163748127
 21
29.6001505753045
 31
0.0
  0
LINE
  5
12A
330
1F
100
AcDbEntity
  8
1
  6
Continuous
 62
     3
100
AcDbLine
 10
-85.6318163748127
 20
20.0001505753045
 30
0.0
 11
-85.6318163748127
 21
19.0
 31
0.0
  0
LINE
  5
12B
330
1F
100
AcDbEntity
  8
1
  6
Continuous
 62
     3
100
AcDbLine
 10
-86.6318163748127
 20
20.0001505753045
 30
0.0
 11
-70.6318163748127
 21
20.0001505753045
 31
0.0
  0
LINE
  5
12C
330
1F
100
AcDbEntity
  8
1
  6
Continuous
 62
     3
100
AcDbLine
 10
-71.6318163748127
 20
19.0
 30
0.0
 11
-71.6318163748127
 21
20.0001505753045
 31
0.0
  0
LINE
  5
12D
330
1F
100
AcDbEntity
  8
1
  6
Continuous
 62
     3
100
AcDbLine
 10
-70.6318163748127
 20
20.0001505753045
 30
0.0
 11
-70.6318163748127
 21
20.6001505753045
 31
0.0
  0
LINE
  5
12E
330
1F
100
AcDbEntity
  8
1
  6
Continuous
 62
     3
100
AcDbLine
 10
-86.6318163748127
 20
20.6001505753045
 30
0.0
 11
-86.6318163748127
 21
20.0001505753045
 31
0.0
  0
LINE
  5
12F
330
1F
100
AcDbEntity
  8
1
  6
Continuous
 62
     3
100
AcDbLine
 10
-72.3818163748133
 20
28.8752564244063
 30
0.0
 11
-72.3818163748127
 21
24.6001505753045
 31
0.0
  0
LINE
  5
130
330
1F
100
AcDbEntity
  8
1
  6
Continuous
 62
     3
100
AcDbLine
 10
-78.6318163748127
 20
28.8752564244063
 30
0.0
 11
-78.6318163748127
 21
25.3250447262027
 31
0.0
  0
LINE
  5
131
330
1F
100
AcDbEntity
  8
1
  6
Continuous
 62
     3
100
AcDbLine
 10
-84.8818163748127
 20
29.6001505753045
 30
0.0
 11
-84.8818163748127
 21
24.6001505753045
 31
0.0
  0
LINE
  5
132
330
1F
100
AcDbEntity
  8
1
  6
Continuous
 62
     3
100
AcDbLine
 10
-72.3818163748127
 20
29.6001505753045
 30
0.0
 11
-72.3818163748133
 21
28.8752564244063
 31
0.0
  0
LINE
  5
133
330
1F
100
AcDbEntity
  8
1
  6
Continuous
 62
     3
100
AcDbLine
 10
-93.7639014922052
 20
14.2001505753045
 30
0.0
 11
-98.7136489605109
 21
14.2001505753045
 31
0.0
  0
LINE
  5
134
330
1F
100
AcDbEntity
  8
1
  6
Continuous
 62
     3
100
AcDbLine
 10
-91.3496879298321
 20
20.6003011506089
 30
0.0
 11
-65.1128454141178
 21
20.6003011506089
 31
0.0
  0
LINE
  5
135
330
1F
100
AcDbEntity
  8
1
  6
Continuous
 62
     3
100
AcDbLine
 10
-93.7639014922052
 20
19.6003011506089
 30
0.0
 11
-93.7639014922052
 21
14.2001505753045
 31
0.0
  0
LINE
  5
136
330
1F
100
AcDbEntity
  8
1
  6
Continuous
 62
     3
100
AcDbLine
 10
-92.3496879298321
 20
19.6003011506089
 30
0.0
 11
-92.3496879298321
 21
14.2001505753045
 31
0.0
  0
LINE
  5
137
330
1F
100
AcDbEntity
  8
1
  6
Continuous
 62
     3
100
AcDbLine
 10
-98.713648960511
 20
19.6003011506089
 30
0.0
 11
-98.7136489605109
 21
14.2001505753045
 31
0.0
  0
LINE
  5
138
330
1F
100
AcDbEntity
  8
1
  6
Continuous
 62
     3
100
AcDbLine
 10
-91.7186470075077
 20
51.2416780903413
 30
0.0
 11
-89.218647007508
 21
49.2416780903413
 31
0.0
  0
LINE
  5
139
330
1F
100
AcDbEntity
  8
1
  6
Continuous
 62
     3
100
AcDbLine
 10
-70.8734128668638
 20
49.2416780903413
 30
0.0
 11
-68.3734128668638
 21
51.2416780903413
 31
0.0
  0
LINE
  5
13A
330
1F
100
AcDbEntity
  8
1
  6
Continuous
 62
     3
100
AcDbLine
 10
-70.0460299371858
 20
36.0074322096127
 30
0.0
 11
-70.0460299371858
 21
45.79194799528541
 31
0.0
  0
LINE
  5
13B
330
1F
100
AcDbEntity
  8
1
  6
Continuous
 62
     3
100
AcDbLine
 10
-88.0460299371861
 20
49.56940393664311
 30
0.0
 11
-72.0460299371858
 21
49.56940393664311
 31
0.0
  0
LINE
  5
13C
330
1F
100
AcDbEntity
  8
1
  6
Continuous
 62
     3
100
AcDbLine
 10
-90.0460299371861
 20
45.7919479952855
 30
0.0
 11
-90.0460299371861
 21
36.0074322096127
 31
0.0
  0
LINE
  5
13D
330
1F
100
AcDbEntity
  8
1
  6
Continuous
 62
     3
100
AcDbLine
 10
-88.0460299371857
 20
37.82209746509319
 30
0.0
 11
-72.04602993718571
 21
37.82209746509319
 31
0.0
  0
LINE
  5
13E
330
1F
100
AcDbEntity
  8
1
  6
Continuous
 62
     3
100
AcDbLine
 10
-89.0460299371857
 20
36.8220974650932
 30
0.0
 11
-89.0460299371858
 21
35.3146652554805
 31
0.0
  0
LINE
  5
13F
330
1F
100
AcDbEntity
  8
1
  6
Continuous
 62
     3
100
AcDbLine
 10
-71.0460299371857
 20
36.8220974650932
 30
0.0
 11
-71.0460299371857
 21
35.3146652554805
 31
0.0
  0
LINE
  5
140
330
1F
100
AcDbEntity
  8
1
  6
Continuous
 62
     3
100
AcDbLine
 10
-65.1128454141178
 20
22.6003011506089
 30
0.0
 11
-90.8309161264624
 21
22.6003011506089
 31
0.0
  0
LINE
  5
141
330
1F
100
AcDbEntity
  8
1
  6
Continuous
 62
     3
100
AcDbLine
 10
-65.1128454141178
 20
22.6003011506089
 30
0.0
 11
-65.1128454141178
 21
20.6003011506089
 31
0.0
  0
LINE
  5
142
330
1F
100
AcDbEntity
  8
1
  6
Continuous
 62
     3
100
AcDbLine
 10
8.0
 20
20.6001505753045
 30
0.0
 11
8.0
 21
20.0001505753045
 31
0.0
  0
LINE
  5
143
330
1F
100
AcDbEntity
  8
1
  6
Continuous
 62
     3
100
AcDbLine
 10
-8.0
 20
20.0001505753045
 30
0.0
 11
-8.0
 21
20.6001505753045
 31
0.0
  0
LINE
  5
144
330
1F
100
AcDbEntity
  8
1
  6
Continuous
 62
     3
100
AcDbLine
 10
7.70000000000005
 20
24.6001505753045
 30
0.0
 11
7.70000000000005
 21
22.6001505753045
 31
0.0
  0
LINE
  5
145
330
1F
100
AcDbEntity
  8
1
  6
Continuous
 62
     3
100
AcDbLine
 10
-7.70000000000005
 20
22.6001505753045
 30
0.0
 11
-7.70000000000005
 21
24.6001505753045
 31
0.0
  0
LINE
  5
146
330
1F
100
AcDbEntity
  8
1
  6
Continuous
 62
     3
100
AcDbLine
 10
7.5
 20
29.0228003061148
 30
0.0
 11
7.5
 21
25.1775008444941
 31
0.0
  0
LINE
  5
147
330
1F
100
AcDbEntity
  8
1
  6
Continuous
 62
     3
100
AcDbLine
 10
4.0
 20
29.6001505753045
 30
0.0
 11
6.5
 21
29.6001505753045
 31
0.0
  0
LINE
  5
148
330
1F
100
AcDbEntity
  8
1
  6
Continuous
 62
     3
100
AcDbLine
 10
6.5
 20
29.6001505753045
 30
0.0
 11
7.5
 21
29.0228003061148
 31
0.0
  0
LINE
  5
149
330
1F
100
AcDbEntity
  8
1
  6
Continuous
 62
     3
100
AcDbLine
 10
7.5
 20
25.1775008444941
 30
0.0
 11
6.5
 21
24.6001505753045
 31
0.0
  0
LINE
  5
14A
330
1F
100
AcDbEntity
  8
1
  6
Continuous
 62
     3
100
AcDbLine
 10
-6.5
 20
24.6001505753045
 30
0.0
 11
-7.5
 21
25.1775008444941
 31
0.0
  0
LINE
  5
14B
330
1F
100
AcDbEntity
  8
1
  6
Continuous
 62
     3
100
AcDbLine
 10
-7.5
 20
29.0228003061148
 30
0.0
 11
-6.5
 21
29.6001505753045
 31
0.0
  0
LINE
  5
14C
330
1F
100
AcDbEntity
  8
1
  6
Continuous
 62
     3
100
AcDbLine
 10
-6.5
 20
29.6001505753045
 30
0.0
 11
-4.0
 21
29.6001505753045
 31
0.0
  0
LINE
  5
14D
330
1F
100
AcDbEntity
  8
1
  6
Continuous
 62
     3
100
AcDbLine
 10
-7.5
 20
25.1775008444941
 30
0.0
 11
-7.5
 21
29.0228003061148
 31
0.0
  0
LINE
  5
14E
330
1F
100
AcDbEntity
  8
1
  6
Continuous
 62
     3
100
AcDbLine
 10
-4.0
 20
29.6001505753045
 30
0.0
 11
4.0
 21
29.6001505753045
 31
0.0
  0
LINE
  5
14F
330
1F
100
AcDbEntity
  8
1
  6
Continuous
 62
     3
100
AcDbLine
 10
-7.70000000000005
 20
24.6001505753045
 30
0.0
 11
1.79472802664438
 21
24.6001505753045
 31
0.0
  0
LINE
  5
150
330
1F
100
AcDbEntity
  8
1
  6
Continuous
 62
     3
100
AcDbLine
 10
-8.0
 20
20.0001505753045
 30
0.0
 11
8.0
 21
20.0001505753045
 31
0.0
  0
LINE
  5
151
330
1F
100
AcDbEntity
  8
1
  6
Continuous
 62
     3
100
AcDbLine
 10
1.79472802664438
 20
24.6001505753045
 30
0.0
 11
7.70000000000005
 21
24.6001505753045
 31
0.0
  0
LINE
  5
152
330
1F
100
AcDbEntity
  8
1
  6
Continuous
 62
     3
100
AcDbLine
 10
3.75277674973259
 20
29.0228003061148
 30
0.0
 11
3.75277674973259
 21
25.1775008444941
 31
0.0
  0
LINE
  5
153
330
1F
100
AcDbEntity
  8
1
  6
Continuous
 62
     3
100
AcDbLine
 10
-3.75277674973253
 20
29.0228003061148
 30
0.0
 11
-3.75277674973253
 21
25.1775008444941
 31
0.0
  0
LINE
  5
154
330
1F
100
AcDbEntity
  8
1
  6
DOT_CENTER
 62
     4
100
AcDbLine
 10
0.0
 20
34.0137822592624
 30
0.0
 11
0.0
 21
-20.9648555466949
 31
0.0
  0
LINE
  5
155
330
1F
100
AcDbEntity
  8
1
  6
Continuous
 62
     3
100
AcDbLine
 10
-81.1318163748127
 20
31.0
 30
0.0
 11
-76.1318163748127
 21
31.0
 31
0.0
  0
LINE
  5
156
330
1F
100
AcDbEntity
  8
1
  6
Continuous
 62
     3
100
AcDbLine
 10
-70.0460299371858
 20
48.2292089795192
 30
0.0
 11
-70.0460299371858
 21
45.79194799528541
 31
0.0
  0
LINE
  5
157
330
1F
100
AcDbEntity
  8
1
  6
Continuous
 62
     3
100
AcDbLine
 10
-90.0460299371861
 20
48.2292089795192
 30
0.0
 11
-90.0460299371861
 21
45.7919479952855
 31
0.0
  0
LINE
  5
158
330
1F
100
AcDbEntity
  8
1
  6
Continuous
 62
     3
100
AcDbLine
 10
-71.0460299371857
 20
35.3146652554805
 30
0.0
 11
-71.0460299371857
 21
24.6001505753045
 31
0.0
  0
LINE
  5
159
330
1F
100
AcDbEntity
  8
1
  6
Continuous
 62
     3
100
AcDbLine
 10
-89.0460299371858
 20
35.3146652554805
 30
0.0
 11
-89.0460299371857
 21
22.6003011506089
 31
0.0
  0
LINE
  5
15A
330
1F
100
AcDbEntity
  8
1
  6
Continuous
 62
     3
100
AcDbLine
 10
6.99999999999989
 20
20.0
 30
0.0
 11
6.99999999999989
 21
19.0
 31
0.0
  0
LINE
  5
15B
330
1F
100
AcDbEntity
  8
1
  6
Continuous
 62
     3
100
AcDbLine
 10
-7.00000000000011
 20
19.0
 30
0.0
 11
-7.00000000000011
 21
20.0
 31
0.0
  0
LINE
  5
15C
330
1F
100
AcDbEntity
  8
1
  6
Continuous
 62
     3
100
AcDbLine
 10
41.765357522618
 20
78.7190998873966
 30
0.0
 11
41.3700088458124
 21
78.7190998873966
 31
0.0
  0
LINE
  5
15D
330
1F
100
AcDbEntity
  8
1
  6
Continuous
 62
     3
100
AcDbLine
 10
33.5857864376268
 20
94.7190998873966
 30
0.0
 11
66.5857864376269
 21
97.7190998873966
 31
0.0
  0
LINE
  5
15E
330
1F
100
AcDbEntity
  8
1
  6
Continuous
 62
     3
100
AcDbLine
 10
33.5857864376268
 20
94.7190998873966
 30
0.0
 11
25.8878036267666
 21
94.7190998873966
 31
0.0
  0
LINE
  5
15F
330
1F
100
AcDbEntity
  8
1
  6
Continuous
 62
     3
100
AcDbLine
 10
25.5857864376269
 20
92.7190998873966
 30
0.0
 11
25.5857864376269
 21
76.7190998873966
 31
0.0
  0
LINE
  5
160
330
1F
100
AcDbEntity
  8
1
  6
Continuous
 62
     3
100
AcDbLine
 10
12.0021943026256
 20
93.7190998873966
 30
0.0
 11
24.5857864376269
 21
93.7190998873966
 31
0.0
  0
LINE
  5
161
330
1F
100
AcDbEntity
  8
1
  6
Continuous
 62
     3
100
AcDbLine
 10
33.5857864376268
 20
92.430619369149
 30
0.0
 11
33.5857864376268
 21
76.9283334546309
 31
0.0
  0
LINE
  5
162
330
1F
100
AcDbEntity
  8
1
  6
Continuous
 62
     3
100
AcDbLine
 10
13.5857864376269
 20
92.232888100386
 30
0.0
 11
13.5857864376267
 21
77.1280966964965
 31
0.0
  0
LINE
  5
163
330
1F
100
AcDbEntity
  8
1
  6
Continuous
 62
     3
100
AcDbLine
 10
12.0021943026255
 20
75.7190998873964
 30
0.0
 11
24.5857864376269
 21
75.7190998873966
 31
0.0
  0
LINE
  5
164
330
1F
100
AcDbEntity
  8
1
  6
Continuous
 62
     3
100
AcDbLine
 10
-15.7581647669953
 20
94.1133036237129
 30
0.0
 11
-20.0818325856981
 21
98.4369714424157
 31
0.0
  0
LINE
  5
165
330
1F
100
AcDbEntity
  8
1
  6
Continuous
 62
     3
100
AcDbLine
 10
-10.8084172986895
 20
99.0630510920186
 30
0.0
 11
-15.1320851173923
 21
103.386718910722
 31
0.0
  0
LINE
  5
166
330
1F
100
AcDbEntity
  8
1
  6
Continuous
 62
     3
100
AcDbLine
 10
66.5857864376269
 20
71.7190998873966
 30
0.0
 11
33.5857864376271
 21
74.7190998873962
 31
0.0
  0
LINE
  5
167
102
{ACAD_REACTORS
330
33F
102
}
330
1F
100
AcDbEntity
  8
1
  6
Continuous
 62
     3
100
AcDbLine
 10
41.9195676281893
 20
88.532703228366
 30
0.0
 11
42.4808970134527
 21
88.6663530820003
 31
0.0
  0
LINE
  5
168
102
{ACAD_REACTORS
330
340
102
}
330
1F
100
AcDbEntity
  8
1
  6
Continuous
 62
     3
100
AcDbLine
 10
37.8995374331012
 20
90.316111539191
 30
0.0
 11
41.0102758331012
 21
90.316111539191
 31
0.0
  0
LINE
  5
169
102
{ACAD_REACTORS
330
340
102
}
330
1F
100
AcDbEntity
  8
1
  6
Continuous
 62
     3
100
AcDbLine
 10
37.4981518331012
 20
89.914725939191
 30
0.0
 11
37.4981518331012
 21
89.212301139191
 31
0.0
  0
LINE
  5
16A
102
{ACAD_REACTORS
330
340
102
}
330
1F
100
AcDbEntity
  8
1
  6
Continuous
 62
     3
100
AcDbLine
 10
37.8995374331012
 20
88.8109155391911
 30
0.0
 11
41.0102758331012
 21
88.8109155391911
 31
0.0
  0
LINE
  5
16B
102
{ACAD_REACTORS
330
340
102
}
330
1F
100
AcDbEntity
  8
1
  6
Continuous
 62
     3
100
AcDbLine
 10
41.4116614331012
 20
89.914725939191
 30
0.0
 11
41.4116614331012
 21
89.212301139191
 31
0.0
  0
LINE
  5
16C
102
{ACAD_REACTORS
330
33E
102
}
330
1F
100
AcDbEntity
  8
1
  6
Continuous
 62
     3
100
AcDbLine
 10
37.8995374331013
 20
80.6828571391907
 30
0.0
 11
38.7901985582158
 21
80.6828571391907
 31
0.0
  0
LINE
  5
16D
102
{ACAD_REACTORS
330
33E
102
}
330
1F
100
AcDbEntity
  8
1
  6
Continuous
 62
     3
100
AcDbLine
 10
37.4981518331012
 20
80.281471539191
 30
0.0
 11
37.4981518331012
 21
79.5790467391909
 31
0.0
  0
LINE
  5
16E
102
{ACAD_REACTORS
330
33E
102
}
330
1F
100
AcDbEntity
  8
1
  6
Continuous
 62
     3
100
AcDbLine
 10
41.4116614331012
 20
80.281471539191
 30
0.0
 11
41.4116614331012
 21
79.5790467391909
 31
0.0
  0
LINE
  5
16F
102
{ACAD_REACTORS
330
33E
102
}
330
1F
100
AcDbEntity
  8
1
  6
Continuous
 62
     3
100
AcDbLine
 10
39.7493033881613
 20
80.682857139191
 30
0.0
 11
41.0102758331012
 21
80.682857139191
 31
0.0
  0
LINE
  5
170
102
{ACAD_REACTORS
330
33F
102
}
330
1F
100
AcDbEntity
  8
1
  6
Continuous
 62
     3
100
AcDbLine
 10
42.4808970134527
 20
80.8274195963818
 30
0.0
 11
41.9346328287941
 21
80.957482497491
 31
0.0
  0
LINE
  5
171
102
{ACAD_REACTORS
330
340
102
}
330
1F
100
AcDbEntity
  8
1
  6
Continuous
 62
     3
100
AcDbLine
 10
38.1692183831013
 20
90.021343989191
 30
0.0
 11
40.7405948831014
 21
90.021343989191
 31
0.0
  0
LINE
  5
172
102
{ACAD_REACTORS
330
340
102
}
330
1F
100
AcDbEntity
  8
1
  6
Continuous
 62
     3
100
AcDbLine
 10
38.1692183831013
 20
89.1056830891908
 30
0.0
 11
40.7405948831014
 21
89.1056830891908
 31
0.0
  0
LINE
  5
173
102
{ACAD_REACTORS
330
340
102
}
330
1F
100
AcDbEntity
  8
1
  6
Continuous
 62
     3
100
AcDbLine
 10
41.1168938831012
 20
89.645044989191
 30
0.0
 11
41.1168938831012
 21
89.4819820891909
 31
0.0
  0
LINE
  5
174
102
{ACAD_REACTORS
330
340
102
}
330
1F
100
AcDbEntity
  8
1
  6
Continuous
 62
     3
100
AcDbLine
 10
37.7929193831013
 20
89.645044989191
 30
0.0
 11
37.7929193831013
 21
89.4819820891909
 31
0.0
  0
LINE
  5
175
102
{ACAD_REACTORS
330
33E
102
}
330
1F
100
AcDbEntity
  8
1
  6
Continuous
 62
     3
100
AcDbLine
 10
38.1692183831013
 20
80.3880895891911
 30
0.0
 11
38.7901985582156
 21
80.3880895891911
 31
0.0
  0
LINE
  5
176
102
{ACAD_REACTORS
330
33E
102
}
330
1F
100
AcDbEntity
  8
1
  6
Continuous
 62
     3
100
AcDbLine
 10
40.7405948831014
 20
79.472428689191
 30
0.0
 11
40.0586985437614
 21
79.472428689191
 31
0.0
  0
LINE
  5
177
102
{ACAD_REACTORS
330
33E
102
}
330
1F
100
AcDbEntity
  8
1
  6
Continuous
 62
     3
100
AcDbLine
 10
41.1168938831012
 20
80.0117905891912
 30
0.0
 11
41.1168938831012
 21
79.848727689191
 31
0.0
  0
LINE
  5
178
102
{ACAD_REACTORS
330
33E
102
}
330
1F
100
AcDbEntity
  8
1
  6
Continuous
 62
     3
100
AcDbLine
 10
37.7929193831013
 20
80.0117905891912
 30
0.0
 11
37.7929193831013
 21
79.848727689191
 31
0.0
  0
LINE
  5
179
102
{ACAD_REACTORS
330
33E
102
}
330
1F
100
AcDbEntity
  8
1
  6
Continuous
 62
     3
100
AcDbLine
 10
39.7287456466403
 20
80.3016833596181
 30
0.0
 11
39.0728161677505
 21
79.2813486146789
 31
0.0
  0
LINE
  5
17A
102
{ACAD_REACTORS
330
33E
102
}
330
1F
100
AcDbEntity
  8
1
  6
Continuous
 62
     3
100
AcDbLine
 10
39.8870129561931
 20
80.3880895891911
 30
0.0
 11
40.7405948831014
 21
80.3880895891911
 31
0.0
  0
LINE
  5
17B
102
{ACAD_REACTORS
330
33E
102
}
330
1F
100
AcDbEntity
  8
1
  6
Continuous
 62
     3
100
AcDbLine
 10
38.7426068414741
 20
79.472428689191
 30
0.0
 11
38.1692183831013
 21
79.472428689191
 31
0.0
  0
LINE
  5
17C
102
{ACAD_REACTORS
330
33E
102
}
330
1F
100
AcDbEntity
  8
1
  6
Continuous
 62
     3
100
AcDbLine
 10
38.8828953962873
 20
79.1776611391909
 30
0.0
 11
37.8995374331012
 21
79.1776611391909
 31
0.0
  0
LINE
  5
17D
102
{ACAD_REACTORS
330
33E
102
}
330
1F
100
AcDbEntity
  8
1
  6
Continuous
 62
     3
100
AcDbLine
 10
39.7493033881613
 20
80.682857139191
 30
0.0
 11
39.7478596685651
 21
80.682857139191
 31
0.0
  0
LINE
  5
17E
102
{ACAD_REACTORS
330
33E
102
}
330
1F
100
AcDbEntity
  8
1
  6
Continuous
 62
     3
100
AcDbLine
 10
39.5580350154245
 20
80.5793190518654
 30
0.0
 11
38.9007940524248
 21
79.5587104286291
 31
0.0
  0
LINE
  5
17F
102
{ACAD_REACTORS
330
33E
102
}
330
1F
100
AcDbEntity
  8
1
  6
Continuous
 62
     3
100
AcDbLine
 10
38.7901985582158
 20
80.6828571391907
 30
0.0
 11
38.7901985582156
 21
80.3880895891911
 31
0.0
  0
LINE
  5
180
102
{ACAD_REACTORS
330
33E
102
}
330
1F
100
AcDbEntity
  8
1
  6
Continuous
 62
     3
100
AcDbLine
 10
40.0586985437614
 20
79.472428689191
 30
0.0
 11
40.0586985437614
 21
79.1776611391909
 31
0.0
  0
LINE
  5
181
102
{ACAD_REACTORS
330
33E
102
}
330
1F
100
AcDbEntity
  8
1
  6
Continuous
 62
     3
100
AcDbLine
 10
40.0586985437614
 20
79.1776611391909
 30
0.0
 11
41.0102758331012
 21
79.1776611391909
 31
0.0
  0
LINE
  5
182
102
{ACAD_REACTORS
330
33F
102
}
330
1F
100
AcDbEntity
  8
1
  6
Continuous
 62
     3
100
AcDbLine
 10
41.6669034436546
 20
90.6649149724097
 30
0.0
 11
41.9195676281893
 21
88.532703228366
 31
0.0
  0
LINE
  5
183
102
{ACAD_REACTORS
330
33F
102
}
330
1F
100
AcDbEntity
  8
1
  6
Continuous
 62
     3
100
AcDbLine
 10
41.9346328287941
 20
80.957482497491
 30
0.0
 11
41.6669034436546
 21
78.8288577059723
 31
0.0
  0
LINE
  5
184
330
1F
100
AcDbEntity
  8
1
  6
Continuous
 62
     3
100
AcDbLine
 10
-15.1320851173923
 20
103.386718910722
 30
0.0
 11
-20.0818325856981
 21
98.4369714424157
 31
0.0
  0
LINE
  5
185
330
1F
100
AcDbEntity
  8
1
  6
LONG_DASHED
 62
     4
100
AcDbLine
 10
-18.667619023325
 20
97.0227578800426
 30
0.0
 11
-13.7178715550192
 21
101.972505348349
 31
0.0
  0
LINE
  5
186
330
1F
100
AcDbEntity
  8
1
  6
Continuous
 62
     3
100
AcDbLine
 10
25.8878036267666
 20
74.7190998873966
 30
0.0
 11
33.5857864376271
 21
74.7190998873962
 31
0.0
  0
LINE
  5
187
102
{ACAD_REACTORS
330
34E
102
}
330
1F
100
AcDbEntity
  8
1
  6
Continuous
 62
     3
100
AcDbLine
 10
71.2741274019172
 20
85.2961147030182
 30
0.0
 11
71.2741274019172
 21
83.6812986325943
 31
0.0
  0
LINE
  5
188
102
{ACAD_REACTORS
330
34E
102
}
330
1F
100
AcDbEntity
  8
1
  6
Continuous
 62
     3
100
AcDbLine
 10
70.5107023971145
 20
85.2961147030182
 30
0.0
 11
70.5107023971145
 21
83.6812986325943
 31
0.0
  0
LINE
  5
189
102
{ACAD_REACTORS
330
34E
102
}
330
1F
100
AcDbEntity
  8
1
  6
Continuous
 62
     3
100
AcDbLine
 10
70.5107023971145
 20
85.2961147030182
 30
0.0
 11
71.2741274019172
 21
85.2961147030182
 31
0.0
  0
LINE
  5
18A
102
{ACAD_REACTORS
330
347
102
}
330
1F
100
AcDbEntity
  8
1
  6
Continuous
 62
     3
100
AcDbLine
 10
70.0204115112105
 20
83.6812986325943
 30
0.0
 11
68.7750500054475
 21
85.7569011421989
 31
0.0
  0
LINE
  5
18B
102
{ACAD_REACTORS
330
347
102
}
330
1F
100
AcDbEntity
  8
1
  6
Continuous
 62
     3
100
AcDbLine
 10
68.8831147225673
 20
84.0964191345153
 30
0.0
 11
67.1032288444113
 21
84.0964191345153
 31
0.0
  0
LINE
  5
18C
102
{ACAD_REACTORS
330
347
102
}
330
1F
100
AcDbEntity
  8
1
  6
Continuous
 62
     3
100
AcDbLine
 10
68.6648701549814
 20
84.4596495736959
 30
0.0
 11
68.045263259538
 21
85.4908783792545
 31
0.0
  0
LINE
  5
18D
102
{ACAD_REACTORS
330
347
102
}
330
1F
100
AcDbEntity
  8
1
  6
Continuous
 62
     3
100
AcDbLine
 10
67.3486111140049
 20
84.4596495736959
 30
0.0
 11
68.6648701549814
 21
84.4596495736959
 31
0.0
  0
LINE
  5
18E
102
{ACAD_REACTORS
330
347
102
}
330
1F
100
AcDbEntity
  8
1
  6
Continuous
 62
     3
100
AcDbLine
 10
69.1325370855226
 20
83.6812986325943
 30
0.0
 11
68.8831147225673
 21
84.0964191345153
 31
0.0
  0
LINE
  5
18F
102
{ACAD_REACTORS
330
347
102
}
330
1F
100
AcDbEntity
  8
1
  6
Continuous
 62
     3
100
AcDbLine
 10
69.1325370855226
 20
83.6812986325943
 30
0.0
 11
70.0204115112105
 21
83.6812986325943
 31
0.0
  0
LINE
  5
190
102
{ACAD_REACTORS
330
347
102
}
330
1F
100
AcDbEntity
  8
1
  6
Continuous
 62
     3
100
AcDbLine
 10
66.2374313027468
 20
83.6812986325943
 30
0.0
 11
67.5865729339898
 21
85.7569011421989
 31
0.0
  0
LINE
  5
191
102
{ACAD_REACTORS
330
347
102
}
330
1F
100
AcDbEntity
  8
1
  6
Continuous
 62
     3
100
AcDbLine
 10
67.5865729339898
 20
85.7569011421989
 30
0.0
 11
68.7750500054475
 21
85.7569011421989
 31
0.0
  0
LINE
  5
192
102
{ACAD_REACTORS
330
347
102
}
330
1F
100
AcDbEntity
  8
1
  6
Continuous
 62
     3
100
AcDbLine
 10
66.2374313027468
 20
83.6812986325943
 30
0.0
 11
66.822791964876
 21
83.6812986325943
 31
0.0
  0
LINE
  5
193
102
{ACAD_REACTORS
330
347
102
}
330
1F
100
AcDbEntity
  8
1
  6
Continuous
 62
     3
100
AcDbLine
 10
67.3486111140049
 20
84.4596495736959
 30
0.0
 11
68.045263259538
 21
85.4908783792545
 31
0.0
  0
LINE
  5
194
102
{ACAD_REACTORS
330
347
102
}
330
1F
100
AcDbEntity
  8
1
  6
Continuous
 62
     3
100
AcDbLine
 10
67.1032288444113
 20
84.0964191345153
 30
0.0
 11
66.822791964876
 21
83.6812986325943
 31
0.0
  0
LINE
  5
195
102
{ACAD_REACTORS
330
345
102
}
330
1F
100
AcDbEntity
  8
1
  6
Continuous
 62
     3
100
AcDbLine
 10
61.5104412218307
 20
83.6812986325943
 30
0.0
 11
60.2650797160677
 21
85.7569011421989
 31
0.0
  0
LINE
  5
196
102
{ACAD_REACTORS
330
346
102
}
330
1F
100
AcDbEntity
  8
1
  6
Continuous
 62
     3
100
AcDbLine
 10
65.776644863566
 20
83.6812986325943
 30
0.0
 11
65.776644863566
 21
85.7569011421989
 31
0.0
  0
LINE
  5
197
102
{ACAD_REACTORS
330
345
102
}
330
1F
100
AcDbEntity
  8
1
  6
Continuous
 62
     3
100
AcDbLine
 10
60.3731444331876
 20
84.0964191345153
 30
0.0
 11
58.5932585550318
 21
84.0964191345153
 31
0.0
  0
LINE
  5
198
102
{ACAD_REACTORS
330
345
102
}
330
1F
100
AcDbEntity
  8
1
  6
Continuous
 62
     3
100
AcDbLine
 10
60.1548998656016
 20
84.4596495736959
 30
0.0
 11
59.5352929701584
 21
85.4908783792545
 31
0.0
  0
LINE
  5
199
102
{ACAD_REACTORS
330
345
102
}
330
1F
100
AcDbEntity
  8
1
  6
Continuous
 62
     3
100
AcDbLine
 10
58.8386408246253
 20
84.4596495736959
 30
0.0
 11
60.1548998656016
 21
84.4596495736959
 31
0.0
  0
LINE
  5
19A
102
{ACAD_REACTORS
330
345
102
}
330
1F
100
AcDbEntity
  8
1
  6
Continuous
 62
     3
100
AcDbLine
 10
60.6225667961428
 20
83.6812986325943
 30
0.0
 11
60.3731444331876
 21
84.0964191345153
 31
0.0
  0
LINE
  5
19B
102
{ACAD_REACTORS
330
345
102
}
330
1F
100
AcDbEntity
  8
1
  6
Continuous
 62
     3
100
AcDbLine
 10
60.6225667961428
 20
83.6812986325943
 30
0.0
 11
61.5104412218307
 21
83.6812986325943
 31
0.0
  0
LINE
  5
19C
102
{ACAD_REACTORS
330
346
102
}
330
1F
100
AcDbEntity
  8
1
  6
Continuous
 62
     3
100
AcDbLine
 10
61.9762220325767
 20
83.6812986325943
 30
0.0
 11
62.5441544109383
 21
83.6812986325943
 31
0.0
  0
LINE
  5
19D
102
{ACAD_REACTORS
330
346
102
}
330
1F
100
AcDbEntity
  8
1
  6
Continuous
 62
     3
100
AcDbLine
 10
61.9762220325767
 20
85.7569011421989
 30
0.0
 11
63.2525651119297
 21
85.7569011421989
 31
0.0
  0
LINE
  5
19E
102
{ACAD_REACTORS
330
346
102
}
330
1F
100
AcDbEntity
  8
1
  6
Continuous
 62
     3
100
AcDbLine
 10
61.9762220325767
 20
85.7569011421989
 30
0.0
 11
61.9762220325767
 21
83.6812986325943
 31
0.0
  0
LINE
  5
19F
102
{ACAD_REACTORS
330
343
102
}
330
1F
100
AcDbEntity
  8
1
  6
Continuous
 62
     3
100
AcDbLine
 10
52.701998434299
 20
86.9141098873966
 30
0.0
 11
52.701998434299
 21
82.5240898873965
 31
0.0
  0
LINE
  5
1A0
102
{ACAD_REACTORS
330
341
102
}
330
1F
100
AcDbEntity
  8
1
  6
Continuous
 62
     3
100
AcDbLine
 10
46.555970434299
 20
86.9141098873966
 30
0.0
 11
46.555970434299
 21
82.5240898873965
 31
0.0
  0
LINE
  5
1A1
102
{ACAD_REACTORS
330
341
102
}
330
1F
100
AcDbEntity
  8
1
  6
Continuous
 62
     3
100
AcDbLine
 10
46.555970434299
 20
86.9141098873966
 30
0.0
 11
47.9583379342989
 21
86.9141098873966
 31
0.0
  0
LINE
  5
1A2
102
{ACAD_REACTORS
330
341
102
}
330
1F
100
AcDbEntity
  8
1
  6
Continuous
 62
     3
100
AcDbLine
 10
46.555970434299
 20
82.5240898873965
 30
0.0
 11
47.9583379342989
 21
82.5240898873965
 31
0.0
  0
LINE
  5
1A3
102
{ACAD_REACTORS
330
344
102
}
330
1F
100
AcDbEntity
  8
1
  6
Continuous
 62
     3
100
AcDbLine
 10
54.1165604342989
 20
85.7569011421989
 30
0.0
 11
54.1165604342989
 21
83.6812986325943
 31
0.0
  0
LINE
  5
1A4
102
{ACAD_REACTORS
330
344
102
}
330
1F
100
AcDbEntity
  8
1
  6
Continuous
 62
     3
100
AcDbLine
 10
57.3337443241862
 20
85.7569011421989
 30
0.0
 11
57.3337443241862
 21
83.6812986325943
 31
0.0
  0
LINE
  5
1A5
102
{ACAD_REACTORS
330
345
102
}
330
1F
100
AcDbEntity
  8
1
  6
Continuous
 62
     3
100
AcDbLine
 10
57.7274610133671
 20
83.6812986325943
 30
0.0
 11
59.0766026446101
 21
85.7569011421989
 31
0.0
  0
LINE
  5
1A6
102
{ACAD_REACTORS
330
345
102
}
330
1F
100
AcDbEntity
  8
1
  6
Continuous
 62
     3
100
AcDbLine
 10
59.0766026446101
 20
85.7569011421989
 30
0.0
 11
60.2650797160677
 21
85.7569011421989
 31
0.0
  0
LINE
  5
1A7
102
{ACAD_REACTORS
330
345
102
}
330
1F
100
AcDbEntity
  8
1
  6
Continuous
 62
     3
100
AcDbLine
 10
57.7274610133671
 20
83.6812986325943
 30
0.0
 11
58.3128216754963
 21
83.6812986325943
 31
0.0
  0
LINE
  5
1A8
102
{ACAD_REACTORS
330
343
102
}
330
1F
100
AcDbEntity
  8
1
  6
Continuous
 62
     3
100
AcDbLine
 10
52.701998434299
 20
86.9141098873966
 30
0.0
 11
51.2996309342988
 21
86.9141098873966
 31
0.0
  0
LINE
  5
1A9
102
{ACAD_REACTORS
330
343
102
}
330
1F
100
AcDbEntity
  8
1
  6
Continuous
 62
     3
100
AcDbLine
 10
52.701998434299
 20
82.5240898873965
 30
0.0
 11
51.2996309342988
 21
82.5240898873965
 31
0.0
  0
LINE
  5
1AA
102
{ACAD_REACTORS
330
346
102
}
330
1F
100
AcDbEntity
  8
1
  6
Continuous
 62
     3
100
AcDbLine
 10
64.8973721087636
 20
85.1861104520578
 30
0.0
 11
64.8973721087636
 21
83.6812986325943
 31
0.0
  0
LINE
  5
1AB
102
{ACAD_REACTORS
330
346
102
}
330
1F
100
AcDbEntity
  8
1
  6
Continuous
 62
     3
100
AcDbLine
 10
64.8973721087636
 20
83.6812986325943
 30
0.0
 11
65.776644863566
 21
83.6812986325943
 31
0.0
  0
LINE
  5
1AC
102
{ACAD_REACTORS
330
346
102
}
330
1F
100
AcDbEntity
  8
1
  6
Continuous
 62
     3
100
AcDbLine
 10
62.5441544109383
 20
85.1861104520578
 30
0.0
 11
62.5441544109383
 21
83.6812986325943
 31
0.0
  0
LINE
  5
1AD
102
{ACAD_REACTORS
330
343
102
}
330
1F
100
AcDbEntity
  8
1
  6
Continuous
 62
     3
100
AcDbLine
 10
51.2996309342988
 20
86.9141098873966
 30
0.0
 11
51.2996309342988
 21
82.5240898873965
 31
0.0
  0
LINE
  5
1AE
102
{ACAD_REACTORS
330
341
102
}
330
1F
100
AcDbEntity
  8
1
  6
Continuous
 62
     3
100
AcDbLine
 10
47.9583379342989
 20
86.9141098873966
 30
0.0
 11
47.9583379342989
 21
82.5240898873965
 31
0.0
  0
LINE
  5
1AF
102
{ACAD_REACTORS
330
342
102
}
330
1F
100
AcDbEntity
  8
1
  6
Continuous
 62
     3
100
AcDbLine
 10
50.3301681842987
 20
82.5240898873965
 30
0.0
 11
50.3301681842987
 21
86.9141098873966
 31
0.0
  0
LINE
  5
1B0
102
{ACAD_REACTORS
330
342
102
}
330
1F
100
AcDbEntity
  8
1
  6
Continuous
 62
     3
100
AcDbLine
 10
48.9278006842989
 20
82.5240898873965
 30
0.0
 11
48.9278006842989
 21
86.9141098873966
 31
0.0
  0
LINE
  5
1B1
102
{ACAD_REACTORS
330
342
102
}
330
1F
100
AcDbEntity
  8
1
  6
Continuous
 62
     3
100
AcDbLine
 10
48.9278006842989
 20
82.5240898873965
 30
0.0
 11
50.3301681842987
 21
82.5240898873965
 31
0.0
  0
LINE
  5
1B2
102
{ACAD_REACTORS
330
342
102
}
330
1F
100
AcDbEntity
  8
1
  6
Continuous
 62
     3
100
AcDbLine
 10
48.9278006842989
 20
86.9141098873966
 30
0.0
 11
50.3301681842987
 21
86.9141098873966
 31
0.0
  0
LINE
  5
1B3
102
{ACAD_REACTORS
330
344
102
}
330
1F
100
AcDbEntity
  8
1
  6
Continuous
 62
     3
100
AcDbLine
 10
56.4331311943839
 20
85.7569011421989
 30
0.0
 11
57.3337443241862
 21
85.7569011421989
 31
0.0
  0
LINE
  5
1B4
102
{ACAD_REACTORS
330
344
102
}
330
1F
100
AcDbEntity
  8
1
  6
Continuous
 62
     3
100
AcDbLine
 10
55.0171735641014
 20
85.7569011421989
 30
0.0
 11
54.1165604342989
 21
85.7569011421989
 31
0.0
  0
LINE
  5
1B5
102
{ACAD_REACTORS
330
344
102
}
330
1F
100
AcDbEntity
  8
1
  6
Continuous
 62
     3
100
AcDbLine
 10
55.0171735641014
 20
83.6812986325943
 30
0.0
 11
54.1165604342989
 21
83.6812986325943
 31
0.0
  0
LINE
  5
1B6
102
{ACAD_REACTORS
330
344
102
}
330
1F
100
AcDbEntity
  8
1
  6
Continuous
 62
     3
100
AcDbLine
 10
56.4331311943839
 20
83.6812986325943
 30
0.0
 11
57.3337443241862
 21
83.6812986325943
 31
0.0
  0
LINE
  5
1B7
102
{ACAD_REACTORS
330
344
102
}
330
1F
100
AcDbEntity
  8
1
  6
Continuous
 62
     3
100
AcDbLine
 10
56.4331311943839
 20
83.6812986325943
 30
0.0
 11
56.4331311943839
 21
84.5328165736959
 31
0.0
  0
LINE
  5
1B8
102
{ACAD_REACTORS
330
344
102
}
330
1F
100
AcDbEntity
  8
1
  6
Continuous
 62
     3
100
AcDbLine
 10
56.4331311943839
 20
84.5328165736959
 30
0.0
 11
55.0171735641014
 21
84.5328165736959
 31
0.0
  0
LINE
  5
1B9
102
{ACAD_REACTORS
330
344
102
}
330
1F
100
AcDbEntity
  8
1
  6
Continuous
 62
     3
100
AcDbLine
 10
56.4331311943839
 20
84.9053832010972
 30
0.0
 11
56.4331311943839
 21
85.7569011421989
 31
0.0
  0
LINE
  5
1BA
102
{ACAD_REACTORS
330
344
102
}
330
1F
100
AcDbEntity
  8
1
  6
Continuous
 62
     3
100
AcDbLine
 10
56.4331311943839
 20
84.9053832010972
 30
0.0
 11
55.0171735641014
 21
84.9053832010972
 31
0.0
  0
LINE
  5
1BB
102
{ACAD_REACTORS
330
344
102
}
330
1F
100
AcDbEntity
  8
1
  6
Continuous
 62
     3
100
AcDbLine
 10
55.0171735641014
 20
85.7569011421989
 30
0.0
 11
55.0171735641014
 21
84.9053832010972
 31
0.0
  0
LINE
  5
1BC
102
{ACAD_REACTORS
330
344
102
}
330
1F
100
AcDbEntity
  8
1
  6
Continuous
 62
     3
100
AcDbLine
 10
55.0171735641014
 20
84.5328165736959
 30
0.0
 11
55.0171735641014
 21
83.6812986325943
 31
0.0
  0
LINE
  5
1BD
102
{ACAD_REACTORS
330
345
102
}
330
1F
100
AcDbEntity
  8
1
  6
Continuous
 62
     3
100
AcDbLine
 10
58.8386408246253
 20
84.4596495736959
 30
0.0
 11
59.5352929701584
 21
85.4908783792545
 31
0.0
  0
LINE
  5
1BE
102
{ACAD_REACTORS
330
345
102
}
330
1F
100
AcDbEntity
  8
1
  6
Continuous
 62
     3
100
AcDbLine
 10
58.5932585550318
 20
84.0964191345153
 30
0.0
 11
58.3128216754963
 21
83.6812986325943
 31
0.0
  0
LINE
  5
1BF
102
{ACAD_REACTORS
330
346
102
}
330
1F
100
AcDbEntity
  8
1
  6
Continuous
 62
     3
100
AcDbLine
 10
64.8973721087636
 20
85.1861104520578
 30
0.0
 11
64.1328327349632
 21
83.6812986325943
 31
0.0
  0
LINE
  5
1C0
102
{ACAD_REACTORS
330
346
102
}
330
1F
100
AcDbEntity
  8
1
  6
Continuous
 62
     3
100
AcDbLine
 10
64.1328327349632
 20
83.6812986325943
 30
0.0
 11
63.3629231511249
 21
83.6812986325943
 31
0.0
  0
LINE
  5
1C1
102
{ACAD_REACTORS
330
346
102
}
330
1F
100
AcDbEntity
  8
1
  6
Continuous
 62
     3
100
AcDbLine
 10
63.3629231511249
 20
83.6812986325943
 30
0.0
 11
62.5441544109383
 21
85.1861104520578
 31
0.0
  0
LINE
  5
1C2
102
{ACAD_REACTORS
330
346
102
}
330
1F
100
AcDbEntity
  8
1
  6
Continuous
 62
     3
100
AcDbLine
 10
63.8783414108801
 20
84.4596495736959
 30
0.0
 11
63.2525651119297
 21
85.7569011421989
 31
0.0
  0
LINE
  5
1C3
102
{ACAD_REACTORS
330
346
102
}
330
1F
100
AcDbEntity
  8
1
  6
Continuous
 62
     3
100
AcDbLine
 10
63.8783414108801
 20
84.4596495736959
 30
0.0
 11
64.45818917413
 21
85.7569011421989
 31
0.0
  0
LINE
  5
1C4
102
{ACAD_REACTORS
330
346
102
}
330
1F
100
AcDbEntity
  8
1
  6
Continuous
 62
     3
100
AcDbLine
 10
64.45818917413
 20
85.7569011421989
 30
0.0
 11
65.776644863566
 21
85.7569011421989
 31
0.0
  0
LINE
  5
1C5
102
{ACAD_REACTORS
330
34E
102
}
330
1F
100
AcDbEntity
  8
1
  6
Continuous
 62
     3
100
AcDbLine
 10
70.5107023971145
 20
83.6812986325943
 30
0.0
 11
71.2741274019172
 21
83.6812986325943
 31
0.0
  0
LINE
  5
1C6
330
1F
100
AcDbEntity
  8
1
  6
DASH_CENTER
 62
     3
100
AcDbLine
 10
-9.54042157245692
 20
90.7350275010436
 30
0.0
 11
-7.41012810750874
 21
92.8653209659917
 31
0.0
  0
LINE
  5
1C7
330
1F
100
AcDbEntity
  8
1
  6
DASH_CENTER
 62
     3
100
AcDbLine
 10
-7.42557390325157
 20
90.7304602282752
 30
0.0
 11
-9.61933081462882
 21
92.9242171396523
 31
0.0
  0
LINE
  5
1C8
330
1F
100
AcDbEntity
  8
1
  6
Continuous
 62
     3
100
AcDbLine
 10
38.5
 20
74.2723531999081
 30
0.0
 11
38.5
 21
64.3048863250233
 31
0.0
  0
LINE
  5
1C9
330
1F
100
AcDbEntity
  8
1
  6
Continuous
 62
     3
100
AcDbLine
 10
38.5
 20
64.3048863250233
 30
0.0
 11
36.80298844793576
 21
61.3655760958175
 31
0.0
  0
LINE
  5
1CA
330
1F
100
AcDbEntity
  8
1
  6
Continuous
 62
     3
100
AcDbLine
 10
-36.5
 20
64.3048863250233
 30
0.0
 11
-36.5
 21
102.304886325023
 31
0.0
  0
LINE
  5
1CB
330
1F
100
AcDbEntity
  8
1
  6
Continuous
 62
     3
100
AcDbLine
 10
-36.5
 20
102.304886325023
 30
0.0
 11
-34.80298844793574
 21
105.2441965542296
 31
0.0
  0
LINE
  5
1CC
330
1F
100
AcDbEntity
  8
1
  6
Continuous
 62
     3
100
AcDbLine
 10
38.5
 20
102.304886325023
 30
0.0
 11
38.5
 21
95.1658465748851
 31
0.0
  0
LINE
  5
1CD
330
1F
100
AcDbEntity
  8
1
  6
Continuous
 62
     3
100
AcDbLine
 10
36.7679491924311
 20
72.3048863250234
 30
0.0
 11
7.00524613690647
 21
72.3048863250234
 31
0.0
  0
LINE
  5
1CE
330
1F
100
AcDbEntity
  8
1
  6
Continuous
 62
     3
100
AcDbLine
 10
-9.83367326165262
 20
72.3048863250233
 30
0.0
 11
-35.06239782971761
 21
72.3048863250233
 31
0.0
  0
LINE
  5
1CF
330
1F
100
AcDbEntity
  8
1
  6
Continuous
 62
     3
100
AcDbLine
 10
-35.06239782971772
 20
94.30488632502329
 30
0.0
 11
-15.7581647669952
 21
94.3048863250233
 31
0.0
  0
LINE
  5
1D0
330
1F
100
AcDbEntity
  8
1
  6
Continuous
 62
     3
100
AcDbLine
 10
10.2213032685493
 20
94.3048863250233
 30
0.0
 11
24.926302794287
 21
94.3048863250233
 31
0.0
  0
LINE
  5
1D1
330
1F
100
AcDbEntity
  8
1
  6
DOT_CENTER
 62
     4
100
AcDbLine
 10
35.6446764717714
 20
83.3048863250233
 30
0.0
 11
-38.6584579818241
 21
83.3048863250233
 31
0.0
  0
LINE
  5
1D2
330
1F
100
AcDbEntity
  8
1
  6
DOT_CENTER
 62
     4
100
AcDbLine
 10
101.8186384958148
 20
83.3048863250233
 30
0.0
 11
87.6281831212348
 21
83.3048863250233
 31
0.0
  0
LINE
  5
1D3
330
1F
100
AcDbEntity
  8
1
  6
DOT_CENTER
 62
     4
100
AcDbLine
 10
0.0
 20
106.57606436728
 30
0.0
 11
0.0
 21
60.2688477079663
 31
0.0
  0
LINE
  5
1D4
330
1F
100
AcDbEntity
  8
1
  6
Continuous
 62
     3
100
AcDbLine
 10
3.88425809043292
 20
89.5675350194496
 30
0.0
 11
3.96755475761302
 21
89.4232609597925
 31
0.0
  0
LINE
  5
1D5
330
1F
100
AcDbEntity
  8
1
  6
Continuous
 62
     3
100
AcDbLine
 10
3.88425809043292
 20
89.5675350194496
 30
0.0
 11
3.96755475761302
 21
89.4232609597925
 31
0.0
  0
LINE
  5
1D6
330
1F
100
AcDbEntity
  8
1
  6
Continuous
 62
     3
100
AcDbLine
 10
3.74722325026744
 20
89.8048863250233
 30
0.0
 11
3.88425809043292
 21
89.5675350194496
 31
0.0
  0
LINE
  5
1D7
330
1F
100
AcDbEntity
  8
1
  6
Continuous
 62
     3
100
AcDbLine
 10
3.1224989991992
 20
85.8048863250233
 30
0.0
 11
-3.12249899919914
 21
85.8048863250233
 31
0.0
  0
LINE
  5
1D8
330
1F
100
AcDbEntity
  8
1
  6
Continuous
 62
     3
100
AcDbLine
 10
-3.12249899919925
 20
80.8048863250233
 30
0.0
 11
3.12249899919925
 21
80.8048863250233
 31
0.0
  0
LINE
  5
1D9
330
1F
100
AcDbEntity
  8
1
  6
Continuous
 62
     3
100
AcDbLine
 10
-3.74722325026744
 20
76.8048863250233
 30
0.0
 11
3.74722325026744
 21
76.8048863250233
 31
0.0
  0
LINE
  5
1DA
330
1F
100
AcDbEntity
  8
1
  6
Continuous
 62
     3
100
AcDbLine
 10
-3.74722325026744
 20
76.8048863250233
 30
0.0
 11
-7.5
 21
83.3048863250233
 31
0.0
  0
LINE
  5
1DB
330
1F
100
AcDbEntity
  8
1
  6
Continuous
 62
     3
100
AcDbLine
 10
-7.5
 20
83.3048863250233
 30
0.0
 11
-3.74722325026744
 21
89.8048863250233
 31
0.0
  0
LINE
  5
1DC
330
1F
100
AcDbEntity
  8
1
  6
Continuous
 62
     3
100
AcDbLine
 10
3.74722325026744
 20
89.8048863250233
 30
0.0
 11
-3.74722325026744
 21
89.8048863250233
 31
0.0
  0
LINE
  5
1DD
330
1F
100
AcDbEntity
  8
1
  6
Continuous
 62
     3
100
AcDbLine
 10
3.74722325026744
 20
89.8048863250233
 30
0.0
 11
7.5
 21
83.3048863250233
 31
0.0
  0
LINE
  5
1DE
330
1F
100
AcDbEntity
  8
1
  6
Continuous
 62
     3
100
AcDbLine
 10
7.5
 20
83.3048863250233
 30
0.0
 11
3.74722325026744
 21
76.8048863250233
 31
0.0
  0
LINE
  5
1DF
330
1F
100
AcDbEntity
  8
1
  6
Continuous
 62
     3
100
AcDbLine
 10
3.20999999999998
 20
31.77
 30
0.0
 11
3.97999999999996
 21
31.0
 31
0.0
  0
LINE
  5
1E0
330
1F
100
AcDbEntity
  8
1
  6
Continuous
 62
     3
100
AcDbLine
 10
3.20999999999998
 20
31.77
 30
0.0
 11
3.20999999999998
 21
29.6001505753045
 31
0.0
  0
LINE
  5
1E1
330
1F
100
AcDbEntity
  8
1
  6
Continuous
 62
     3
100
AcDbLine
 10
-2.53614233326772
 20
31.5461340662021
 30
0.0
 11
-1.69039752397089
 21
29.6001505753045
 31
0.0
  0
LINE
  5
1E2
330
1F
100
AcDbEntity
  8
1
  6
Continuous
 62
     3
100
AcDbLine
 10
3.97999999999996
 20
31.0
 30
0.0
 11
3.1224989991992
 21
31.0
 31
0.0
  0
LINE
  5
1E3
330
1F
100
AcDbEntity
  8
1
  6
Continuous
 62
     3
100
AcDbLine
 10
3.1224989991992
 20
31.0
 30
0.0
 11
3.12249899919925
 21
29.6001505753045
 31
0.0
  0
LINE
  5
1E4
330
1F
100
AcDbEntity
  8
1
  6
Continuous
 62
     3
100
AcDbLine
 10
2.97999999999996
 20
32.0
 30
0.0
 11
3.20999999999998
 21
31.77
 31
0.0
  0
LINE
  5
1E5
330
1F
100
AcDbEntity
  8
1
  6
Continuous
 62
     3
100
AcDbLine
 10
-1.62185079461705
 20
32.0
 30
0.0
 11
-2.98000000000002
 21
32.0
 31
0.0
  0
LINE
  5
1E6
330
1F
100
AcDbEntity
  8
1
  6
Continuous
 62
     3
100
AcDbLine
 10
-3.1224989991992
 20
31.0
 30
0.0
 11
-3.98000000000002
 21
31.0
 31
0.0
  0
LINE
  5
1E7
330
1F
100
AcDbEntity
  8
1
  6
Continuous
 62
     3
100
AcDbLine
 10
-3.98000000000002
 20
31.0
 30
0.0
 11
-2.98000000000002
 21
32.0
 31
0.0
  0
LINE
  5
1E8
330
1F
100
AcDbEntity
  8
1
  6
Continuous
 62
     3
100
AcDbLine
 10
-3.98000000000002
 20
31.0
 30
0.0
 11
-3.98000000000002
 21
29.6001505753045
 31
0.0
  0
LINE
  5
1E9
330
1F
100
AcDbEntity
  8
1
  6
Continuous
 62
     3
100
AcDbLine
 10
-1.62185079461705
 20
32.0
 30
0.0
 11
2.97999999999996
 21
32.0
 31
0.0
  0
LINE
  5
1EA
330
1F
100
AcDbEntity
  8
1
  6
Continuous
 62
     3
100
AcDbLine
 10
3.97999999999996
 20
29.6001505753045
 30
0.0
 11
3.97999999999996
 21
31.0
 31
0.0
  0
LINE
  5
1EB
330
1F
100
AcDbEntity
  8
1
  6
Continuous
 62
     3
100
AcDbLine
 10
1.66950293947751
 20
29.6001505753045
 30
0.0
 11
2.51726784274336
 21
31.5595860127571
 31
0.0
  0
LINE
  5
1EC
330
1F
100
AcDbEntity
  8
1
  6
Continuous
 62
     3
100
AcDbLine
 10
-3.12249899919925
 20
29.6001505753045
 30
0.0
 11
-3.1224989991992
 21
31.0
 31
0.0
  0
LINE
  5
1ED
330
1F
100
AcDbEntity
  8
1
  6
Continuous
 62
     3
100
AcDbLine
 10
-3.20999999999998
 20
29.6001505753045
 30
0.0
 11
-3.20999999999998
 21
31.77
 31
0.0
  0
LINE
  5
1EE
330
1F
100
AcDbEntity
  8
1
  6
Continuous
 62
     3
100
AcDbLine
 10
34.0481646874929
 20
49.1483549158685
 30
0.0
 11
97.4675650295182
 21
55.0
 31
0.0
  0
LINE
  5
1EF
330
1F
100
AcDbEntity
  8
1
  6
Continuous
 62
     3
100
AcDbLine
 10
25.8049176281839
 20
40.5110898547217
 30
0.0
 11
31.8566188340845
 21
48.1497705598948
 31
0.0
  0
LINE
  5
1F0
330
1F
100
AcDbEntity
  8
1
  6
Continuous
 62
     3
100
AcDbLine
 10
35.9825572967889
 20
44.2995990563053
 30
0.0
 11
97.76181765025193
 21
50.00670205402051
 31
0.0
  0
LINE
  5
1F1
330
1F
100
AcDbEntity
  8
1
  6
Continuous
 62
     3
100
AcDbLine
 10
28.0930279433003
 20
35.3673224518261
 30
0.0
 11
34.5905386947589
 21
43.5508374408154
 31
0.0
  0
LINE
  5
1F2
330
1F
100
AcDbEntity
  8
1
  6
Continuous
 62
     3
100
AcDbLine
 10
-16.3473980854414
 20
20.6001505753045
 30
0.0
 11
-16.3473980854414
 21
22.1003011506089
 31
0.0
  0
LINE
  5
1F3
330
1F
100
AcDbEntity
  8
1
  6
Continuous
 62
     3
100
AcDbLine
 10
-13.7178715550192
 20
20.1001505753045
 30
0.0
 11
-13.7178715550192
 21
19.0001505753045
 31
0.0
  0
LINE
  5
1F4
330
1F
100
AcDbEntity
  8
1
  6
Continuous
 62
     3
100
AcDbLine
 10
-18.6676190233251
 20
20.1001505753045
 30
0.0
 11
-18.6676190233251
 21
19.0001505753045
 31
0.0
  0
LINE
  5
1F5
330
1F
100
AcDbEntity
  8
1
  6
Continuous
 62
     3
100
AcDbLine
 10
-20.0818325856982
 20
21.8003011506089
 30
0.0
 11
-20.0818325856982
 21
19.0001505753045
 31
0.0
  0
LINE
  5
1F6
330
1F
100
AcDbEntity
  8
1
  6
Continuous
 62
     3
100
AcDbLine
 10
13.8200000644398
 20
22.9754264939955
 30
0.0
 11
25.5857864376269
 21
37.8220974650932
 31
0.0
  0
LINE
  5
1F7
330
1F
100
AcDbEntity
  8
1
  6
Continuous
 62
     3
100
AcDbLine
 10
15.0900650233731
 20
21.3579548775496
 30
0.0
 11
25.5857864376269
 21
34.6019929298502
 31
0.0
  0
LINE
  5
1F8
330
1F
100
AcDbEntity
  8
1
  6
Continuous
 62
     3
100
AcDbLine
 10
25.5857864376269
 20
39.8863948071673
 30
0.0
 11
25.5857864376269
 21
34.6019929298502
 31
0.0
  0
LINE
  5
1F9
330
1F
100
AcDbEntity
  8
1
  6
Continuous
 62
     3
100
AcDbLine
 10
-19.2818325856981
 20
22.6003011506089
 30
0.0
 11
13.0392749761262
 21
22.6003011506089
 31
0.0
  0
LINE
  5
1FA
330
1F
100
AcDbEntity
  8
1
  6
Continuous
 62
     3
100
AcDbLine
 10
-18.1676190233251
 20
20.6001505753045
 30
0.0
 11
13.5225989636195
 21
20.6001505753045
 31
0.0
  0
LINE
  5
1FB
330
1F
100
AcDbEntity
  8
1
  6
Continuous
 62
     3
100
AcDbLine
 10
-67.6621612602098
 20
19.0
 30
0.0
 11
-89.6014714894156
 21
19.0
 31
0.0
  0
LINE
  5
1FC
330
1F
100
AcDbEntity
  8
1
  6
Continuous
 62
     3
100
AcDbLine
 10
-89.6014714894156
 20
19.0
 30
0.0
 11
-100.571126604019
 21
0.0
 31
0.0
  0
LINE
  5
1FD
330
1F
100
AcDbEntity
  8
1
  6
Continuous
 62
     3
100
AcDbLine
 10
-100.571126604019
 20
0.0
 30
0.0
 11
-89.6014714894156
 21
-19.0
 31
0.0
  0
LINE
  5
1FE
330
1F
100
AcDbEntity
  8
1
  6
Continuous
 62
     3
100
AcDbLine
 10
-89.6014714894156
 20
-19.0
 30
0.0
 11
-67.6621612602098
 21
-19.0000000000001
 31
0.0
  0
LINE
  5
1FF
330
1F
100
AcDbEntity
  8
1
  6
Continuous
 62
     3
100
AcDbLine
 10
-67.6621612602098
 20
-19.0000000000001
 30
0.0
 11
-56.6925061456069
 21
-0.00000000000004
 31
0.0
  0
LINE
  5
200
330
1F
100
AcDbEntity
  8
1
  6
Continuous
 62
     3
100
AcDbLine
 10
-56.6925061456069
 20
-0.00000000000004
 30
0.0
 11
-67.6621612602098
 21
19.0
 31
0.0
  0
LINE
  5
201
330
1F
100
AcDbEntity
  8
1
  6
Continuous
 62
     3
100
AcDbLine
 10
-86.3318163748128
 20
22.6001505753045
 30
0.0
 11
-86.3318163748128
 21
24.6001505753045
 31
0.0
  0
LINE
  5
202
330
1F
100
AcDbEntity
  8
1
  6
Continuous
 62
     3
100
AcDbLine
 10
-70.9318163748127
 20
24.6001505753045
 30
0.0
 11
-70.9318163748127
 21
22.6001505753045
 31
0.0
  0
LINE
  5
203
330
1F
100
AcDbEntity
  8
1
  6
Continuous
 62
     3
100
AcDbLine
 10
-86.3318163748128
 20
24.6001505753045
 30
0.0
 11
-70.9318163748127
 21
24.6001505753045
 31
0.0
  0
LINE
  5
204
330
1F
100
AcDbEntity
  8
1
  6
Continuous
 62
     3
100
AcDbLine
 10
10.42
 20
-34.6443355089935
 30
0.0
 11
10.42
 21
-30.9443355089935
 31
0.0
  0
LINE
  5
205
330
1F
100
AcDbEntity
  8
1
  6
Continuous
 62
     3
100
AcDbLine
 10
10.42
 20
-30.9443355089935
 30
0.0
 11
11.62
 21
-30.9443355089935
 31
0.0
  0
LINE
  5
206
330
1F
100
AcDbEntity
  8
1
  6
Continuous
 62
     3
100
AcDbLine
 10
11.62
 20
-30.9443355089935
 30
0.0
 11
12.02
 21
-31.1443355089935
 31
0.0
  0
LINE
  5
207
330
1F
100
AcDbEntity
  8
1
  6
Continuous
 62
     3
100
AcDbLine
 10
12.02
 20
-31.1443355089935
 30
0.0
 11
12.18
 21
-31.8443355089935
 31
0.0
  0
LINE
  5
208
330
1F
100
AcDbEntity
  8
1
  6
Continuous
 62
     3
100
AcDbLine
 10
12.18
 20
-31.8443355089935
 30
0.0
 11
12.02
 21
-32.3443355089935
 31
0.0
  0
LINE
  5
209
330
1F
100
AcDbEntity
  8
1
  6
Continuous
 62
     3
100
AcDbLine
 10
12.02
 20
-32.3443355089935
 30
0.0
 11
11.62
 21
-32.7443355089935
 31
0.0
  0
LINE
  5
20A
330
1F
100
AcDbEntity
  8
1
  6
Continuous
 62
     3
100
AcDbLine
 10
11.62
 20
-32.7443355089935
 30
0.0
 11
10.42
 21
-32.7443355089935
 31
0.0
  0
LINE
  5
20B
330
1F
100
AcDbEntity
  8
1
  6
Continuous
 62
     3
100
AcDbLine
 10
10.42
 20
-32.7443355089935
 30
0.0
 11
11.62
 21
-32.7443355089935
 31
0.0
  0
LINE
  5
20C
330
1F
100
AcDbEntity
  8
1
  6
Continuous
 62
     3
100
AcDbLine
 10
11.62
 20
-32.7443355089935
 30
0.0
 11
12.18
 21
-33.0443355089935
 31
0.0
  0
LINE
  5
20D
330
1F
100
AcDbEntity
  8
1
  6
Continuous
 62
     3
100
AcDbLine
 10
12.18
 20
-33.0443355089935
 30
0.0
 11
12.34
 21
-33.7443355089935
 31
0.0
  0
LINE
  5
20E
330
1F
100
AcDbEntity
  8
1
  6
Continuous
 62
     3
100
AcDbLine
 10
12.34
 20
-33.7443355089935
 30
0.0
 11
12.18
 21
-34.3443355089935
 31
0.0
  0
LINE
  5
20F
330
1F
100
AcDbEntity
  8
1
  6
Continuous
 62
     3
100
AcDbLine
 10
12.18
 20
-34.3443355089935
 30
0.0
 11
11.62
 21
-34.6443355089935
 31
0.0
  0
LINE
  5
210
330
1F
100
AcDbEntity
  8
1
  6
Continuous
 62
     3
100
AcDbLine
 10
11.62
 20
-34.6443355089935
 30
0.0
 11
10.42
 21
-34.6443355089935
 31
0.0
  0
LINE
  5
211
330
1F
100
AcDbEntity
  8
1
  6
Continuous
 62
     3
100
AcDbLine
 10
15.94
 20
-31.4443355089935
 30
0.0
 11
15.7
 21
-31.0443355089935
 31
0.0
  0
LINE
  5
212
330
1F
100
AcDbEntity
  8
1
  6
Continuous
 62
     3
100
AcDbLine
 10
15.7
 20
-31.0443355089935
 30
0.0
 11
15.38
 21
-30.7443355089935
 31
0.0
  0
LINE
  5
213
330
1F
100
AcDbEntity
  8
1
  6
Continuous
 62
     3
100
AcDbLine
 10
15.38
 20
-30.7443355089935
 30
0.0
 11
14.98
 21
-30.7443355089935
 31
0.0
  0
LINE
  5
214
330
1F
100
AcDbEntity
  8
1
  6
Continuous
 62
     3
100
AcDbLine
 10
14.98
 20
-30.7443355089935
 30
0.0
 11
14.66
 21
-30.7443355089935
 31
0.0
  0
LINE
  5
215
330
1F
100
AcDbEntity
  8
1
  6
Continuous
 62
     3
100
AcDbLine
 10
14.66
 20
-30.7443355089935
 30
0.0
 11
14.5
 21
-30.9443355089935
 31
0.0
  0
LINE
  5
216
330
1F
100
AcDbEntity
  8
1
  6
Continuous
 62
     3
100
AcDbLine
 10
14.5
 20
-30.9443355089935
 30
0.0
 11
14.18
 21
-31.1443355089935
 31
0.0
  0
LINE
  5
217
330
1F
100
AcDbEntity
  8
1
  6
Continuous
 62
     3
100
AcDbLine
 10
14.18
 20
-31.1443355089935
 30
0.0
 11
14.1
 21
-31.5443355089935
 31
0.0
  0
LINE
  5
218
330
1F
100
AcDbEntity
  8
1
  6
Continuous
 62
     3
100
AcDbLine
 10
14.1
 20
-31.5443355089935
 30
0.0
 11
14.18
 21
-32.1443355089935
 31
0.0
  0
LINE
  5
219
330
1F
100
AcDbEntity
  8
1
  6
Continuous
 62
     3
100
AcDbLine
 10
14.18
 20
-32.1443355089935
 30
0.0
 11
14.42
 21
-32.3443355089935
 31
0.0
  0
LINE
  5
21A
330
1F
100
AcDbEntity
  8
1
  6
Continuous
 62
     3
100
AcDbLine
 10
14.42
 20
-32.3443355089935
 30
0.0
 11
14.58
 21
-32.5443355089935
 31
0.0
  0
LINE
  5
21B
330
1F
100
AcDbEntity
  8
1
  6
Continuous
 62
     3
100
AcDbLine
 10
14.58
 20
-32.5443355089935
 30
0.0
 11
14.98
 21
-32.6443355089935
 31
0.0
  0
LINE
  5
21C
330
1F
100
AcDbEntity
  8
1
  6
Continuous
 62
     3
100
AcDbLine
 10
14.98
 20
-32.6443355089935
 30
0.0
 11
15.38
 21
-32.6443355089935
 31
0.0
  0
LINE
  5
21D
330
1F
100
AcDbEntity
  8
1
  6
Continuous
 62
     3
100
AcDbLine
 10
15.38
 20
-32.6443355089935
 30
0.0
 11
15.62
 21
-32.7443355089935
 31
0.0
  0
LINE
  5
21E
330
1F
100
AcDbEntity
  8
1
  6
Continuous
 62
     3
100
AcDbLine
 10
15.62
 20
-32.7443355089935
 30
0.0
 11
15.94
 21
-33.1443355089935
 31
0.0
  0
LINE
  5
21F
330
1F
100
AcDbEntity
  8
1
  6
Continuous
 62
     3
100
AcDbLine
 10
15.94
 20
-33.1443355089935
 30
0.0
 11
16.02
 21
-33.7443355089935
 31
0.0
  0
LINE
  5
220
330
1F
100
AcDbEntity
  8
1
  6
Continuous
 62
     3
100
AcDbLine
 10
16.02
 20
-33.7443355089935
 30
0.0
 11
15.94
 21
-34.2443355089935
 31
0.0
  0
LINE
  5
221
330
1F
100
AcDbEntity
  8
1
  6
Continuous
 62
     3
100
AcDbLine
 10
15.94
 20
-34.2443355089935
 30
0.0
 11
15.62
 21
-34.5443355089935
 31
0.0
  0
LINE
  5
222
330
1F
100
AcDbEntity
  8
1
  6
Continuous
 62
     3
100
AcDbLine
 10
15.62
 20
-34.5443355089935
 30
0.0
 11
15.38
 21
-34.6443355089935
 31
0.0
  0
LINE
  5
223
330
1F
100
AcDbEntity
  8
1
  6
Continuous
 62
     3
100
AcDbLine
 10
15.38
 20
-34.6443355089935
 30
0.0
 11
14.98
 21
-34.6443355089935
 31
0.0
  0
LINE
  5
224
330
1F
100
AcDbEntity
  8
1
  6
Continuous
 62
     3
100
AcDbLine
 10
14.98
 20
-34.6443355089935
 30
0.0
 11
14.58
 21
-34.5443355089935
 31
0.0
  0
LINE
  5
225
330
1F
100
AcDbEntity
  8
1
  6
Continuous
 62
     3
100
AcDbLine
 10
14.58
 20
-34.5443355089935
 30
0.0
 11
14.34
 21
-34.2443355089935
 31
0.0
  0
LINE
  5
226
330
1F
100
AcDbEntity
  8
1
  6
Continuous
 62
     3
100
AcDbLine
 10
14.34
 20
-34.2443355089935
 30
0.0
 11
14.1
 21
-33.7443355089935
 31
0.0
  0
LINE
  5
227
330
1F
100
AcDbEntity
  8
1
  6
Continuous
 62
     3
100
AcDbLine
 10
19.7
 20
-31.4443355089935
 30
0.0
 11
19.46
 21
-31.0443355089935
 31
0.0
  0
LINE
  5
228
330
1F
100
AcDbEntity
  8
1
  6
Continuous
 62
     3
100
AcDbLine
 10
19.46
 20
-31.0443355089935
 30
0.0
 11
19.14
 21
-30.7443355089935
 31
0.0
  0
LINE
  5
229
330
1F
100
AcDbEntity
  8
1
  6
Continuous
 62
     3
100
AcDbLine
 10
19.14
 20
-30.7443355089935
 30
0.0
 11
18.74
 21
-30.7443355089935
 31
0.0
  0
LINE
  5
22A
330
1F
100
AcDbEntity
  8
1
  6
Continuous
 62
     3
100
AcDbLine
 10
18.74
 20
-30.7443355089935
 30
0.0
 11
18.42
 21
-30.7443355089935
 31
0.0
  0
LINE
  5
22B
330
1F
100
AcDbEntity
  8
1
  6
Continuous
 62
     3
100
AcDbLine
 10
18.42
 20
-30.7443355089935
 30
0.0
 11
18.26
 21
-30.9443355089935
 31
0.0
  0
LINE
  5
22C
330
1F
100
AcDbEntity
  8
1
  6
Continuous
 62
     3
100
AcDbLine
 10
18.26
 20
-30.9443355089935
 30
0.0
 11
17.94
 21
-31.1443355089935
 31
0.0
  0
LINE
  5
22D
330
1F
100
AcDbEntity
  8
1
  6
Continuous
 62
     3
100
AcDbLine
 10
17.94
 20
-31.1443355089935
 30
0.0
 11
17.86
 21
-31.5443355089935
 31
0.0
  0
LINE
  5
22E
330
1F
100
AcDbEntity
  8
1
  6
Continuous
 62
     3
100
AcDbLine
 10
17.86
 20
-31.5443355089935
 30
0.0
 11
17.94
 21
-32.1443355089935
 31
0.0
  0
LINE
  5
22F
330
1F
100
AcDbEntity
  8
1
  6
Continuous
 62
     3
100
AcDbLine
 10
17.94
 20
-32.1443355089935
 30
0.0
 11
18.18
 21
-32.3443355089935
 31
0.0
  0
LINE
  5
230
330
1F
100
AcDbEntity
  8
1
  6
Continuous
 62
     3
100
AcDbLine
 10
18.18
 20
-32.3443355089935
 30
0.0
 11
18.34
 21
-32.5443355089935
 31
0.0
  0
LINE
  5
231
330
1F
100
AcDbEntity
  8
1
  6
Continuous
 62
     3
100
AcDbLine
 10
18.34
 20
-32.5443355089935
 30
0.0
 11
18.74
 21
-32.6443355089935
 31
0.0
  0
LINE
  5
232
330
1F
100
AcDbEntity
  8
1
  6
Continuous
 62
     3
100
AcDbLine
 10
18.74
 20
-32.6443355089935
 30
0.0
 11
19.14
 21
-32.6443355089935
 31
0.0
  0
LINE
  5
233
330
1F
100
AcDbEntity
  8
1
  6
Continuous
 62
     3
100
AcDbLine
 10
19.14
 20
-32.6443355089935
 30
0.0
 11
19.38
 21
-32.7443355089935
 31
0.0
  0
LINE
  5
234
330
1F
100
AcDbEntity
  8
1
  6
Continuous
 62
     3
100
AcDbLine
 10
19.38
 20
-32.7443355089935
 30
0.0
 11
19.7
 21
-33.1443355089935
 31
0.0
  0
LINE
  5
235
330
1F
100
AcDbEntity
  8
1
  6
Continuous
 62
     3
100
AcDbLine
 10
19.7
 20
-33.1443355089935
 30
0.0
 11
19.78
 21
-33.7443355089935
 31
0.0
  0
LINE
  5
236
330
1F
100
AcDbEntity
  8
1
  6
Continuous
 62
     3
100
AcDbLine
 10
19.78
 20
-33.7443355089935
 30
0.0
 11
19.7
 21
-34.2443355089935
 31
0.0
  0
LINE
  5
237
330
1F
100
AcDbEntity
  8
1
  6
Continuous
 62
     3
100
AcDbLine
 10
19.7
 20
-34.2443355089935
 30
0.0
 11
19.38
 21
-34.5443355089935
 31
0.0
  0
LINE
  5
238
330
1F
100
AcDbEntity
  8
1
  6
Continuous
 62
     3
100
AcDbLine
 10
19.38
 20
-34.5443355089935
 30
0.0
 11
19.14
 21
-34.6443355089935
 31
0.0
  0
LINE
  5
239
330
1F
100
AcDbEntity
  8
1
  6
Continuous
 62
     3
100
AcDbLine
 10
19.14
 20
-34.6443355089935
 30
0.0
 11
18.74
 21
-34.6443355089935
 31
0.0
  0
LINE
  5
23A
330
1F
100
AcDbEntity
  8
1
  6
Continuous
 62
     3
100
AcDbLine
 10
18.74
 20
-34.6443355089935
 30
0.0
 11
18.34
 21
-34.5443355089935
 31
0.0
  0
LINE
  5
23B
330
1F
100
AcDbEntity
  8
1
  6
Continuous
 62
     3
100
AcDbLine
 10
18.34
 20
-34.5443355089935
 30
0.0
 11
18.1
 21
-34.2443355089935
 31
0.0
  0
LINE
  5
23C
330
1F
100
AcDbEntity
  8
1
  6
Continuous
 62
     3
100
AcDbLine
 10
18.1
 20
-34.2443355089935
 30
0.0
 11
17.86
 21
-33.7443355089935
 31
0.0
  0
LINE
  5
23D
330
1F
100
AcDbEntity
  8
1
  6
Continuous
 62
     3
100
AcDbLine
 10
21.62
 20
-32.6443355089935
 30
0.0
 11
23.3
 21
-32.6443355089935
 31
0.0
  0
LINE
  5
23E
330
1F
100
AcDbEntity
  8
1
  6
Continuous
 62
     3
100
AcDbLine
 10
26.26
 20
-30.6443355089935
 30
0.0
 11
25.7
 21
-30.9443355089935
 31
0.0
  0
LINE
  5
23F
330
1F
100
AcDbEntity
  8
1
  6
Continuous
 62
     3
100
AcDbLine
 10
25.7
 20
-30.9443355089935
 30
0.0
 11
25.38
 21
-31.5443355089935
 31
0.0
  0
LINE
  5
240
330
1F
100
AcDbEntity
  8
1
  6
Continuous
 62
     3
100
AcDbLine
 10
25.38
 20
-31.5443355089935
 30
0.0
 11
25.22
 21
-32.6443355089935
 31
0.0
  0
LINE
  5
241
330
1F
100
AcDbEntity
  8
1
  6
Continuous
 62
     3
100
AcDbLine
 10
25.22
 20
-32.6443355089935
 30
0.0
 11
25.38
 21
-33.7443355089935
 31
0.0
  0
LINE
  5
242
330
1F
100
AcDbEntity
  8
1
  6
Continuous
 62
     3
100
AcDbLine
 10
25.38
 20
-33.7443355089935
 30
0.0
 11
25.7
 21
-34.3443355089935
 31
0.0
  0
LINE
  5
243
330
1F
100
AcDbEntity
  8
1
  6
Continuous
 62
     3
100
AcDbLine
 10
25.7
 20
-34.3443355089935
 30
0.0
 11
26.26
 21
-34.6443355089935
 31
0.0
  0
LINE
  5
244
330
1F
100
AcDbEntity
  8
1
  6
Continuous
 62
     3
100
AcDbLine
 10
26.26
 20
-34.6443355089935
 30
0.0
 11
26.82
 21
-34.3443355089935
 31
0.0
  0
LINE
  5
245
330
1F
100
AcDbEntity
  8
1
  6
Continuous
 62
     3
100
AcDbLine
 10
26.82
 20
-34.3443355089935
 30
0.0
 11
27.22
 21
-33.7443355089935
 31
0.0
  0
LINE
  5
246
330
1F
100
AcDbEntity
  8
1
  6
Continuous
 62
     3
100
AcDbLine
 10
27.22
 20
-33.7443355089935
 30
0.0
 11
27.3
 21
-32.6443355089935
 31
0.0
  0
LINE
  5
247
330
1F
100
AcDbEntity
  8
1
  6
Continuous
 62
     3
100
AcDbLine
 10
27.3
 20
-32.6443355089935
 30
0.0
 11
27.22
 21
-31.5443355089935
 31
0.0
  0
LINE
  5
248
330
1F
100
AcDbEntity
  8
1
  6
Continuous
 62
     3
100
AcDbLine
 10
27.22
 20
-31.5443355089935
 30
0.0
 11
26.82
 21
-30.9443355089935
 31
0.0
  0
LINE
  5
249
330
1F
100
AcDbEntity
  8
1
  6
Continuous
 62
     3
100
AcDbLine
 10
26.82
 20
-30.9443355089935
 30
0.0
 11
26.26
 21
-30.6443355089935
 31
0.0
  0
LINE
  5
24A
330
1F
100
AcDbEntity
  8
1
  6
Continuous
 62
     3
100
AcDbLine
 10
29.7
 20
-31.0443355089935
 30
0.0
 11
30.18
 21
-30.6443355089935
 31
0.0
  0
LINE
  5
24B
330
1F
100
AcDbEntity
  8
1
  6
Continuous
 62
     3
100
AcDbLine
 10
30.18
 20
-30.6443355089935
 30
0.0
 11
30.18
 21
-34.6443355089935
 31
0.0
  0
LINE
  5
24C
330
1F
100
AcDbEntity
  8
1
  6
Continuous
 62
     3
100
AcDbLine
 10
32.9
 20
-32.6443355089935
 30
0.0
 11
34.58
 21
-32.6443355089935
 31
0.0
  0
LINE
  5
24D
330
1F
100
AcDbEntity
  8
1
  6
Continuous
 62
     3
100
AcDbLine
 10
36.66
 20
-31.4443355089935
 30
0.0
 11
37.06
 21
-30.9443355089935
 31
0.0
  0
LINE
  5
24E
330
1F
100
AcDbEntity
  8
1
  6
Continuous
 62
     3
100
AcDbLine
 10
37.06
 20
-30.9443355089935
 30
0.0
 11
37.62
 21
-30.6443355089935
 31
0.0
  0
LINE
  5
24F
330
1F
100
AcDbEntity
  8
1
  6
Continuous
 62
     3
100
AcDbLine
 10
37.62
 20
-30.6443355089935
 30
0.0
 11
38.18
 21
-30.9443355089935
 31
0.0
  0
LINE
  5
250
330
1F
100
AcDbEntity
  8
1
  6
Continuous
 62
     3
100
AcDbLine
 10
38.18
 20
-30.9443355089935
 30
0.0
 11
38.58
 21
-31.4443355089935
 31
0.0
  0
LINE
  5
251
330
1F
100
AcDbEntity
  8
1
  6
Continuous
 62
     3
100
AcDbLine
 10
38.58
 20
-31.4443355089935
 30
0.0
 11
38.5
 21
-31.9443355089935
 31
0.0
  0
LINE
  5
252
330
1F
100
AcDbEntity
  8
1
  6
Continuous
 62
     3
100
AcDbLine
 10
38.5
 20
-31.9443355089935
 30
0.0
 11
38.18
 21
-32.5443355089935
 31
0.0
  0
LINE
  5
253
330
1F
100
AcDbEntity
  8
1
  6
Continuous
 62
     3
100
AcDbLine
 10
38.18
 20
-32.5443355089935
 30
0.0
 11
37.7
 21
-32.9443355089935
 31
0.0
  0
LINE
  5
254
330
1F
100
AcDbEntity
  8
1
  6
Continuous
 62
     3
100
AcDbLine
 10
37.7
 20
-32.9443355089935
 30
0.0
 11
37.3
 21
-33.1443355089935
 31
0.0
  0
LINE
  5
255
330
1F
100
AcDbEntity
  8
1
  6
Continuous
 62
     3
100
AcDbLine
 10
37.3
 20
-33.1443355089935
 30
0.0
 11
36.98
 21
-33.5443355089935
 31
0.0
  0
LINE
  5
256
330
1F
100
AcDbEntity
  8
1
  6
Continuous
 62
     3
100
AcDbLine
 10
36.98
 20
-33.5443355089935
 30
0.0
 11
36.74
 21
-33.9443355089935
 31
0.0
  0
LINE
  5
257
330
1F
100
AcDbEntity
  8
1
  6
Continuous
 62
     3
100
AcDbLine
 10
36.74
 20
-33.9443355089935
 30
0.0
 11
36.58
 21
-34.6443355089935
 31
0.0
  0
LINE
  5
258
330
1F
100
AcDbEntity
  8
1
  6
Continuous
 62
     3
100
AcDbLine
 10
36.58
 20
-34.6443355089935
 30
0.0
 11
38.66
 21
-34.6443355089935
 31
0.0
  0
LINE
  5
259
330
1F
100
AcDbEntity
  8
1
  6
Continuous
 62
     3
100
AcDbLine
 10
42.1
 20
-30.6443355089935
 30
0.0
 11
40.5
 21
-30.6443355089935
 31
0.0
  0
LINE
  5
25A
330
1F
100
AcDbEntity
  8
1
  6
Continuous
 62
     3
100
AcDbLine
 10
40.5
 20
-30.6443355089935
 30
0.0
 11
40.42
 21
-32.6443355089935
 31
0.0
  0
LINE
  5
25B
330
1F
100
AcDbEntity
  8
1
  6
Continuous
 62
     3
100
AcDbLine
 10
40.42
 20
-32.6443355089935
 30
0.0
 11
40.9
 21
-32.2443355089935
 31
0.0
  0
LINE
  5
25C
330
1F
100
AcDbEntity
  8
1
  6
Continuous
 62
     3
100
AcDbLine
 10
40.9
 20
-32.2443355089935
 30
0.0
 11
41.3
 21
-32.1443355089935
 31
0.0
  0
LINE
  5
25D
330
1F
100
AcDbEntity
  8
1
  6
Continuous
 62
     3
100
AcDbLine
 10
41.3
 20
-32.1443355089935
 30
0.0
 11
41.7
 21
-32.2443355089935
 31
0.0
  0
LINE
  5
25E
330
1F
100
AcDbEntity
  8
1
  6
Continuous
 62
     3
100
AcDbLine
 10
41.7
 20
-32.2443355089935
 30
0.0
 11
41.94
 21
-32.5443355089935
 31
0.0
  0
LINE
  5
25F
330
1F
100
AcDbEntity
  8
1
  6
Continuous
 62
     3
100
AcDbLine
 10
41.94
 20
-32.5443355089935
 30
0.0
 11
42.1
 21
-32.7443355089935
 31
0.0
  0
LINE
  5
260
330
1F
100
AcDbEntity
  8
1
  6
Continuous
 62
     3
100
AcDbLine
 10
42.1
 20
-32.7443355089935
 30
0.0
 11
42.26
 21
-33.4443355089935
 31
0.0
  0
LINE
  5
261
330
1F
100
AcDbEntity
  8
1
  6
Continuous
 62
     3
100
AcDbLine
 10
42.26
 20
-33.4443355089935
 30
0.0
 11
42.1
 21
-34.1443355089935
 31
0.0
  0
LINE
  5
262
330
1F
100
AcDbEntity
  8
1
  6
Continuous
 62
     3
100
AcDbLine
 10
42.1
 20
-34.1443355089935
 30
0.0
 11
41.94
 21
-34.3443355089935
 31
0.0
  0
LINE
  5
263
330
1F
100
AcDbEntity
  8
1
  6
Continuous
 62
     3
100
AcDbLine
 10
41.94
 20
-34.3443355089935
 30
0.0
 11
41.7
 21
-34.6443355089935
 31
0.0
  0
LINE
  5
264
330
1F
100
AcDbEntity
  8
1
  6
Continuous
 62
     3
100
AcDbLine
 10
41.7
 20
-34.6443355089935
 30
0.0
 11
41.38
 21
-34.6443355089935
 31
0.0
  0
LINE
  5
265
330
1F
100
AcDbEntity
  8
1
  6
Continuous
 62
     3
100
AcDbLine
 10
41.38
 20
-34.6443355089935
 30
0.0
 11
40.98
 21
-34.6443355089935
 31
0.0
  0
LINE
  5
266
330
1F
100
AcDbEntity
  8
1
  6
Continuous
 62
     3
100
AcDbLine
 10
40.98
 20
-34.6443355089935
 30
0.0
 11
40.66
 21
-34.3443355089935
 31
0.0
  0
LINE
  5
267
330
1F
100
AcDbEntity
  8
1
  6
Continuous
 62
     3
100
AcDbLine
 10
40.66
 20
-34.3443355089935
 30
0.0
 11
40.34
 21
-34.1443355089935
 31
0.0
  0
ARC
  5
268
330
1F
100
AcDbEntity
  8
1
  6
Continuous
 62
     3
100
AcDbCircle
 10
6.30276648992249
 20
83.30488632502349
 30
0.0
 40
42.80276648992248
100
AcDbArc
 50
165.1083038282678
 51
194.8916961717328
  0
ARC
  5
269
102
{ACAD_REACTORS
330
352
102
}
330
1F
100
AcDbEntity
  8
1
  6
Continuous
 62
     3
100
AcDbCircle
 10
80.77690837865447
 20
86.598474666775
 30
0.0
 40
1.045250647862081
100
AcDbArc
 50
59.34933204294902
 51
106.79141768712
  0
ARC
  5
26A
102
{ACAD_REACTORS
330
34A
102
}
330
1F
100
AcDbEntity
  8
1
  6
Continuous
 62
     3
100
AcDbCircle
 10
80.85876630523177
 20
82.8310912642283
 30
0.0
 40
0.6794117647058355
100
AcDbArc
 50
318.1896851042163
 51
0.0
  0
ARC
  5
26B
102
{ACAD_REACTORS
330
34A
102
}
330
1F
100
AcDbEntity
  8
1
  6
Continuous
 62
     3
100
AcDbCircle
 10
80.85876630523177
 20
81.925208911287
 30
0.0
 40
0.6794117647058897
100
AcDbArc
 50
0.0
 51
41.81031489579002
  0
ARC
  5
26C
102
{ACAD_REACTORS
330
348
102
}
330
1F
100
AcDbEntity
  8
1
  6
Continuous
 62
     3
100
AcDbCircle
 10
84.70876630523185
 20
81.4533951857968
 30
0.0
 40
1.04525064786211
100
AcDbArc
 50
59.34933204294634
 51
106.7914176871138
  0
ARC
  5
26D
102
{ACAD_REACTORS
330
349
102
}
330
1F
100
AcDbEntity
  8
1
  6
Continuous
 62
     3
100
AcDbCircle
 10
81.8058420532899
 20
84.453043956547
 30
0.0
 40
0.9987235744567967
100
AcDbArc
 50
299.159829349202
 51
340.1808645332409
  0
ARC
  5
26E
102
{ACAD_REACTORS
330
352
102
}
330
1F
100
AcDbEntity
  8
1
  6
Continuous
 62
     3
100
AcDbCircle
 10
80.47494759434068
 20
88.8065629020694
 30
0.0
 40
0.4529411764705031
100
AcDbArc
 50
90.0
 51
180.0
  0
ARC
  5
26F
102
{ACAD_REACTORS
330
352
102
}
330
1F
100
AcDbEntity
  8
1
  6
Continuous
 62
     3
100
AcDbCircle
 10
81.07886916296826
 20
88.8065629020694
 30
0.0
 40
0.4529411764704037
100
AcDbArc
 50
0.0
 51
90.0
  0
ARC
  5
270
102
{ACAD_REACTORS
330
352
102
}
330
1F
100
AcDbEntity
  8
1
  6
Continuous
 62
     3
100
AcDbCircle
 10
81.07886916296826
 20
85.8624452550103
 30
0.0
 40
0.4529411764704037
100
AcDbArc
 50
270.0
 51
0.0
  0
ARC
  5
271
102
{ACAD_REACTORS
330
352
102
}
330
1F
100
AcDbEntity
  8
1
  6
Continuous
 62
     3
100
AcDbCircle
 10
80.47494759434068
 20
85.8624452550103
 30
0.0
 40
0.4529411764705173
100
AcDbArc
 50
180.0
 51
270.0
  0
ARC
  5
272
102
{ACAD_REACTORS
330
352
102
}
330
1F
100
AcDbEntity
  8
1
  6
Continuous
 62
     3
100
AcDbCircle
 10
80.70141818257605
 20
86.0889158432456
 30
0.0
 40
0.2264705882353724
100
AcDbArc
 50
180.0
 51
270.0
  0
ARC
  5
273
102
{ACAD_REACTORS
330
352
102
}
330
1F
100
AcDbEntity
  8
1
  6
Continuous
 62
     3
100
AcDbCircle
 10
80.85239857473306
 20
86.0889158432456
 30
0.0
 40
0.2264705882353013
100
AcDbArc
 50
270.0
 51
0.0
  0
ARC
  5
274
102
{ACAD_REACTORS
330
352
102
}
330
1F
100
AcDbEntity
  8
1
  6
Continuous
 62
     3
100
AcDbCircle
 10
80.85239857473306
 20
88.5800923138342
 30
0.0
 40
0.2264705882352018
100
AcDbArc
 50
0.0
 51
90.0
  0
ARC
  5
275
102
{ACAD_REACTORS
330
352
102
}
330
1F
100
AcDbEntity
  8
1
  6
Continuous
 62
     3
100
AcDbCircle
 10
80.70141818257605
 20
88.5800923138342
 30
0.0
 40
0.2264705882352018
100
AcDbArc
 50
90.0
 51
180.0
  0
ARC
  5
276
102
{ACAD_REACTORS
330
352
102
}
330
1F
100
AcDbEntity
  8
1
  6
Continuous
 62
     3
100
AcDbCircle
 10
80.85239857473306
 20
86.8815629020693
 30
0.0
 40
0.2264705882352018
100
AcDbArc
 50
0.0
 51
90.0
  0
ARC
  5
277
102
{ACAD_REACTORS
330
352
102
}
330
1F
100
AcDbEntity
  8
1
  6
Continuous
 62
     3
100
AcDbCircle
 10
80.70141818257599
 20
86.8815629020693
 30
0.0
 40
0.2264705882352018
100
AcDbArc
 50
90.0
 51
180.0
  0
ARC
  5
278
102
{ACAD_REACTORS
330
352
102
}
330
1F
100
AcDbEntity
  8
1
  6
Continuous
 62
     3
100
AcDbCircle
 10
81.07886916296826
 20
87.1080334903045
 30
0.0
 40
0.4529411764704037
100
AcDbArc
 50
0.0
 51
59.34933204295286
  0
ARC
  5
279
102
{ACAD_REACTORS
330
34A
102
}
330
1F
100
AcDbEntity
  8
1
  6
Continuous
 62
     3
100
AcDbCircle
 10
80.48131532483956
 20
83.6614834210912
 30
0.0
 40
0.4529411764704889
100
AcDbArc
 50
90.0
 51
180.0
  0
ARC
  5
27A
102
{ACAD_REACTORS
330
34A
102
}
330
1F
100
AcDbEntity
  8
1
  6
Continuous
 62
     3
100
AcDbCircle
 10
81.08523689346691
 20
83.6614834210912
 30
0.0
 40
0.4529411764707447
100
AcDbArc
 50
0.0
 51
90.0
  0
ARC
  5
27B
102
{ACAD_REACTORS
330
34A
102
}
330
1F
100
AcDbEntity
  8
1
  6
Continuous
 62
     3
100
AcDbCircle
 10
81.08523689346691
 20
80.7173657740321
 30
0.0
 40
0.4529411764704037
100
AcDbArc
 50
270.0
 51
0.0
  0
ARC
  5
27C
102
{ACAD_REACTORS
330
34A
102
}
330
1F
100
AcDbEntity
  8
1
  6
Continuous
 62
     3
100
AcDbCircle
 10
80.48131532483956
 20
80.7173657740321
 30
0.0
 40
0.4529411764706879
100
AcDbArc
 50
180.0
 51
270.0
  0
ARC
  5
27D
102
{ACAD_REACTORS
330
34A
102
}
330
1F
100
AcDbEntity
  8
1
  6
Continuous
 62
     3
100
AcDbCircle
 10
80.70778591307499
 20
80.9438363622674
 30
0.0
 40
0.2264705882354292
100
AcDbArc
 50
180.0
 51
270.0
  0
ARC
  5
27E
102
{ACAD_REACTORS
330
34A
102
}
330
1F
100
AcDbEntity
  8
1
  6
Continuous
 62
     3
100
AcDbCircle
 10
80.85876630523177
 20
80.9438363622674
 30
0.0
 40
0.2264705882353013
100
AcDbArc
 50
270.0
 51
0.0
  0
ARC
  5
27F
102
{ACAD_REACTORS
330
34A
102
}
330
1F
100
AcDbEntity
  8
1
  6
Continuous
 62
     3
100
AcDbCircle
 10
80.85876630523177
 20
81.925208911287
 30
0.0
 40
0.226470588235145
100
AcDbArc
 50
0.0
 51
90.0
  0
ARC
  5
280
102
{ACAD_REACTORS
330
34A
102
}
330
1F
100
AcDbEntity
  8
1
  6
Continuous
 62
     3
100
AcDbCircle
 10
80.85876630523177
 20
82.8310912642283
 30
0.0
 40
0.2264705882352018
100
AcDbArc
 50
270.0
 51
0.0
  0
ARC
  5
281
102
{ACAD_REACTORS
330
34A
102
}
330
1F
100
AcDbEntity
  8
1
  6
Continuous
 62
     3
100
AcDbCircle
 10
80.85876630523177
 20
83.4350128328558
 30
0.0
 40
0.226470588235145
100
AcDbArc
 50
0.0
 51
90.0
  0
ARC
  5
282
102
{ACAD_REACTORS
330
34A
102
}
330
1F
100
AcDbEntity
  8
1
  6
Continuous
 62
     3
100
AcDbCircle
 10
80.70778591307499
 20
83.4350128328558
 30
0.0
 40
0.2264705882354008
100
AcDbArc
 50
90.0
 51
180.0
  0
ARC
  5
283
102
{ACAD_REACTORS
330
348
102
}
330
1F
100
AcDbEntity
  8
1
  6
Continuous
 62
     3
100
AcDbCircle
 10
84.40680552091817
 20
83.6614834210912
 30
0.0
 40
0.4529411764704889
100
AcDbArc
 50
90.0
 51
180.0
  0
ARC
  5
284
102
{ACAD_REACTORS
330
348
102
}
330
1F
100
AcDbEntity
  8
1
  6
Continuous
 62
     3
100
AcDbCircle
 10
85.0107270895457
 20
83.6614834210912
 30
0.0
 40
0.4529411764704605
100
AcDbArc
 50
0.0
 51
90.0
  0
ARC
  5
285
102
{ACAD_REACTORS
330
348
102
}
330
1F
100
AcDbEntity
  8
1
  6
Continuous
 62
     3
100
AcDbCircle
 10
85.0107270895457
 20
80.7173657740321
 30
0.0
 40
0.4529411764704037
100
AcDbArc
 50
270.0
 51
0.0
  0
ARC
  5
286
102
{ACAD_REACTORS
330
348
102
}
330
1F
100
AcDbEntity
  8
1
  6
Continuous
 62
     3
100
AcDbCircle
 10
84.40680552091817
 20
80.7173657740321
 30
0.0
 40
0.4529411764705742
100
AcDbArc
 50
180.0
 51
270.0
  0
ARC
  5
287
102
{ACAD_REACTORS
330
348
102
}
330
1F
100
AcDbEntity
  8
1
  6
Continuous
 62
     3
100
AcDbCircle
 10
84.63327610915348
 20
80.9438363622674
 30
0.0
 40
0.2264705882353155
100
AcDbArc
 50
180.0
 51
270.0
  0
ARC
  5
288
102
{ACAD_REACTORS
330
348
102
}
330
1F
100
AcDbEntity
  8
1
  6
Continuous
 62
     3
100
AcDbCircle
 10
84.78425650131038
 20
80.9438363622674
 30
0.0
 40
0.2264705882353013
100
AcDbArc
 50
270.0
 51
0.0
  0
ARC
  5
289
102
{ACAD_REACTORS
330
348
102
}
330
1F
100
AcDbEntity
  8
1
  6
Continuous
 62
     3
100
AcDbCircle
 10
84.78425650131038
 20
83.4350128328558
 30
0.0
 40
0.2264705882353155
100
AcDbArc
 50
0.0
 51
90.0
  0
ARC
  5
28A
102
{ACAD_REACTORS
330
348
102
}
330
1F
100
AcDbEntity
  8
1
  6
Continuous
 62
     3
100
AcDbCircle
 10
84.63327610915348
 20
83.4350128328558
 30
0.0
 40
0.2264705882354008
100
AcDbArc
 50
90.0
 51
180.0
  0
ARC
  5
28B
102
{ACAD_REACTORS
330
348
102
}
330
1F
100
AcDbEntity
  8
1
  6
Continuous
 62
     3
100
AcDbCircle
 10
84.78425650131038
 20
81.7364834210911
 30
0.0
 40
0.2264705882353155
100
AcDbArc
 50
0.0
 51
90.0
  0
ARC
  5
28C
102
{ACAD_REACTORS
330
348
102
}
330
1F
100
AcDbEntity
  8
1
  6
Continuous
 62
     3
100
AcDbCircle
 10
84.63327610915348
 20
81.7364834210911
 30
0.0
 40
0.2264705882352018
100
AcDbArc
 50
90.0
 51
180.0
  0
ARC
  5
28D
102
{ACAD_REACTORS
330
348
102
}
330
1F
100
AcDbEntity
  8
1
  6
Continuous
 62
     3
100
AcDbCircle
 10
85.0107270895457
 20
81.9629540093263
 30
0.0
 40
0.4529411764704605
100
AcDbArc
 50
0.0
 51
59.34933204295286
  0
ARC
  5
28E
102
{ACAD_REACTORS
330
34B
102
}
330
1F
100
AcDbEntity
  8
1
  6
Continuous
 62
     3
100
AcDbCircle
 10
78.93899007126197
 20
83.6614834210912
 30
0.0
 40
0.4529411764705173
100
AcDbArc
 50
0.0
 51
90.0
  0
ARC
  5
28F
102
{ACAD_REACTORS
330
34B
102
}
330
1F
100
AcDbEntity
  8
1
  6
Continuous
 62
     3
100
AcDbCircle
 10
78.3350685026345
 20
83.6614834210912
 30
0.0
 40
0.4529411764704889
100
AcDbArc
 50
90.0
 51
180.0
  0
ARC
  5
290
102
{ACAD_REACTORS
330
34B
102
}
330
1F
100
AcDbEntity
  8
1
  6
Continuous
 62
     3
100
AcDbCircle
 10
78.93899007126197
 20
80.7173657740321
 30
0.0
 40
0.4529411764704037
100
AcDbArc
 50
270.0
 51
0.0
  0
ARC
  5
291
102
{ACAD_REACTORS
330
34B
102
}
330
1F
100
AcDbEntity
  8
1
  6
Continuous
 62
     3
100
AcDbCircle
 10
78.3350685026345
 20
80.7173657740321
 30
0.0
 40
0.452941176470631
100
AcDbArc
 50
180.0
 51
270.0
  0
ARC
  5
292
102
{ACAD_REACTORS
330
34B
102
}
330
1F
100
AcDbEntity
  8
1
  6
Continuous
 62
     3
100
AcDbCircle
 10
78.56153909086976
 20
80.9438363622674
 30
0.0
 40
0.2264705882352587
100
AcDbArc
 50
180.0
 51
270.0
  0
ARC
  5
293
102
{ACAD_REACTORS
330
34B
102
}
330
1F
100
AcDbEntity
  8
1
  6
Continuous
 62
     3
100
AcDbCircle
 10
78.71251948302688
 20
80.9438363622674
 30
0.0
 40
0.2264705882353013
100
AcDbArc
 50
270.0
 51
0.0
  0
ARC
  5
294
102
{ACAD_REACTORS
330
34B
102
}
330
1F
100
AcDbEntity
  8
1
  6
Continuous
 62
     3
100
AcDbCircle
 10
78.56153909086976
 20
83.4350128328558
 30
0.0
 40
0.2264705882354008
100
AcDbArc
 50
90.0
 51
180.0
  0
ARC
  5
295
102
{ACAD_REACTORS
330
34B
102
}
330
1F
100
AcDbEntity
  8
1
  6
Continuous
 62
     3
100
AcDbCircle
 10
78.71251948302688
 20
83.4350128328558
 30
0.0
 40
0.2264705882350881
100
AcDbArc
 50
0.0
 51
90.0
  0
ARC
  5
296
102
{ACAD_REACTORS
330
34B
102
}
330
1F
100
AcDbEntity
  8
1
  6
Continuous
 62
     3
100
AcDbCircle
 10
78.5348132175256
 20
82.9278079908503
 30
0.0
 40
0.1997447148910965
100
AcDbArc
 50
180.0
 51
235.2612837876314
  0
ARC
  5
297
102
{ACAD_REACTORS
330
34B
102
}
330
1F
100
AcDbEntity
  8
1
  6
Continuous
 62
     3
100
AcDbCircle
 10
78.7392453563707
 20
81.7530019885866
 30
0.0
 40
0.199744714891267
100
AcDbArc
 50
0.0
 51
55.26128378761799
  0
ARC
  5
298
102
{ACAD_REACTORS
330
34B
102
}
330
1F
100
AcDbEntity
  8
1
  6
Continuous
 62
     3
100
AcDbCircle
 10
78.74276092433627
 20
81.7505641777207
 30
0.0
 40
0.6491703233962198
100
AcDbArc
 50
0.0
 51
55.26128378763098
  0
ARC
  5
299
102
{ACAD_REACTORS
330
34B
102
}
330
1F
100
AcDbEntity
  8
1
  6
Continuous
 62
     3
100
AcDbCircle
 10
78.53129764955997
 20
82.9302458017162
 30
0.0
 40
0.6491703233961061
100
AcDbArc
 50
180.0
 51
235.2612837876392
  0
ARC
  5
29A
102
{ACAD_REACTORS
330
34D
102
}
330
1F
100
AcDbEntity
  8
1
  6
Continuous
 62
     3
100
AcDbCircle
 10
75.02053101111426
 20
83.6614834210912
 30
0.0
 40
0.4529411764707447
100
AcDbArc
 50
0.0
 51
90.0
  0
ARC
  5
29B
102
{ACAD_REACTORS
330
34D
102
}
330
1F
100
AcDbEntity
  8
1
  6
Continuous
 62
     3
100
AcDbCircle
 10
74.41660944248679
 20
83.6614834210912
 30
0.0
 40
0.4529411764704889
100
AcDbArc
 50
90.0
 51
180.0
  0
ARC
  5
29C
102
{ACAD_REACTORS
330
34D
102
}
330
1F
100
AcDbEntity
  8
1
  6
Continuous
 62
     3
100
AcDbCircle
 10
75.02053101111426
 20
80.7173657740321
 30
0.0
 40
0.4529411764704037
100
AcDbArc
 50
270.0
 51
0.0
  0
ARC
  5
29D
102
{ACAD_REACTORS
330
34D
102
}
330
1F
100
AcDbEntity
  8
1
  6
Continuous
 62
     3
100
AcDbCircle
 10
74.41660944248679
 20
80.7173657740321
 30
0.0
 40
0.452941176470631
100
AcDbArc
 50
180.0
 51
270.0
  0
ARC
  5
29E
102
{ACAD_REACTORS
330
34D
102
}
330
1F
100
AcDbEntity
  8
1
  6
Continuous
 62
     3
100
AcDbCircle
 10
74.64308003072227
 20
80.9438363622674
 30
0.0
 40
0.226470588235486
100
AcDbArc
 50
180.0
 51
270.0
  0
ARC
  5
29F
102
{ACAD_REACTORS
330
34D
102
}
330
1F
100
AcDbEntity
  8
1
  6
Continuous
 62
     3
100
AcDbCircle
 10
74.79406042287917
 20
80.9438363622674
 30
0.0
 40
0.2264705882353013
100
AcDbArc
 50
270.0
 51
0.0
  0
ARC
  5
2A0
102
{ACAD_REACTORS
330
34D
102
}
330
1F
100
AcDbEntity
  8
1
  6
Continuous
 62
     3
100
AcDbCircle
 10
74.64308003072227
 20
83.4350128328558
 30
0.0
 40
0.2264705882354008
100
AcDbArc
 50
90.0
 51
180.0
  0
ARC
  5
2A1
102
{ACAD_REACTORS
330
34D
102
}
330
1F
100
AcDbEntity
  8
1
  6
Continuous
 62
     3
100
AcDbCircle
 10
74.79406042287917
 20
83.4350128328558
 30
0.0
 40
0.2264705882350881
100
AcDbArc
 50
0.0
 51
90.0
  0
ARC
  5
2A2
102
{ACAD_REACTORS
330
34D
102
}
330
1F
100
AcDbEntity
  8
1
  6
Continuous
 62
     3
100
AcDbCircle
 10
74.616354157378
 20
82.9278079908503
 30
0.0
 40
0.1997447148912102
100
AcDbArc
 50
180.0
 51
235.2612837876046
  0
ARC
  5
2A3
102
{ACAD_REACTORS
330
34D
102
}
330
1F
100
AcDbEntity
  8
1
  6
Continuous
 62
     3
100
AcDbCircle
 10
74.82078629622316
 20
81.7530019885866
 30
0.0
 40
0.1997447148910965
100
AcDbArc
 50
0.0
 51
55.26128378760459
  0
ARC
  5
2A4
102
{ACAD_REACTORS
330
34D
102
}
330
1F
100
AcDbEntity
  8
1
  6
Continuous
 62
     3
100
AcDbCircle
 10
74.82430186418878
 20
81.7505641777207
 30
0.0
 40
0.6491703233962198
100
AcDbArc
 50
0.0
 51
55.26128378763924
  0
ARC
  5
2A5
102
{ACAD_REACTORS
330
34D
102
}
330
1F
100
AcDbEntity
  8
1
  6
Continuous
 62
     3
100
AcDbCircle
 10
74.61283858941238
 20
82.9302458017162
 30
0.0
 40
0.6491703233962198
100
AcDbArc
 50
180.0
 51
235.2612837876392
  0
ARC
  5
2A6
102
{ACAD_REACTORS
330
34C
102
}
330
1F
100
AcDbEntity
  8
1
  6
Continuous
 62
     3
100
AcDbCircle
 10
76.3758389725607
 20
80.7173657740321
 30
0.0
 40
0.4529411764707447
100
AcDbArc
 50
180.0
 51
270.0
  0
ARC
  5
2A7
102
{ACAD_REACTORS
330
34C
102
}
330
1F
100
AcDbEntity
  8
1
  6
Continuous
 62
     3
100
AcDbCircle
 10
76.60230956079607
 20
80.9438363622674
 30
0.0
 40
0.2264705882353724
100
AcDbArc
 50
180.0
 51
270.0
  0
ARC
  5
2A8
102
{ACAD_REACTORS
330
34C
102
}
330
1F
100
AcDbEntity
  8
1
  6
Continuous
 62
     3
100
AcDbCircle
 10
76.75328995295297
 20
80.9438363622674
 30
0.0
 40
0.2264705882353013
100
AcDbArc
 50
270.0
 51
0.0
  0
ARC
  5
2A9
102
{ACAD_REACTORS
330
34C
102
}
330
1F
100
AcDbEntity
  8
1
  6
Continuous
 62
     3
100
AcDbCircle
 10
76.97976054118806
 20
80.7173657740321
 30
0.0
 40
0.4529411764704037
100
AcDbArc
 50
270.0
 51
0.0
  0
ARC
  5
2AA
102
{ACAD_REACTORS
330
353
102
}
330
1F
100
AcDbEntity
  8
1
  6
Continuous
 62
     3
100
AcDbCircle
 10
82.66696122280428
 20
88.5841445059697
 30
0.0
 40
0.226760030530599
100
AcDbArc
 50
90.0
 51
180.0
  0
ARC
  5
2AB
102
{ACAD_REACTORS
330
353
102
}
330
1F
100
AcDbEntity
  8
1
  6
Continuous
 62
     3
100
AcDbCircle
 10
82.81813457649156
 20
88.5841445059697
 30
0.0
 40
0.2267600305304995
100
AcDbArc
 50
0.0
 51
90.0
  0
ARC
  5
2AC
102
{ACAD_REACTORS
330
353
102
}
330
1F
100
AcDbEntity
  8
1
  6
Continuous
 62
     3
100
AcDbCircle
 10
82.81813457649156
 20
86.08978417013181
 30
0.0
 40
0.2267600305306132
100
AcDbArc
 50
270.0
 51
0.0
  0
ARC
  5
2AD
102
{ACAD_REACTORS
330
353
102
}
330
1F
100
AcDbEntity
  8
1
  6
Continuous
 62
     3
100
AcDbCircle
 10
82.66696122280428
 20
86.08978417013181
 30
0.0
 40
0.2267600305307838
100
AcDbArc
 50
180.0
 51
270.0
  0
ARC
  5
2AE
102
{ACAD_REACTORS
330
353
102
}
330
1F
100
AcDbEntity
  8
1
  6
Continuous
 62
     3
100
AcDbCircle
 10
82.44020119227349
 20
85.8630241396012
 30
0.0
 40
0.453520061061397
100
AcDbArc
 50
180.0
 51
270.0
  0
ARC
  5
2AF
102
{ACAD_REACTORS
330
353
102
}
330
1F
100
AcDbEntity
  8
1
  6
Continuous
 62
     3
100
AcDbCircle
 10
83.04489460702206
 20
85.8630241396012
 30
0.0
 40
0.4535200610612975
100
AcDbArc
 50
270.0
 51
0.0
  0
ARC
  5
2B0
102
{ACAD_REACTORS
330
353
102
}
330
1F
100
AcDbEntity
  8
1
  6
Continuous
 62
     3
100
AcDbCircle
 10
83.04489460702206
 20
88.8109045365003
 30
0.0
 40
0.453520061061397
100
AcDbArc
 50
0.0
 51
90.0
  0
ARC
  5
2B1
102
{ACAD_REACTORS
330
353
102
}
330
1F
100
AcDbEntity
  8
1
  6
Continuous
 62
     3
100
AcDbCircle
 10
82.44020119227349
 20
88.8109045365003
 30
0.0
 40
0.453520061061397
100
AcDbArc
 50
90.0
 51
180.0
  0
ARC
  5
2B2
102
{ACAD_REACTORS
330
354
102
}
330
1F
100
AcDbEntity
  8
1
  6
Continuous
 62
     3
100
AcDbCircle
 10
84.63221482073709
 20
88.5841445059697
 30
0.0
 40
0.226760030530599
100
AcDbArc
 50
90.0
 51
180.0
  0
ARC
  5
2B3
102
{ACAD_REACTORS
330
354
102
}
330
1F
100
AcDbEntity
  8
1
  6
Continuous
 62
     3
100
AcDbCircle
 10
84.78338817442426
 20
88.5841445059697
 30
0.0
 40
0.2267600305306132
100
AcDbArc
 50
0.0
 51
90.0
  0
ARC
  5
2B4
102
{ACAD_REACTORS
330
354
102
}
330
1F
100
AcDbEntity
  8
1
  6
Continuous
 62
     3
100
AcDbCircle
 10
84.78338817442426
 20
86.08978417013181
 30
0.0
 40
0.2267600305306132
100
AcDbArc
 50
270.0
 51
0.0
  0
ARC
  5
2B5
102
{ACAD_REACTORS
330
354
102
}
330
1F
100
AcDbEntity
  8
1
  6
Continuous
 62
     3
100
AcDbCircle
 10
84.63221482073709
 20
86.08978417013181
 30
0.0
 40
0.2267600305307269
100
AcDbArc
 50
180.0
 51
270.0
  0
ARC
  5
2B6
102
{ACAD_REACTORS
330
354
102
}
330
1F
100
AcDbEntity
  8
1
  6
Continuous
 62
     3
100
AcDbCircle
 10
84.40545479020636
 20
85.8630241396012
 30
0.0
 40
0.4535200610614538
100
AcDbArc
 50
180.0
 51
270.0
  0
ARC
  5
2B7
102
{ACAD_REACTORS
330
354
102
}
330
1F
100
AcDbEntity
  8
1
  6
Continuous
 62
     3
100
AcDbCircle
 10
85.01014820495487
 20
85.8630241396012
 30
0.0
 40
0.4535200610612975
100
AcDbArc
 50
270.0
 51
0.0
  0
ARC
  5
2B8
102
{ACAD_REACTORS
330
354
102
}
330
1F
100
AcDbEntity
  8
1
  6
Continuous
 62
     3
100
AcDbCircle
 10
85.01014820495487
 20
88.8109045365003
 30
0.0
 40
0.4535200610612833
100
AcDbArc
 50
0.0
 51
90.0
  0
ARC
  5
2B9
102
{ACAD_REACTORS
330
354
102
}
330
1F
100
AcDbEntity
  8
1
  6
Continuous
 62
     3
100
AcDbCircle
 10
84.40545479020636
 20
88.8109045365003
 30
0.0
 40
0.453520061061397
100
AcDbArc
 50
90.0
 51
180.0
  0
ARC
  5
2BA
330
1F
100
AcDbEntity
  8
1
  6
Continuous
 62
     3
100
AcDbCircle
 10
-95.713648960511
 20
19.6003011506089
 30
0.0
 40
3.0
100
AcDbArc
 50
90.0
 51
180.0
  0
ARC
  5
2BB
330
1F
100
AcDbEntity
  8
1
  6
Continuous
 62
     3
100
AcDbCircle
 10
-90.7974088093338
 20
19.6338084677375
 30
0.0
 40
2.966681913827419
100
AcDbArc
 50
90.64714341815889
 51
180.6471434181589
  0
ARC
  5
2BC
330
1F
100
AcDbEntity
  8
1
  6
Continuous
 62
     3
100
AcDbCircle
 10
-91.3496879298321
 20
19.6003011506089
 30
0.0
 40
1.0
100
AcDbArc
 50
90.0
 51
180.0
  0
ARC
  5
2BD
330
1F
100
AcDbEntity
  8
1
  6
Continuous
 62
     3
100
AcDbCircle
 10
-67.7960299371857
 20
45.35898910418131
 30
0.0
 40
2.291277678804144
100
AcDbArc
 50
109.1017598617454
 51
169.1079266986131
  0
ARC
  5
2BE
330
1F
100
AcDbEntity
  8
1
  6
Continuous
 62
     3
100
AcDbCircle
 10
-92.2960299371859
 20
45.3589891041817
 30
0.0
 40
2.291277678803888
100
AcDbArc
 50
10.8920733013809
 51
70.8982401382467
  0
ARC
  5
2BF
330
1F
100
AcDbEntity
  8
1
  6
Continuous
 62
     3
100
AcDbCircle
 10
-88.0460299371857
 20
36.8220974650932
 30
0.0
 40
0.9999999999999858
100
AcDbArc
 50
90.0
 51
180.0
  0
ARC
  5
2C0
330
1F
100
AcDbEntity
  8
1
  6
Continuous
 62
     3
100
AcDbCircle
 10
-72.0460299371857
 20
36.8220974650932
 30
0.0
 40
1.0
100
AcDbArc
 50
0.0
 51
90.00000000000082
  0
ARC
  5
2C1
102
{ACAD_REACTORS
330
33F
102
}
330
1F
100
AcDbEntity
  8
1
  6
Continuous
 62
     3
100
AcDbCircle
 10
41.7672498436545
 20
78.8288577059723
 30
0.0
 40
0.1003463999998999
100
AcDbArc
 50
180.0
 51
268.9194586345453
  0
ARC
  5
2C2
330
1F
100
AcDbEntity
  8
1
  6
Continuous
 62
     3
100
AcDbCircle
 10
24.5857864376271
 20
76.7190998873962
 30
0.0
 40
0.9999999999996021
100
AcDbArc
 50
269.9999999999886
 51
0.0000000000228
  0
ARC
  5
2C3
330
1F
100
AcDbEntity
  8
1
  6
Continuous
 62
     3
100
AcDbCircle
 10
24.5857864376269
 20
92.7190998873966
 30
0.0
 40
1.0
100
AcDbArc
 50
0.0
 51
90.0
  0
ARC
  5
2C4
102
{ACAD_REACTORS
330
340
102
}
330
1F
100
AcDbEntity
  8
1
  6
Continuous
 62
     3
100
AcDbCircle
 10
37.8995374331012
 20
89.914725939191
 30
0.0
 40
0.4013855999999976
100
AcDbArc
 50
90.0
 51
180.0
  0
ARC
  5
2C5
102
{ACAD_REACTORS
330
340
102
}
330
1F
100
AcDbEntity
  8
1
  6
Continuous
 62
     3
100
AcDbCircle
 10
37.8995374331012
 20
89.212301139191
 30
0.0
 40
0.4013856000000047
100
AcDbArc
 50
180.0
 51
270.0
  0
ARC
  5
2C6
102
{ACAD_REACTORS
330
340
102
}
330
1F
100
AcDbEntity
  8
1
  6
Continuous
 62
     3
100
AcDbCircle
 10
41.0102758331012
 20
89.212301139191
 30
0.0
 40
0.4013855999998981
100
AcDbArc
 50
270.0
 51
0.0
  0
ARC
  5
2C7
102
{ACAD_REACTORS
330
340
102
}
330
1F
100
AcDbEntity
  8
1
  6
Continuous
 62
     3
100
AcDbCircle
 10
41.0102758331012
 20
89.914725939191
 30
0.0
 40
0.4013856000000047
100
AcDbArc
 50
0.0
 51
90.0
  0
ARC
  5
2C8
102
{ACAD_REACTORS
330
33E
102
}
330
1F
100
AcDbEntity
  8
1
  6
Continuous
 62
     3
100
AcDbCircle
 10
41.0102758331012
 20
80.281471539191
 30
0.0
 40
0.4013856000000047
100
AcDbArc
 50
0.0
 51
90.0
  0
ARC
  5
2C9
102
{ACAD_REACTORS
330
33E
102
}
330
1F
100
AcDbEntity
  8
1
  6
Continuous
 62
     3
100
AcDbCircle
 10
41.0102758331012
 20
79.5790467391909
 30
0.0
 40
0.4013855999999976
100
AcDbArc
 50
270.0
 51
0.0
  0
ARC
  5
2CA
102
{ACAD_REACTORS
330
33E
102
}
330
1F
100
AcDbEntity
  8
1
  6
Continuous
 62
     3
100
AcDbCircle
 10
37.8995374331012
 20
79.5790467391909
 30
0.0
 40
0.4013856000000047
100
AcDbArc
 50
180.0
 51
270.0
  0
ARC
  5
2CB
102
{ACAD_REACTORS
330
33E
102
}
330
1F
100
AcDbEntity
  8
1
  6
Continuous
 62
     3
100
AcDbCircle
 10
37.8995374331012
 20
80.281471539191
 30
0.0
 40
0.4013855999996991
100
AcDbArc
 50
89.9999999999858
 51
180.0
  0
ARC
  5
2CC
102
{ACAD_REACTORS
330
33F
102
}
330
1F
100
AcDbEntity
  8
1
  6
Continuous
 62
     3
100
AcDbCircle
 10
41.7672498436545
 20
90.6649149724097
 30
0.0
 40
0.1003463999999992
100
AcDbArc
 50
30.80958048213504
 51
180.0
  0
ARC
  5
2CD
102
{ACAD_REACTORS
330
33F
102
}
330
1F
100
AcDbEntity
  8
1
  6
Continuous
 62
     3
100
AcDbCircle
 10
42.5099498710542
 20
88.5443310800734
 30
0.0
 40
0.125433000000052
100
AcDbArc
 50
19.2306531715377
 51
103.3924977536879
  0
ARC
  5
2CE
102
{ACAD_REACTORS
330
33F
102
}
330
1F
100
AcDbEntity
  8
1
  6
Continuous
 62
     3
100
AcDbCircle
 10
41.7672498436545
 20
78.8288577059723
 30
0.0
 40
0.1003463999998774
100
AcDbArc
 50
268.9194586345453
 51
329.1904195178359
  0
ARC
  5
2CF
102
{ACAD_REACTORS
330
33F
102
}
330
1F
100
AcDbEntity
  8
1
  6
Continuous
 62
     3
100
AcDbCircle
 10
42.5099498710542
 20
80.9494415983085
 30
0.0
 40
0.1254330000000449
100
AcDbArc
 50
256.607502246291
 51
340.769346828578
  0
ARC
  5
2D0
102
{ACAD_REACTORS
330
340
102
}
330
1F
100
AcDbEntity
  8
1
  6
Continuous
 62
     3
100
AcDbCircle
 10
40.7405948831014
 20
89.645044989191
 30
0.0
 40
0.376298999999797
100
AcDbArc
 50
0.0
 51
90.0
  0
ARC
  5
2D1
102
{ACAD_REACTORS
330
340
102
}
330
1F
100
AcDbEntity
  8
1
  6
Continuous
 62
     3
100
AcDbCircle
 10
40.7405948831014
 20
89.4819820891909
 30
0.0
 40
0.3762990000000883
100
AcDbArc
 50
270.0
 51
0.0
  0
ARC
  5
2D2
102
{ACAD_REACTORS
330
340
102
}
330
1F
100
AcDbEntity
  8
1
  6
Continuous
 62
     3
100
AcDbCircle
 10
38.1692183831013
 20
89.645044989191
 30
0.0
 40
0.3762989999999888
100
AcDbArc
 50
90.0
 51
180.0
  0
ARC
  5
2D3
102
{ACAD_REACTORS
330
340
102
}
330
1F
100
AcDbEntity
  8
1
  6
Continuous
 62
     3
100
AcDbCircle
 10
38.1692183831013
 20
89.4819820891909
 30
0.0
 40
0.376299000000003
100
AcDbArc
 50
180.0
 51
270.0
  0
ARC
  5
2D4
102
{ACAD_REACTORS
330
33E
102
}
330
1F
100
AcDbEntity
  8
1
  6
Continuous
 62
     3
100
AcDbCircle
 10
40.7405948831014
 20
80.0117905891912
 30
0.0
 40
0.376298999999797
100
AcDbArc
 50
0.0
 51
90.0
  0
ARC
  5
2D5
102
{ACAD_REACTORS
330
33E
102
}
330
1F
100
AcDbEntity
  8
1
  6
Continuous
 62
     3
100
AcDbCircle
 10
40.7405948831014
 20
79.848727689191
 30
0.0
 40
0.3762989999999888
100
AcDbArc
 50
270.0
 51
0.0
  0
ARC
  5
2D6
102
{ACAD_REACTORS
330
33E
102
}
330
1F
100
AcDbEntity
  8
1
  6
Continuous
 62
     3
100
AcDbCircle
 10
38.1692183831013
 20
80.0117905891912
 30
0.0
 40
0.3762989999999036
100
AcDbArc
 50
90.0
 51
180.0
  0
ARC
  5
2D7
102
{ACAD_REACTORS
330
33E
102
}
330
1F
100
AcDbEntity
  8
1
  6
Continuous
 62
     3
100
AcDbCircle
 10
38.1692183831013
 20
79.848727689191
 30
0.0
 40
0.376299000000003
100
AcDbArc
 50
180.0
 51
270.0
  0
ARC
  5
2D8
102
{ACAD_REACTORS
330
33E
102
}
330
1F
100
AcDbEntity
  8
1
  6
Continuous
 62
     3
100
AcDbCircle
 10
39.8870129561931
 20
80.199940089191
 30
0.0
 40
0.1881495000000939
100
AcDbArc
 50
90.0
 51
147.264773727817
  0
ARC
  5
2D9
102
{ACAD_REACTORS
330
33E
102
}
330
1F
100
AcDbEntity
  8
1
  6
Continuous
 62
     3
100
AcDbCircle
 10
38.7426068414741
 20
79.660578189191
 30
0.0
 40
0.1881494999999944
100
AcDbArc
 50
270.0
 51
327.2196945237772
  0
ARC
  5
2DA
102
{ACAD_REACTORS
330
33E
102
}
330
1F
100
AcDbEntity
  8
1
  6
Continuous
 62
     3
100
AcDbCircle
 10
39.7478596685651
 20
80.4570777391911
 30
0.0
 40
0.2257793999998938
100
AcDbArc
 50
90.0
 51
147.219694523742
  0
ARC
  5
2DB
102
{ACAD_REACTORS
330
33E
102
}
330
1F
100
AcDbEntity
  8
1
  6
Continuous
 62
     3
100
AcDbCircle
 10
38.8828953962873
 20
79.403440539191
 30
0.0
 40
0.2257794000000928
100
AcDbArc
 50
270.0
 51
327.2647737278851
  0
ARC
  5
2DC
330
1F
100
AcDbEntity
  8
1
  6
Continuous
 62
     3
100
AcDbCircle
 10
36.1568687822842
 20
42.3072096601218
 30
0.0
 40
2.000000000000005
100
AcDbArc
 50
94.99999999999959
 51
141.5512843140714
  0
ARC
  5
2DD
330
1F
100
AcDbEntity
  8
1
  6
Continuous
 62
     3
100
AcDbCircle
 10
-15.8473980854414
 20
22.1003011506089
 30
0.0
 40
0.5
100
AcDbArc
 50
90.0
 51
180.0
  0
ARC
  5
2DE
330
1F
100
AcDbEntity
  8
1
  6
Continuous
 62
     3
100
AcDbCircle
 10
-19.2818325856981
 20
21.8003011506089
 30
0.0
 40
0.8000000000000007
100
AcDbArc
 50
90.0
 51
180.0
  0
ARC
  5
2DF
330
1F
100
AcDbEntity
  8
1
  6
Continuous
 62
     3
100
AcDbCircle
 10
-13.2178715550192
 20
20.1001505753045
 30
0.0
 40
0.5
100
AcDbArc
 50
90.0
 51
180.0
  0
ARC
  5
2E0
330
1F
100
AcDbEntity
  8
1
  6
Continuous
 62
     3
100
AcDbCircle
 10
-18.1676190233251
 20
20.1001505753045
 30
0.0
 40
0.5
100
AcDbArc
 50
90.0
 51
180.0
  0
ARC
  5
2E1
330
1F
100
AcDbEntity
  8
1
  6
Continuous
 62
     3
100
AcDbCircle
 10
13.0392749761262
 20
23.6003011506089
 30
0.0
 40
1.0
100
AcDbArc
 50
270.0
 51
321.3270118263276
  0
ARC
  5
2E2
330
1F
100
AcDbEntity
  8
1
  6
Continuous
 62
     3
100
AcDbCircle
 10
13.5225989636195
 20
22.6001505753045
 30
0.0
 40
2.0
100
AcDbArc
 50
270.0
 51
321.6036503894224
  0
ARC
  5
2E3
330
1F
100
AcDbEntity
  8
1
  6
Continuous
 62
     3
100
AcDbCircle
 10
26.5857864376269
 20
39.8863948071673
 30
0.0
 40
0.9999999999999634
100
AcDbArc
 50
141.3401917459097
 51
180.0
  0
ARC
  5
2E4
330
1F
100
AcDbEntity
  8
1
  6
Continuous
 62
     3
100
AcDbCircle
 10
-7.46086565257311
 20
-9.5
 30
0.0
 40
28.91239892248296
100
AcDbArc
 50
160.8174656949754
 51
199.1825343050246
  0
ARC
  5
2E5
330
1F
100
AcDbEntity
  8
1
  6
Continuous
 62
     3
100
AcDbCircle
 10
-7.46086565257311
 20
9.5
 30
0.0
 40
28.91239892248296
100
AcDbArc
 50
160.8174656949754
 51
199.1825343050246
  0
ARC
  5
2E6
330
1F
100
AcDbEntity
  8
1
  6
Continuous
 62
     3
100
AcDbCircle
 10
9.46086565257377
 20
-9.5
 30
0.0
 40
28.91239892248196
100
AcDbArc
 50
340.8174656949747
 51
19.18253430502532
  0
ARC
  5
2E7
330
1F
100
AcDbEntity
  8
1
  6
Continuous
 62
     3
100
AcDbCircle
 10
9.46086565257377
 20
9.5
 30
0.0
 40
28.91239892248196
100
AcDbArc
 50
340.8174656949747
 51
19.18253430502532
  0
ARC
  5
2E8
330
1F
100
AcDbEntity
  8
1
  6
Continuous
 62
     3
100
AcDbCircle
 10
-88.1569274550403
 20
47.57248086838671
 30
0.0
 40
2.000000000000195
100
AcDbArc
 50
86.82138990594177
 51
160.8304896303555
  0
ARC
  5
2E9
330
1F
100
AcDbEntity
  8
1
  6
Continuous
 62
     3
100
AcDbCircle
 10
-71.9351324193315
 20
47.57248086838671
 30
0.0
 40
2.000000000000161
100
AcDbArc
 50
19.16951036964557
 51
93.17861009406148
  0
ARC
  5
2EA
330
1F
100
AcDbEntity
  8
1
  6
Continuous
 62
     3
100
AcDbCircle
 10
-81.7568163748127
 20
31.6984948765049
 30
0.0
 40
7.098344301200429
100
AcDbArc
 50
243.8805810302424
 51
296.1194189697605
  0
ARC
  5
2EB
330
1F
100
AcDbEntity
  8
1
  6
Continuous
 62
     3
100
AcDbCircle
 10
-81.7568163748127
 20
22.5018062741041
 30
0.0
 40
7.098344301200605
100
AcDbArc
 50
63.88058103023952
 51
116.1194189697576
  0
ARC
  5
2EC
330
1F
100
AcDbEntity
  8
1
  6
Continuous
 62
     3
100
AcDbCircle
 10
-75.5068163748127
 20
31.6984948765049
 30
0.0
 40
7.098344301200605
100
AcDbArc
 50
243.8805810302395
 51
296.1194189697561
  0
ARC
  5
2ED
330
1F
100
AcDbEntity
  8
1
  6
Continuous
 62
     3
100
AcDbCircle
 10
-75.5068163748127
 20
22.5018062741041
 30
0.0
 40
7.098344301200342
100
AcDbArc
 50
63.88058103024385
 51
116.1194189697605
  0
ARC
  5
2EE
330
1F
100
AcDbEntity
  8
1
  6
Continuous
 62
     3
100
AcDbCircle
 10
-70.3263847136822
 20
50.45241309932941
 30
0.0
 40
3.427142682682728
100
AcDbArc
 50
301.3014690743816
 51
76.83839750810246
  0
ARC
  5
2EF
330
1F
100
AcDbEntity
  8
1
  6
Continuous
 62
     3
100
AcDbCircle
 10
-89.7656751606892
 20
50.45241309932941
 30
0.0
 40
3.427142682682766
100
AcDbArc
 50
103.1616024918959
 51
238.6985309256184
  0
ARC
  5
2F0
330
1F
100
AcDbEntity
  8
1
  6
Continuous
 62
     3
100
AcDbCircle
 10
-88.7960299371859
 20
35.7574322096129
 30
0.0
 40
1.274754878398352
100
AcDbArc
 50
168.6900675259903
 51
258.6900675259859
  0
ARC
  5
2F1
330
1F
100
AcDbEntity
  8
1
  6
Continuous
 62
     3
100
AcDbCircle
 10
-71.2960299371858
 20
35.7574322096127
 30
0.0
 40
1.274754878398219
100
AcDbArc
 50
281.3099324740252
 51
11.30993247402021
  0
ARC
  5
2F2
330
1F
100
AcDbEntity
  8
1
  6
Continuous
 62
     3
100
AcDbCircle
 10
-2.49115314114158
 20
27.1752666145577
 30
0.0
 40
5.00000000000014
100
AcDbArc
 50
293.7909769138865
 51
329.0009937562011
  0
ARC
  5
2F3
330
1F
100
AcDbEntity
  8
1
  6
Continuous
 62
     3
100
AcDbCircle
 10
-1.56669377190457
 20
27.1752666145577
 30
0.0
 40
5.00000000000014
100
AcDbArc
 50
293.7909769138865
 51
329.0009937562011
  0
ARC
  5
2F4
330
1F
100
AcDbEntity
  8
1
  6
Continuous
 62
     3
100
AcDbCircle
 10
0.00000000000003
 20
17.1149510040793
 30
0.0
 40
12.48519957122515
100
AcDbArc
 50
72.50767547488888
 51
107.4923245251111
  0
ARC
  5
2F5
330
1F
100
AcDbEntity
  8
1
  6
Continuous
 62
     3
100
AcDbCircle
 10
0.00000000000003
 20
37.0853501465296
 30
0.0
 40
12.48519957122515
100
AcDbArc
 50
252.5076754748889
 51
287.4923245251111
  0
ARC
  5
2F6
330
1F
100
AcDbEntity
  8
1
  6
Continuous
 62
     3
100
AcDbCircle
 10
5.62638837486628
 20
26.3940503585061
 30
0.0
 40
3.228118152870022
100
AcDbArc
 50
54.52106030985889
 51
125.4789396901407
  0
ARC
  5
2F7
330
1F
100
AcDbEntity
  8
1
  6
Continuous
 62
     3
100
AcDbCircle
 10
5.62638837486628
 20
27.9289390597803
 30
0.0
 40
3.328788484475007
100
AcDbArc
 50
235.7468126897262
 51
304.2531873102743
  0
ARC
  5
2F8
330
1F
100
AcDbEntity
  8
1
  6
Continuous
 62
     3
100
AcDbCircle
 10
-5.62638837486628
 20
26.2713620908341
 30
0.0
 40
3.328788484470495
100
AcDbArc
 50
55.74681268967208
 51
124.2531873103275
  0
ARC
  5
2F9
330
1F
100
AcDbEntity
  8
1
  6
Continuous
 62
     3
100
AcDbCircle
 10
-5.62638837486628
 20
27.9289390597803
 30
0.0
 40
3.328788484475024
100
AcDbArc
 50
235.7468126897258
 51
304.2531873102747
  0
ARC
  5
2FA
330
1F
100
AcDbEntity
  8
1
  6
Continuous
 62
     3
100
AcDbCircle
 10
25.9119064923756
 20
76.0981066131347
 30
0.0
 40
1.379217349717373
100
AcDbArc
 50
195.9500006899385
 51
268.9986619755773
  0
ARC
  5
2FB
330
1F
100
AcDbEntity
  8
1
  6
Continuous
 62
     3
100
AcDbCircle
 10
25.9119064923756
 20
93.3400931616584
 30
0.0
 40
1.379217349717491
100
AcDbArc
 50
91.00133802442264
 51
164.0499993100581
  0
ARC
  5
2FC
330
1F
100
AcDbEntity
  8
1
  6
Continuous
 62
     3
100
AcDbCircle
 10
12.0021943026256
 20
72.7190998873966
 30
0.0
 40
2.999999999999801
100
AcDbArc
 50
90.00000000000193
 51
138.1896851042271
  0
ARC
  5
2FD
330
1F
100
AcDbEntity
  8
1
  6
Continuous
 62
     3
100
AcDbCircle
 10
-1.41421356237311
 20
84.7190998873966
 30
0.0
 40
15.0
100
AcDbArc
 50
269.9999999999996
 51
318.1896851042202
  0
ARC
  5
2FE
330
1F
100
AcDbEntity
  8
1
  6
Continuous
 62
     3
100
AcDbCircle
 10
-1.41421356237311
 20
84.7190998873966
 30
0.0
 40
15.00000000000005
100
AcDbArc
 50
156.1684488458328
 51
269.9999999999996
  0
ARC
  5
2FF
330
1F
100
AcDbEntity
  8
1
  6
Continuous
 62
     3
100
AcDbCircle
 10
-17.8794851105549
 20
91.9919832801532
 30
0.0
 40
2.999999999999943
100
AcDbArc
 50
336.1684488458319
 51
45.0000000000012
  0
ARC
  5
300
330
1F
100
AcDbEntity
  8
1
  6
Continuous
 62
     3
100
AcDbCircle
 10
-8.68709695512985
 20
101.184371435578
 30
0.0
 40
2.999999999999837
100
AcDbArc
 50
224.9999999999967
 51
293.8315511541691
  0
ARC
  5
301
330
1F
100
AcDbEntity
  8
1
  6
Continuous
 62
     3
100
AcDbCircle
 10
-1.41421356237311
 20
84.7190998873966
 30
0.0
 40
14.99999999999998
100
AcDbArc
 50
41.81031489577867
 51
113.8315511541681
  0
ARC
  5
302
330
1F
100
AcDbEntity
  8
1
  6
Continuous
 62
     3
100
AcDbCircle
 10
12.0021943026256
 20
96.7190998873966
 30
0.0
 40
3.0
100
AcDbArc
 50
221.8103148957786
 51
270.0
  0
ARC
  5
303
330
1F
100
AcDbEntity
  8
1
  6
Continuous
 62
     3
100
AcDbCircle
 10
105.0416985063018
 20
81.9802178343461
 30
0.0
 40
5.623612481613136
100
AcDbArc
 50
157.085609726726
 51
166.6458525549964
  0
ARC
  5
304
330
1F
100
AcDbEntity
  8
1
  6
Continuous
 62
     3
100
AcDbCircle
 10
98.104051966203
 20
84.7173840485599
 30
0.0
 40
1.841122192777258
100
AcDbArc
 50
342.6974117894566
 51
17.74900515051466
  0
ARC
  5
305
330
1F
100
AcDbEntity
  8
1
  6
Continuous
 62
     3
100
AcDbCircle
 10
105.0416985063018
 20
87.4579819404469
 30
0.0
 40
5.623612481613276
100
AcDbArc
 50
193.3541474450026
 51
202.8010877726422
  0
ARC
  5
306
330
1F
100
AcDbEntity
  8
1
  6
Continuous
 62
     3
100
AcDbCircle
 10
68.403162743212
 20
39.20630945946658
 30
0.0
 40
58.5410069976504
100
AcDbArc
 50
61.63943424958799
 51
91.77900467460056
  0
ARC
  5
307
330
1F
100
AcDbEntity
  8
1
  6
Continuous
 62
     3
100
AcDbCircle
 10
92.6090618311293
 20
84.2541905724325
 30
0.0
 40
7.402360001166642
100
AcDbArc
 50
30.17828659726428
 51
60.88101712411632
  0
ARC
  5
308
330
1F
100
AcDbEntity
  8
1
  6
Continuous
 62
     3
100
AcDbCircle
 10
91.7008098354747
 20
84.7190998873966
 30
0.0
 40
7.999999999999917
100
AcDbArc
 50
10.36975980547751
 51
24.01809132787765
  0
ARC
  5
309
330
1F
100
AcDbEntity
  8
1
  6
Continuous
 62
     3
100
AcDbCircle
 10
91.7008098354747
 20
84.7190998873966
 30
0.0
 40
8.000000000000018
100
AcDbArc
 50
335.9819086721202
 51
349.6302401945217
  0
ARC
  5
30A
330
1F
100
AcDbEntity
  8
1
  6
Continuous
 62
     3
100
AcDbCircle
 10
92.6090618311293
 20
85.1840092023606
 30
0.0
 40
7.402360001166623
100
AcDbArc
 50
299.1189828758836
 51
329.821713402734
  0
ARC
  5
30B
330
1F
100
AcDbEntity
  8
1
  6
Continuous
 62
     3
100
AcDbCircle
 10
68.40316274321198
 20
130.2318903153263
 30
0.0
 40
58.54100699765015
100
AcDbArc
 50
268.2209953253994
 51
298.3605657504121
  0
ARC
  5
30C
102
{ACAD_REACTORS
330
33F
102
}
330
1F
100
AcDbEntity
  8
1
  6
Continuous
 62
     3
100
AcDbCircle
 10
31.8434376313257
 20
84.746886339191
 30
0.0
 40
11.6547876123287
100
AcDbArc
 50
0.0
 51
30.8095804822236
  0
ARC
  5
30D
102
{ACAD_REACTORS
330
33F
102
}
330
1F
100
AcDbEntity
  8
1
  6
Continuous
 62
     3
100
AcDbCircle
 10
31.6239298813257
 20
84.746886339191
 30
0.0
 40
11.6547876123288
100
AcDbArc
 50
0.0
 51
19.23065317145972
  0
ARC
  5
30E
102
{ACAD_REACTORS
330
33F
102
}
330
1F
100
AcDbEntity
  8
1
  6
Continuous
 62
     3
100
AcDbCircle
 10
31.8434376313257
 20
84.746886339191
 30
0.0
 40
11.65478761232873
100
AcDbArc
 50
329.1904195177762
 51
0.0
  0
ARC
  5
30F
102
{ACAD_REACTORS
330
33F
102
}
330
1F
100
AcDbEntity
  8
1
  6
Continuous
 62
     3
100
AcDbCircle
 10
31.6239298813257
 20
84.746886339191
 30
0.0
 40
11.65478761232885
100
AcDbArc
 50
340.7693468285412
 51
0.0
  0
ARC
  5
310
330
1F
100
AcDbEntity
  8
1
  6
Continuous
 62
     3
100
AcDbCircle
 10
2.70428331024323
 20
83.3048863250233
 30
0.0
 40
35.79571668975672
100
AcDbArc
 50
342.103448870746
 51
345.5543529793343
  0
ARC
  5
311
330
1F
100
AcDbEntity
  8
1
  6
Continuous
 62
     3
100
AcDbCircle
 10
19.1587659821473
 20
102.304886325023
 30
0.0
 40
19.34123401785254
100
AcDbArc
 50
337.9279410768092
 51
0.0
  0
ARC
  5
312
330
1F
100
AcDbEntity
  8
1
  6
Continuous
 62
     3
100
AcDbCircle
 10
19.1587659821472
 20
64.3048863250233
 30
0.0
 40
19.3412340178528
100
AcDbArc
 50
0.0
 51
24.43269767945442
  0
ARC
  5
313
330
1F
100
AcDbEntity
  8
1
  6
Continuous
 62
     3
100
AcDbCircle
 10
-17.30599030079066
 20
64.98488632502287
 30
0.0
 40
19.20605134673288
100
AcDbArc
 50
157.5963125483364
 51
182.0290102277908
  0
ARC
  5
314
330
1F
100
AcDbEntity
  8
1
  6
Continuous
 62
     3
100
AcDbCircle
 10
-17.30599030079057
 20
101.6248863250234
 30
0.0
 40
19.20605134673302
100
AcDbArc
 50
177.9709897722091
 51
202.4036874516625
  0
ARC
  5
315
330
1F
100
AcDbEntity
  8
1
  6
Continuous
 62
     3
100
AcDbCircle
 10
-0.00000000000011
 20
83.3048863250233
 30
0.0
 40
3.999999999999953
100
AcDbArc
 50
218.6821874534899
 51
321.317812546512
  0
ARC
  5
316
330
1F
100
AcDbEntity
  8
1
  6
Continuous
 62
     3
100
AcDbCircle
 10
-0.00000000000011
 20
83.3048863250233
 30
0.0
 40
4.000000000000125
100
AcDbArc
 50
321.317812546512
 51
38.68218745348845
  0
ARC
  5
317
330
1F
100
AcDbEntity
  8
1
  6
Continuous
 62
     3
100
AcDbCircle
 10
-0.00000000000011
 20
83.3048863250233
 30
0.0
 40
3.999999999999868
100
AcDbArc
 50
141.3178125465091
 51
218.6821874534899
  0
ARC
  5
318
330
1F
100
AcDbEntity
  8
1
  6
Continuous
 62
     3
100
AcDbCircle
 10
-0.00000000000011
 20
83.3048863250233
 30
0.0
 40
3.323499999999917
100
AcDbArc
 50
311.2170341295041
 51
48.7829658704962
  0
ARC
  5
319
330
1F
100
AcDbEntity
  8
1
  6
Continuous
 62
     3
100
AcDbCircle
 10
-0.00000000000011
 20
83.3048863250233
 30
0.0
 40
3.323499999999941
100
AcDbArc
 50
228.7829658705006
 51
311.2170341295041
  0
ARC
  5
31A
330
1F
100
AcDbEntity
  8
1
  6
Continuous
 62
     3
100
AcDbCircle
 10
-0.00000000000011
 20
83.3048863250233
 30
0.0
 40
3.323500000000164
100
AcDbArc
 50
48.7829658704962
 51
131.2170341294994
  0
ARC
  5
31B
330
1F
100
AcDbEntity
  8
1
  6
Continuous
 62
     3
100
AcDbCircle
 10
-0.00000000000011
 20
83.3048863250233
 30
0.0
 40
3.323499999999941
100
AcDbArc
 50
131.2170341294994
 51
228.7829658705006
  0
ARC
  5
31C
330
1F
100
AcDbEntity
  8
1
  6
Continuous
 62
     3
100
AcDbCircle
 10
-0.00000000000011
 20
83.3048863250233
 30
0.0
 40
4.000000000000086
100
AcDbArc
 50
38.68218745348845
 51
141.3178125465091
  0
ARC
  5
31D
330
1F
100
AcDbEntity
  8
1
  6
Continuous
 62
     3
100
AcDbCircle
 10
0.69126188070254
 20
28.9775409001722
 30
0.0
 40
3.162476045258242
100
AcDbArc
 50
39.75585776514603
 51
72.8868553543486
  0
ARC
  5
31E
330
1F
100
AcDbEntity
  8
1
  6
Continuous
 62
     3
100
AcDbCircle
 10
-0.69126188070254
 20
28.9775409001722
 30
0.0
 40
3.162476045258281
100
AcDbArc
 50
107.1131446456516
 51
140.244142234854
  0
ARC
  5
31F
330
1F
100
AcDbEntity
  8
1
  6
Continuous
 62
     3
100
AcDbCircle
 10
34.0917027224637
 20
46.1486708592538
 30
0.0
 40
2.999999999999595
100
AcDbArc
 50
90.83154440879561
 51
138.1615007767413
  0
ARC
  5
320
330
1F
100
AcDbEntity
  8
1
  6
Continuous
 62
     3
100
AcDbCircle
 10
26.5192063509237
 20
38.3630015651842
 30
0.0
 40
3.875107571357978
100
AcDbArc
 50
256.0617592403764
 51
264.2439992217883
  0
ARC
  5
321
330
1F
100
AcDbEntity
  8
1
  6
Continuous
 62
     3
100
AcDbCircle
 10
26.3493109980349
 20
36.6775401811826
 30
0.0
 40
2.181105060176115
100
AcDbArc
 50
264.2439992217883
 51
323.0790346877866
  0
ARC
  5
322
330
1F
100
AcDbEntity
  8
1
  6
Continuous
 62
     3
100
AcDbCircle
 10
97.498520790283
 20
52.49650515299231
 30
0.0
 40
2.503686223974407
100
AcDbArc
 50
2.40592540291406
 51
90.70842728569879
  0
ARC
  5
323
330
1F
100
AcDbEntity
  8
1
  6
Continuous
 62
     3
100
AcDbCircle
 10
97.498520790283
 20
52.49650515299231
 30
0.0
 40
2.503686223974383
100
AcDbArc
 50
276.0365970150408
 51
2.40592540291406
  0
ARC
  5
324
330
1F
100
AcDbEntity
  8
1
  6
Continuous
 62
     3
100
AcDbCircle
 10
-80.0460299371857
 20
8.86187417653414
 30
0.0
 40
46.13831720043246
100
AcDbArc
 50
76.84556380966707
 51
103.1544361903328
  0
CIRCLE
  5
325
330
1F
100
AcDbEntity
  8
1
  6
Continuous
 62
     3
100
AcDbCircle
 10
-78.6318163748127
 20
0.0
 30
0.0
 40
16.6204514040603
  0
CIRCLE
  5
326
330
1F
100
AcDbEntity
  8
1
  6
Continuous
 62
     3
100
AcDbCircle
 10
-78.6318163748127
 20
0.0
 30
0.0
 40
16.0979064845164
  0
CIRCLE
  5
327
330
1F
100
AcDbEntity
  8
1
  6
Continuous
 62
     3
100
AcDbCircle
 10
-78.6318163748127
 20
0.0
 30
0.0
 40
14.54232960920331
  0
CIRCLE
  5
328
330
1F
100
AcDbEntity
  8
1
  6
Continuous
 62
     3
100
AcDbCircle
 10
-78.6318163748127
 20
0.0
 30
0.0
 40
16.75
  0
CIRCLE
  5
329
330
1F
100
AcDbEntity
  8
1
  6
Continuous
 62
     3
100
AcDbCircle
 10
-78.6318163748127
 20
0.0
 30
0.0
 40
15.0937392654563
  0
CIRCLE
  5
32A
330
1F
100
AcDbEntity
  8
1
  6
Continuous
 62
     3
100
AcDbCircle
 10
-78.6318163748127
 20
0.0
 30
0.0
 40
13.5110932974063
  0
CIRCLE
  5
32B
330
1F
100
AcDbEntity
  8
1
  6
Continuous
 62
     3
100
AcDbCircle
 10
-78.6318163748127
 20
0.0
 30
0.0
 40
10.75
  0
CIRCLE
  5
32C
330
1F
100
AcDbEntity
  8
1
  6
Continuous
 62
     3
100
AcDbCircle
 10
-78.6318163748127
 20
0.0
 30
0.0
 40
8.75
  0
CIRCLE
  5
32D
330
1F
100
AcDbEntity
  8
1
  6
Continuous
 62
     3
100
AcDbCircle
 10
-78.6318163748127
 20
0.0
 30
0.0
 40
8.0
  0
CIRCLE
  5
32E
102
{ACAD_REACTORS
330
34F
102
}
330
1F
100
AcDbEntity
  8
1
  6
Continuous
 62
     3
100
AcDbCircle
 10
70.8927885986692
 20
86.4360732469737
 30
0.0
 40
0.6089907961144974
  0
CIRCLE
  5
32F
330
1F
100
AcDbEntity
  8
1
  6
Continuous
 62
     3
100
AcDbCircle
 10
-8.48528137423841
 20
91.790167699262
 30
0.0
 40
0.75
  0
CIRCLE
  5
330
330
1F
100
AcDbEntity
  8
1
  6
Continuous
 62
     3
100
AcDbCircle
 10
-0.00000000000011
 20
83.3048863250233
 30
0.0
 40
7.69999999999993
  0
CIRCLE
  5
331
330
1F
100
AcDbEntity
  8
1
  6
Continuous
 62
     3
100
AcDbCircle
 10
-0.00000000000011
 20
83.3048863250233
 30
0.0
 40
6.5
  0
CIRCLE
  5
332
330
1F
100
AcDbEntity
  8
1
  6
Continuous
 62
     3
100
AcDbCircle
 10
-78.6318163748127
 20
0.0
 30
0.0
 40
19.0
  0
LWPOLYLINE
  5
333
330
1F
100
AcDbEntity
  8
1
  6
Continuous
 62
     3
 60
     1
100
AcDbPolyline
 90
        2
 70
     0
 43
0.0
 10
4.0
 20
22.6001505753045
 10
12.6888007141753
 20
22.6003011506089
  0
LWPOLYLINE
  5
334
330
1F
100
AcDbEntity
  8
1
  6
Continuous
 62
     3
 60
     1
100
AcDbPolyline
 90
        2
 70
     0
 43
0.0
 10
-4.5
 20
20.6001505753045
 10
-16.3473980854414
 20
20.6001505753045
  0
LWPOLYLINE
  5
335
330
1F
100
AcDbEntity
  8
1
  6
Continuous
 62
     3
 60
     1
100
AcDbPolyline
 90
        3
 70
     0
 43
0.0
 10
-19.3747258045115
 20
20.6001505753045
 10
-7.42024175389599
 20
20.6001505753045
 10
-6.89445531626927
 20
21.1001505753045
  0
LWPOLYLINE
  5
336
330
1F
100
AcDbEntity
  8
1
  6
Continuous
 62
     3
 60
     1
100
AcDbPolyline
 90
        4
 70
     0
 43
0.0
 10
-3.93394307413087
 20
22.6003011506089
 10
-15.8473980854414
 20
22.6003011506089
 10
-16.3473980854414
 20
22.1003011506089
 10
-16.3473980854414
 20
20.6001505753045
  0
LWPOLYLINE
  5
337
330
1F
100
AcDbEntity
  8
1
  6
Continuous
 62
     3
 60
     1
100
AcDbPolyline
 90
       13
 70
     0
 43
0.0
 10
1.10554468373073
 20
21.1001505753045
 10
1.60554468373073
 20
20.6001505753045
 10
11.0596261600764
 20
20.6001505753045
 10
11.6731411819101
 20
20.6001505753045
 10
11.4311466009448
 20
20.7177881646207
 10
11.3442646075921
 20
20.9445436974913
 10
11.3894104527777
 20
21.2879811087871
 10
11.3677749450091
 20
21.4978722817146
 10
11.0326107741686
 20
21.8030776341074
 10
10.7723292519144
 20
22.0156557452625
 10
10.7440270487749
 20
22.2164633652222
 10
10.6729340639093
 20
22.6003011506089
 10
1.10554468373073
 20
22.6001505753045
  0
LWPOLYLINE
  5
338
330
1F
100
AcDbEntity
  8
1
  6
Continuous
 62
     3
 60
     1
100
AcDbPolyline
 90
        4
 70
     0
 43
0.0
 10
-16.3473980854414
 20
20.6001505753045
 10
-10.9460029699713
 20
20.6001505753045
 10
-7.39445531626927
 20
20.6001505753045
 10
-6.89445531626927
 20
21.1001505753045
  0
LWPOLYLINE
  5
339
330
1F
100
AcDbEntity
  8
1
  6
Continuous
 62
     3
 60
     1
100
AcDbPolyline
 90
        2
 70
     0
 43
0.0
 10
-6.89445531626927
 20
22.6003011506089
 10
-15.8473980854414
 20
22.6003011506089
  0
LWPOLYLINE
  5
33A
330
1F
100
AcDbEntity
  8
1
  6
Continuous
 62
     3
 60
     1
100
AcDbPolyline
 90
        2
 70
     0
 43
0.0
 10
-16.3473980854414
 20
22.1003011506089
 10
-16.3473980854414
 20
20.6001505753045
  0
LWPOLYLINE
  5
33B
330
1F
100
AcDbEntity
  8
1
  6
Continuous
 62
     3
 60
     1
100
AcDbPolyline
 90
        2
 70
     0
 43
0.0
 10
-16.3473980854414
 20
20.6001505753045
 10
-3.66274075309548
 20
20.6001505753045
  0
LWPOLYLINE
  5
33C
330
1F
100
AcDbEntity
  8
1
  6
Continuous
 62
     3
 60
     1
100
AcDbPolyline
 90
        4
 70
     0
 43
0.0
 10
-3.16274075309548
 20
22.6003011506089
 10
-15.8473980854414
 20
22.6003011506089
 10
-16.3473980854414
 20
22.1003011506089
 10
-16.3473980854414
 20
20.6001505753045
  0
LWPOLYLINE
  5
33D
330
1F
100
AcDbEntity
  8
1
  6
Continuous
 62
     3
 60
     1
100
AcDbPolyline
 90
        4
 70
     0
 43
0.0
 10
11.9345777792469
 20
20.6001505753045
 10
4.04276533674977
 20
20.7887705880241
 10
3.93397180847694
 20
21.4493128961832
 10
3.93397180847694
 20
22.6001505753045
  0
HATCH
  5
33E
330
1F
100
AcDbEntity
  8
1
  6
Continuous
 62
     4
100
AcDbHatch
 10
0.0
 20
0.0
 30
0.0
210
0.0
220
0.0
230
1.0
  2
_USER
 70
     0
 71
     1
 91
        1
 92
        1
 93
       29
 72
     1
 10
39.7493033881613
 20
80.682857139191
 11
39.7478596685651
 21
80.682857139191
 72
     2
 10
39.7478596685651
 20
80.4570777391911
 40
0.2257793999998938
 50
90.0
 51
147.219694523742
 73
     1
 72
     1
 10
39.5580350154245
 20
80.5793190518654
 11
38.9007940524248
 21
79.5587104286291
 72
     2
 10
38.7426068414741
 20
79.660578189191
 40
0.1881494999999944
 50
32.78030547622278
 51
90.0
 73
     0
 72
     1
 10
38.7426068414741
 20
79.472428689191
 11
38.1692183831013
 21
79.472428689191
 72
     2
 10
38.1692183831013
 20
79.848727689191
 40
0.376299000000003
 50
90.0
 51
180.0
 73
     0
 72
     1
 10
37.7929193831013
 20
79.848727689191
 11
37.7929193831013
 21
80.0117905891912
 72
     2
 10
38.1692183831013
 20
80.0117905891912
 40
0.3762989999999036
 50
180.0
 51
270.0
 73
     0
 72
     1
 10
38.1692183831013
 20
80.3880895891911
 11
38.7901985582156
 21
80.3880895891911
 72
     1
 10
38.7901985582156
 20
80.3880895891911
 11
38.7901985582158
 21
80.6828571391907
 72
     1
 10
38.7901985582158
 20
80.6828571391907
 11
37.8995374331013
 21
80.6828571391907
 72
     2
 10
37.8995374331012
 20
80.281471539191
 40
0.4013855999996991
 50
89.9999999999858
 51
180.0
 73
     1
 72
     1
 10
37.4981518331012
 20
80.281471539191
 11
37.4981518331012
 21
79.5790467391909
 72
     2
 10
37.8995374331012
 20
79.5790467391909
 40
0.4013856000000047
 50
180.0
 51
270.0
 73
     1
 72
     1
 10
37.8995374331012
 20
79.1776611391909
 11
38.8828953962873
 21
79.1776611391909
 72
     2
 10
38.8828953962873
 20
79.403440539191
 40
0.2257794000000928
 50
270.0
 51
327.2647737278851
 73
     1
 72
     1
 10
39.0728161677505
 20
79.2813486146789
 11
39.7287456466403
 21
80.3016833596181
 72
     2
 10
39.8870129561931
 20
80.199940089191
 40
0.1881495000000939
 50
212.735226272183
 51
270.0
 73
     0
 72
     1
 10
39.8870129561931
 20
80.3880895891911
 11
40.7405948831014
 21
80.3880895891911
 72
     2
 10
40.7405948831014
 20
80.0117905891912
 40
0.376298999999797
 50
270.0
 51
360.0
 73
     0
 72
     1
 10
41.1168938831012
 20
80.0117905891912
 11
41.1168938831012
 21
79.848727689191
 72
     2
 10
40.7405948831014
 20
79.848727689191
 40
0.3762989999999888
 50
0.0
 51
90.0
 73
     0
 72
     1
 10
40.7405948831014
 20
79.472428689191
 11
40.0586985437614
 21
79.472428689191
 72
     1
 10
40.0586985437614
 20
79.472428689191
 11
40.0586985437614
 21
79.1776611391909
 72
     1
 10
40.0586985437614
 20
79.1776611391909
 11
41.0102758331012
 21
79.1776611391909
 72
     2
 10
41.0102758331012
 20
79.5790467391909
 40
0.4013855999999976
 50
270.0
 51
360.0
 73
     1
 72
     1
 10
41.4116614331012
 20
79.5790467391909
 11
41.4116614331012
 21
80.281471539191
 72
     2
 10
41.0102758331012
 20
80.281471539191
 40
0.4013856000000047
 50
0.0
 51
90.0
 73
     1
 72
     1
 10
41.0102758331012
 20
80.682857139191
 11
39.7493033881613
 21
80.682857139191
 97
       29
330
2C8
330
16E
330
2C9
330
181
330
180
330
176
330
2D5
330
177
330
2D4
330
17A
330
2D8
330
179
330
2DB
330
17C
330
2CA
330
16D
330
2CB
330
16C
330
17F
330
175
330
2D6
330
178
330
2D7
330
17B
330
2D9
330
17E
330
2DA
330
17D
330
16F
 75
     1
 76
     0
 52
45.0
 41
0.01
 77
     0
 78
     1
 53
45.0
 43
0.0
 44
0.0
 45
-0.0070710678118655
 46
0.0070710678118655
 79
     0
 98
        1
 10
0.0
 20
0.0
  0
HATCH
  5
33F
330
1F
100
AcDbEntity
  8
1
  6
Continuous
 62
     4
100
AcDbHatch
 10
0.0
 20
0.0
 30
0.0
210
0.0
220
0.0
230
1.0
  2
_USER
 70
     0
 71
     1
 91
        1
 92
        1
 93
       13
 72
     2
 10
41.7672498436545
 20
90.6649149724097
 40
0.1003463999999992
 50
30.80958048213504
 51
180.0
 73
     1
 72
     1
 10
41.6669034436546
 20
90.6649149724097
 11
41.9195676281893
 21
88.532703228366
 72
     1
 10
41.9195676281893
 20
88.532703228366
 11
42.4808970134527
 21
88.6663530820003
 72
     2
 10
42.5099498710542
 20
88.5443310800734
 40
0.125433000000052
 50
256.607502246312
 51
340.7693468284623
 73
     0
 72
     2
 10
31.6239298813257
 20
84.746886339191
 40
11.6547876123288
 50
340.7693468285403
 51
360.0
 73
     0
 72
     2
 10
31.6239298813257
 20
84.746886339191
 40
11.65478761232885
 50
0.0
 51
19.23065317145885
 73
     0
 72
     2
 10
42.5099498710542
 20
80.9494415983085
 40
0.1254330000000449
 50
19.23065317142196
 51
103.392497753709
 73
     0
 72
     1
 10
42.4808970134527
 20
80.8274195963818
 11
41.9346328287941
 21
80.957482497491
 72
     1
 10
41.9346328287941
 20
80.957482497491
 11
41.6669034436546
 21
78.8288577059723
 72
     2
 10
41.7672498436545
 20
78.8288577059723
 40
0.1003463999998999
 50
180.0
 51
268.9194586345453
 73
     1
 72
     2
 10
41.7672498436545
 20
78.8288577059723
 40
0.1003463999998774
 50
268.9194586345453
 51
329.1904195178359
 73
     1
 72
     2
 10
31.8434376313257
 20
84.746886339191
 40
11.65478761232873
 50
329.1904195177762
 51
360.0
 73
     1
 72
     2
 10
31.8434376313257
 20
84.746886339191
 40
11.6547876123287
 50
0.0
 51
30.8095804822236
 73
     1
 97
       13
330
30E
330
2CE
330
2C1
330
183
330
170
330
2CF
330
30F
330
30D
330
2CD
330
167
330
182
330
2CC
330
30C
 75
     1
 76
     0
 52
45.0
 41
0.01
 77
     0
 78
     1
 53
45.0
 43
0.0
 44
0.0
 45
-0.0070710678118655
 46
0.0070710678118655
 79
     0
 98
        1
 10
0.0
 20
0.0
  0
HATCH
  5
340
330
1F
100
AcDbEntity
  8
1
  6
Continuous
 62
     4
100
AcDbHatch
 10
0.0
 20
0.0
 30
0.0
210
0.0
220
0.0
230
1.0
  2
_USER
 70
     0
 71
     1
 91
        2
 92
        1
 93
        8
 72
     2
 10
37.8995374331012
 20
89.914725939191
 40
0.4013855999999976
 50
90.0
 51
180.0
 73
     1
 72
     1
 10
37.4981518331012
 20
89.914725939191
 11
37.4981518331012
 21
89.212301139191
 72
     2
 10
37.8995374331012
 20
89.212301139191
 40
0.4013856000000047
 50
180.0
 51
270.0
 73
     1
 72
     1
 10
37.8995374331012
 20
88.8109155391911
 11
41.0102758331012
 21
88.8109155391911
 72
     2
 10
41.0102758331012
 20
89.212301139191
 40
0.4013855999998981
 50
270.0
 51
360.0
 73
     1
 72
     1
 10
41.4116614331012
 20
89.212301139191
 11
41.4116614331012
 21
89.914725939191
 72
     2
 10
41.0102758331012
 20
89.914725939191
 40
0.4013856000000047
 50
0.0
 51
90.0
 73
     1
 72
     1
 10
41.0102758331012
 20
90.316111539191
 11
37.8995374331012
 21
90.316111539191
 97
        8
330
2C7
330
16B
330
2C6
330
16A
330
2C5
330
169
330
2C4
330
168
 92
       16
 93
        8
 72
     1
 10
38.1692183831013
 20
89.1056830891908
 11
40.7405948831014
 21
89.1056830891908
 72
     2
 10
40.7405948831014
 20
89.4819820891909
 40
0.3762990000000883
 50
270.0
 51
360.0
 73
     1
 72
     1
 10
41.1168938831012
 20
89.4819820891909
 11
41.1168938831012
 21
89.645044989191
 72
     2
 10
40.7405948831014
 20
89.645044989191
 40
0.376298999999797
 50
0.0
 51
90.0
 73
     1
 72
     1
 10
40.7405948831014
 20
90.021343989191
 11
38.1692183831013
 21
90.021343989191
 72
     2
 10
38.1692183831013
 20
89.645044989191
 40
0.3762989999999888
 50
90.0
 51
180.0
 73
     1
 72
     1
 10
37.7929193831013
 20
89.645044989191
 11
37.7929193831013
 21
89.4819820891909
 72
     2
 10
38.1692183831013
 20
89.4819820891909
 40
0.376299000000003
 50
180.0
 51
270.0
 73
     1
 97
        8
330
174
330
2D2
330
171
330
2D0
330
173
330
2D1
330
172
330
2D3
 75
     1
 76
     0
 52
45.0
 41
0.01
 77
     0
 78
     1
 53
45.0
 43
0.0
 44
0.0
 45
-0.0070710678118655
 46
0.0070710678118655
 79
     0
 98
        1
 10
0.0
 20
0.0
  0
HATCH
  5
341
330
1F
100
AcDbEntity
  8
1
  6
Continuous
 62
     4
100
AcDbHatch
 10
0.0
 20
0.0
 30
0.0
210
0.0
220
0.0
230
1.0
  2
_USER
 70
     0
 71
     1
 91
        1
 92
        1
 93
        4
 72
     1
 10
47.9583379342989
 20
86.9141098873966
 11
47.9583379342989
 21
82.5240898873965
 72
     1
 10
47.9583379342989
 20
82.5240898873965
 11
46.555970434299
 21
82.5240898873965
 72
     1
 10
46.555970434299
 20
82.5240898873965
 11
46.555970434299
 21
86.9141098873966
 72
     1
 10
46.555970434299
 20
86.9141098873966
 11
47.9583379342989
 21
86.9141098873966
 97
        4
330
1AE
330
1A2
330
1A0
330
1A1
 75
     1
 76
     0
 52
45.0
 41
0.01
 77
     0
 78
     1
 53
45.0
 43
0.0
 44
0.0
 45
-0.0070710678118655
 46
0.0070710678118655
 79
     0
 98
        1
 10
0.0
 20
0.0
  0
HATCH
  5
342
330
1F
100
AcDbEntity
  8
1
  6
Continuous
 62
     4
100
AcDbHatch
 10
0.0
 20
0.0
 30
0.0
210
0.0
220
0.0
230
1.0
  2
_USER
 70
     0
 71
     1
 91
        1
 92
        1
 93
        4
 72
     1
 10
48.9278006842989
 20
86.9141098873966
 11
48.9278006842989
 21
82.5240898873965
 72
     1
 10
48.9278006842989
 20
82.5240898873965
 11
50.3301681842987
 21
82.5240898873965
 72
     1
 10
50.3301681842987
 20
82.5240898873965
 11
50.3301681842987
 21
86.9141098873966
 72
     1
 10
50.3301681842987
 20
86.9141098873966
 11
48.9278006842989
 21
86.9141098873966
 97
        4
330
1AF
330
1B1
330
1B0
330
1B2
 75
     1
 76
     0
 52
45.0
 41
0.01
 77
     0
 78
     1
 53
45.0
 43
0.0
 44
0.0
 45
-0.0070710678118655
 46
0.0070710678118655
 79
     0
 98
        1
 10
0.0
 20
0.0
  0
HATCH
  5
343
330
1F
100
AcDbEntity
  8
1
  6
Continuous
 62
     4
100
AcDbHatch
 10
0.0
 20
0.0
 30
0.0
210
0.0
220
0.0
230
1.0
  2
_USER
 70
     0
 71
     1
 91
        1
 92
        1
 93
        4
 72
     1
 10
52.701998434299
 20
86.9141098873966
 11
52.701998434299
 21
82.5240898873965
 72
     1
 10
52.701998434299
 20
82.5240898873965
 11
51.2996309342988
 21
82.5240898873965
 72
     1
 10
51.2996309342988
 20
82.5240898873965
 11
51.2996309342988
 21
86.9141098873966
 72
     1
 10
51.2996309342988
 20
86.9141098873966
 11
52.701998434299
 21
86.9141098873966
 97
        4
330
19F
330
1A9
330
1AD
330
1A8
 75
     1
 76
     0
 52
45.0
 41
0.01
 77
     0
 78
     1
 53
45.0
 43
0.0
 44
0.0
 45
-0.0070710678118655
 46
0.0070710678118655
 79
     0
 98
        1
 10
0.0
 20
0.0
  0
HATCH
  5
344
330
1F
100
AcDbEntity
  8
1
  6
Continuous
 62
     4
100
AcDbHatch
 10
0.0
 20
0.0
 30
0.0
210
0.0
220
0.0
230
1.0
  2
_USER
 70
     0
 71
     1
 91
        1
 92
        1
 93
       12
 72
     1
 10
55.0171735641014
 20
85.7569011421989
 11
55.0171735641014
 21
84.9053832010972
 72
     1
 10
55.0171735641014
 20
84.9053832010972
 11
56.4331311943839
 21
84.9053832010972
 72
     1
 10
56.4331311943839
 20
84.9053832010972
 11
56.4331311943839
 21
85.7569011421989
 72
     1
 10
56.4331311943839
 20
85.7569011421989
 11
57.3337443241862
 21
85.7569011421989
 72
     1
 10
57.3337443241862
 20
85.7569011421989
 11
57.3337443241862
 21
83.6812986325943
 72
     1
 10
57.3337443241862
 20
83.6812986325943
 11
56.4331311943839
 21
83.6812986325943
 72
     1
 10
56.4331311943839
 20
83.6812986325943
 11
56.4331311943839
 21
84.5328165736959
 72
     1
 10
56.4331311943839
 20
84.5328165736959
 11
55.0171735641014
 21
84.5328165736959
 72
     1
 10
55.0171735641014
 20
84.5328165736959
 11
55.0171735641014
 21
83.6812986325943
 72
     1
 10
55.0171735641014
 20
83.6812986325943
 11
54.1165604342989
 21
83.6812986325943
 72
     1
 10
54.1165604342989
 20
83.6812986325943
 11
54.1165604342989
 21
85.7569011421989
 72
     1
 10
54.1165604342989
 20
85.7569011421989
 11
55.0171735641014
 21
85.7569011421989
 97
       12
330
1BB
330
1BA
330
1B9
330
1B3
330
1A4
330
1B6
330
1B7
330
1B8
330
1BC
330
1B5
330
1A3
330
1B4
 75
     1
 76
     0
 52
45.0
 41
0.01
 77
     0
 78
     1
 53
45.0
 43
0.0
 44
0.0
 45
-0.0070710678118655
 46
0.0070710678118655
 79
     0
 98
        1
 10
0.0
 20
0.0
  0
HATCH
  5
345
330
1F
100
AcDbEntity
  8
1
  6
Continuous
 62
     4
100
AcDbHatch
 10
0.0
 20
0.0
 30
0.0
210
0.0
220
0.0
230
1.0
  2
_USER
 70
     0
 71
     1
 91
        2
 92
        1
 93
        8
 72
     1
 10
60.2650797160677
 20
85.7569011421989
 11
59.0766026446101
 21
85.7569011421989
 72
     1
 10
59.0766026446101
 20
85.7569011421989
 11
57.7274610133671
 21
83.6812986325943
 72
     1
 10
57.7274610133671
 20
83.6812986325943
 11
58.3128216754963
 21
83.6812986325943
 72
     1
 10
58.3128216754963
 20
83.6812986325943
 11
58.5932585550318
 21
84.0964191345153
 72
     1
 10
58.5932585550318
 20
84.0964191345153
 11
60.3731444331876
 21
84.0964191345153
 72
     1
 10
60.3731444331876
 20
84.0964191345153
 11
60.6225667961428
 21
83.6812986325943
 72
     1
 10
60.6225667961428
 20
83.6812986325943
 11
61.5104412218307
 21
83.6812986325943
 72
     1
 10
61.5104412218307
 20
83.6812986325943
 11
60.2650797160677
 21
85.7569011421989
 97
        8
330
19B
330
19A
330
197
330
1BE
330
1A7
330
1A5
330
1A6
330
195
 92
       16
 93
        3
 72
     1
 10
58.8386408246253
 20
84.4596495736959
 11
60.1548998656016
 21
84.4596495736959
 72
     1
 10
60.1548998656016
 20
84.4596495736959
 11
59.5352929701584
 21
85.4908783792545
 72
     1
 10
59.5352929701584
 20
85.4908783792545
 11
58.8386408246253
 21
84.4596495736959
 97
        3
330
199
330
198
330
1BD
 75
     1
 76
     0
 52
45.0
 41
0.01
 77
     0
 78
     1
 53
45.0
 43
0.0
 44
0.0
 45
-0.0070710678118655
 46
0.0070710678118655
 79
     0
 98
        1
 10
0.0
 20
0.0
  0
HATCH
  5
346
330
1F
100
AcDbEntity
  8
1
  6
Continuous
 62
     4
100
AcDbHatch
 10
0.0
 20
0.0
 30
0.0
210
0.0
220
0.0
230
1.0
  2
_USER
 70
     0
 71
     1
 91
        1
 92
        1
 93
       13
 72
     1
 10
64.45818917413
 20
85.7569011421989
 11
63.8783414108801
 21
84.4596495736959
 72
     1
 10
63.8783414108801
 20
84.4596495736959
 11
63.2525651119297
 21
85.7569011421989
 72
     1
 10
63.2525651119297
 20
85.7569011421989
 11
61.9762220325767
 21
85.7569011421989
 72
     1
 10
61.9762220325767
 20
85.7569011421989
 11
61.9762220325767
 21
83.6812986325943
 72
     1
 10
61.9762220325767
 20
83.6812986325943
 11
62.5441544109383
 21
83.6812986325943
 72
     1
 10
62.5441544109383
 20
83.6812986325943
 11
62.5441544109383
 21
85.1861104520578
 72
     1
 10
62.5441544109383
 20
85.1861104520578
 11
63.3629231511249
 21
83.6812986325943
 72
     1
 10
63.3629231511249
 20
83.6812986325943
 11
64.1328327349632
 21
83.6812986325943
 72
     1
 10
64.1328327349632
 20
83.6812986325943
 11
64.8973721087636
 21
85.1861104520578
 72
     1
 10
64.8973721087636
 20
85.1861104520578
 11
64.8973721087636
 21
83.6812986325943
 72
     1
 10
64.8973721087636
 20
83.6812986325943
 11
65.776644863566
 21
83.6812986325943
 72
     1
 10
65.776644863566
 20
83.6812986325943
 11
65.776644863566
 21
85.7569011421989
 72
     1
 10
65.776644863566
 20
85.7569011421989
 11
64.45818917413
 21
85.7569011421989
 97
       13
330
196
330
1AB
330
1AA
330
1BF
330
1C0
330
1C1
330
1AC
330
19C
330
19E
330
19D
330
1C2
330
1C3
330
1C4
 75
     1
 76
     0
 52
45.0
 41
0.01
 77
     0
 78
     1
 53
45.0
 43
0.0
 44
0.0
 45
-0.0070710678118655
 46
0.0070710678118655
 79
     0
 98
        1
 10
0.0
 20
0.0
  0
HATCH
  5
347
330
1F
100
AcDbEntity
  8
1
  6
Continuous
 62
     4
100
AcDbHatch
 10
0.0
 20
0.0
 30
0.0
210
0.0
220
0.0
230
1.0
  2
_USER
 70
     0
 71
     1
 91
        2
 92
        1
 93
        8
 72
     1
 10
67.5865729339898
 20
85.7569011421989
 11
66.2374313027468
 21
83.6812986325943
 72
     1
 10
66.2374313027468
 20
83.6812986325943
 11
66.822791964876
 21
83.6812986325943
 72
     1
 10
66.822791964876
 20
83.6812986325943
 11
67.1032288444113
 21
84.0964191345153
 72
     1
 10
67.1032288444113
 20
84.0964191345153
 11
68.8831147225673
 21
84.0964191345153
 72
     1
 10
68.8831147225673
 20
84.0964191345153
 11
69.1325370855226
 21
83.6812986325943
 72
     1
 10
69.1325370855226
 20
83.6812986325943
 11
70.0204115112105
 21
83.6812986325943
 72
     1
 10
70.0204115112105
 20
83.6812986325943
 11
68.7750500054475
 21
85.7569011421989
 72
     1
 10
68.7750500054475
 20
85.7569011421989
 11
67.5865729339898
 21
85.7569011421989
 97
        8
330
18A
330
18F
330
18E
330
18B
330
194
330
192
330
190
330
191
 92
       16
 93
        3
 72
     1
 10
67.3486111140049
 20
84.4596495736959
 11
68.6648701549814
 21
84.4596495736959
 72
     1
 10
68.6648701549814
 20
84.4596495736959
 11
68.045263259538
 21
85.4908783792545
 72
     1
 10
68.045263259538
 20
85.4908783792545
 11
67.3486111140049
 21
84.4596495736959
 97
        3
330
18D
330
18C
330
193
 75
     1
 76
     0
 52
45.0
 41
0.01
 77
     0
 78
     1
 53
45.0
 43
0.0
 44
0.0
 45
-0.0070710678118655
 46
0.0070710678118655
 79
     0
 98
        1
 10
0.0
 20
0.0
  0
HATCH
  5
348
330
1F
100
AcDbEntity
  8
1
  6
Continuous
 62
     4
100
AcDbHatch
 10
0.0
 20
0.0
 30
0.0
210
0.0
220
0.0
230
1.0
  2
_USER
 70
     0
 71
     1
 91
        2
 92
        1
 93
       18
 72
     1
 10
84.40680552091817
 20
84.1144245975617
 11
85.0107270895457
 21
84.1144245975617
 72
     2
 10
85.0107270895457
 20
83.6614834210912
 40
0.4529411764704605
 50
270.0
 51
360.0
 73
     0
 72
     1
 10
85.46366826601616
 20
83.6614834210912
 11
85.46366826601616
 21
83.1881481720174
 72
     1
 10
85.46366826601616
 20
83.1881481720174
 11
85.0107270895457
 21
83.1881481720174
 72
     1
 10
85.0107270895457
 20
83.1881481720174
 11
85.0107270895457
 21
83.4350128328558
 72
     2
 10
84.78425650131038
 20
83.4350128328558
 40
0.2264705882353155
 50
0.0
 51
90.0
 73
     1
 72
     1
 10
84.78425650131038
 20
83.6614834210912
 11
84.63327610915348
 21
83.6614834210912
 72
     2
 10
84.63327610915348
 20
83.4350128328558
 40
0.2264705882354008
 50
90.0
 51
180.0
 73
     1
 72
     1
 10
84.40680552091817
 20
83.4350128328558
 11
84.40680552091817
 21
82.45407925261961
 72
     2
 10
84.70876630523185
 20
81.4533951857968
 40
1.04525064786211
 50
253.2085823128861
 51
300.6506679570536
 73
     0
 72
     2
 10
85.0107270895457
 20
81.9629540093263
 40
0.4529411764704605
 50
300.6506679570471
 51
360.0
 73
     0
 72
     1
 10
85.46366826601616
 20
81.9629540093263
 11
85.46366826601616
 21
81.2269245975616
 72
     1
 10
85.46366826601616
 20
81.2269245975616
 11
85.46366826601616
 21
80.7173657740321
 72
     2
 10
85.0107270895457
 20
80.7173657740321
 40
0.4529411764704037
 50
0.0
 51
90.0
 73
     0
 72
     1
 10
85.0107270895457
 20
80.2644245975617
 11
84.40680552091817
 21
80.2644245975617
 72
     2
 10
84.40680552091817
 20
80.7173657740321
 40
0.4529411764705742
 50
90.0
 51
180.0
 73
     0
 72
     1
 10
83.9538643444476
 20
80.7173657740321
 11
83.9538643444476
 21
83.6614834210912
 72
     2
 10
84.40680552091817
 20
83.6614834210912
 40
0.4529411764704889
 50
180.0
 51
270.0
 73
     0
 97
       18
330
A9
330
284
330
AA
330
B1
330
AE
330
289
330
AD
330
28A
330
B7
330
26C
330
28D
330
B4
330
B2
330
285
330
AB
330
286
330
AC
330
283
 92
       16
 93
        9
 72
     1
 10
84.63327610915348
 20
81.9629540093263
 11
84.78425650131038
 21
81.9629540093263
 72
     2
 10
84.78425650131038
 20
81.7364834210911
 40
0.2264705882353155
 50
270.0
 51
360.0
 73
     0
 72
     1
 10
85.0107270895457
 20
81.7364834210911
 11
85.0107270895457
 21
81.2269245975616
 72
     1
 10
85.0107270895457
 20
81.2269245975616
 11
85.0107270895457
 21
80.9438363622674
 72
     2
 10
84.78425650131038
 20
80.9438363622674
 40
0.2264705882353013
 50
0.0
 51
90.0
 73
     0
 72
     1
 10
84.78425650131038
 20
80.7173657740321
 11
84.63327610915348
 21
80.7173657740321
 72
     2
 10
84.63327610915348
 20
80.9438363622674
 40
0.2264705882353155
 50
90.0
 51
180.0
 73
     0
 72
     1
 10
84.40680552091817
 20
80.9438363622674
 11
84.40680552091817
 21
81.7364834210911
 72
     2
 10
84.63327610915348
 20
81.7364834210911
 40
0.2264705882352018
 50
180.0
 51
270.0
 73
     0
 97
        9
330
B6
330
28B
330
B5
330
B3
330
288
330
AF
330
287
330
B0
330
28C
 75
     1
 76
     0
 52
45.0
 41
0.01
 77
     0
 78
     1
 53
45.0
 43
0.0
 44
0.0
 45
-0.0070710678118655
 46
0.0070710678118655
 79
     0
 98
        1
 10
0.0
 20
0.0
  0
HATCH
  5
349
330
1F
100
AcDbEntity
  8
1
  6
Continuous
 62
     4
100
AcDbHatch
 10
0.0
 20
0.0
 30
0.0
210
0.0
220
0.0
230
1.0
  2
_USER
 70
     0
 71
     1
 91
        1
 92
        1
 93
        7
 72
     2
 10
81.8058420532899
 20
84.453043956547
 40
0.9987235744567967
 50
19.81913546675912
 51
60.84017065079802
 73
     0
 72
     1
 10
82.2924676428857
 20
83.5808947068619
 11
82.2924676428857
 21
83.0473648161621
 72
     1
 10
82.2924676428857
 20
83.0473648161621
 11
82.74540881935616
 21
83.0473648161621
 72
     1
 10
82.74540881935616
 20
83.0473648161621
 11
82.74540881935616
 21
80.2644245975617
 72
     1
 10
82.74540881935616
 20
80.2644245975617
 11
83.19834999582679
 21
80.2644245975617
 72
     1
 10
83.19834999582679
 20
80.2644245975617
 11
83.19834999582679
 21
84.1144245975617
 72
     1
 10
83.19834999582679
 20
84.1144245975617
 11
82.74540881935616
 21
84.1144245975617
 97
        7
330
B9
330
BD
330
B8
330
BB
330
BC
330
26D
330
BA
 75
     1
 76
     0
 52
45.0
 41
0.01
 77
     0
 78
     1
 53
45.0
 43
0.0
 44
0.0
 45
-0.0070710678118655
 46
0.0070710678118655
 79
     0
 98
        1
 10
0.0
 20
0.0
  0
HATCH
  5
34A
330
1F
100
AcDbEntity
  8
1
  6
Continuous
 62
     4
100
AcDbHatch
 10
0.0
 20
0.0
 30
0.0
210
0.0
220
0.0
230
1.0
  2
_USER
 70
     0
 71
     1
 91
        1
 92
        1
 93
       29
 72
     2
 10
80.48131532483956
 20
83.6614834210912
 40
0.4529411764704889
 50
90.0
 51
180.0
 73
     1
 72
     1
 10
80.02837414836887
 20
83.6614834210912
 11
80.02837414836887
 21
82.9065814603066
 72
     1
 10
80.02837414836887
 20
82.9065814603066
 11
80.48131532483956
 21
82.9065814603066
 72
     1
 10
80.48131532483956
 20
82.9065814603066
 11
80.48131532483956
 21
83.4350128328558
 72
     2
 10
80.70778591307499
 20
83.4350128328558
 40
0.2264705882354008
 50
180.0
 51
270.0
 73
     0
 72
     1
 10
80.70778591307499
 20
83.6614834210912
 11
80.85876630523177
 21
83.6614834210912
 72
     2
 10
80.85876630523177
 20
83.4350128328558
 40
0.226470588235145
 50
270.0
 51
360.0
 73
     0
 72
     1
 10
81.08523689346691
 20
83.4350128328558
 11
81.08523689346691
 21
82.8310912642283
 72
     2
 10
80.85876630523177
 20
82.8310912642283
 40
0.2264705882352018
 50
0.0
 51
90.0
 73
     0
 72
     1
 10
80.85876630523177
 20
82.6046206759931
 11
80.55680552091798
 21
82.6046206759931
 72
     1
 10
80.55680552091798
 20
82.6046206759931
 11
80.55680552091798
 21
82.1516794995223
 72
     1
 10
80.55680552091798
 20
82.1516794995223
 11
80.85876630523177
 21
82.1516794995223
 72
     2
 10
80.85876630523177
 20
81.925208911287
 40
0.226470588235145
 50
270.0
 51
360.0
 73
     0
 72
     1
 10
81.08523689346691
 20
81.925208911287
 11
81.08523689346691
 21
80.9438363622674
 72
     2
 10
80.85876630523177
 20
80.9438363622674
 40
0.2264705882353013
 50
0.0
 51
90.0
 73
     0
 72
     1
 10
80.85876630523177
 20
80.7173657740321
 11
80.70778591307499
 21
80.7173657740321
 72
     2
 10
80.70778591307499
 20
80.9438363622674
 40
0.2264705882354292
 50
90.0
 51
180.0
 73
     0
 72
     1
 10
80.48131532483956
 20
80.9438363622674
 11
80.48131532483956
 21
81.7742285191303
 72
     1
 10
80.48131532483956
 20
81.7742285191303
 11
80.02837414836887
 21
81.7742285191303
 72
     1
 10
80.02837414836887
 20
81.7742285191303
 11
80.02837414836887
 21
80.7173657740321
 72
     2
 10
80.48131532483956
 20
80.7173657740321
 40
0.4529411764706879
 50
180.0
 51
270.0
 73
     1
 72
     1
 10
80.48131532483956
 20
80.2644245975617
 11
81.08523689346691
 21
80.2644245975617
 72
     2
 10
81.08523689346691
 20
80.7173657740321
 40
0.4529411764704037
 50
270.0
 51
360.0
 73
     1
 72
     1
 10
81.53817806993766
 20
80.7173657740321
 11
81.53817806993766
 21
81.925208911287
 72
     2
 10
80.85876630523177
 20
81.925208911287
 40
0.6794117647058897
 50
0.0
 51
41.81031489579002
 73
     1
 72
     2
 10
80.85876630523177
 20
82.8310912642283
 40
0.6794117647058355
 50
318.1896851042163
 51
360.0
 73
     1
 72
     1
 10
81.53817806993766
 20
82.8310912642283
 11
81.53817806993766
 21
83.6614834210912
 72
     2
 10
81.08523689346691
 20
83.6614834210912
 40
0.4529411764707447
 50
0.0
 51
90.0
 73
     1
 72
     1
 10
81.08523689346691
 20
84.1144245975617
 11
80.48131532483956
 21
84.1144245975617
 97
       29
330
27A
330
99
330
26A
330
26B
330
A8
330
27B
330
9A
330
27C
330
9B
330
A0
330
9F
330
27D
330
9E
330
27E
330
A7
330
27F
330
A6
330
A5
330
A4
330
280
330
9D
330
281
330
9C
330
282
330
A3
330
A1
330
A2
330
279
330
98
 75
     1
 76
     0
 52
45.0
 41
0.01
 77
     0
 78
     1
 53
45.0
 43
0.0
 44
0.0
 45
-0.0070710678118655
 46
0.0070710678118655
 79
     0
 98
        1
 10
0.0
 20
0.0
  0
HATCH
  5
34B
330
1F
100
AcDbEntity
  8
1
  6
Continuous
 62
     4
100
AcDbHatch
 10
0.0
 20
0.0
 30
0.0
210
0.0
220
0.0
230
1.0
  2
_USER
 70
     0
 71
     1
 91
        1
 92
        1
 93
       28
 72
     2
 10
78.3350685026345
 20
83.6614834210912
 40
0.4529411764704889
 50
90.0
 51
180.0
 73
     1
 72
     1
 10
77.88212732616387
 20
83.6614834210912
 11
77.88212732616387
 21
82.9302458017162
 72
     2
 10
78.53129764955997
 20
82.9302458017162
 40
0.6491703233961061
 50
180.0
 51
235.2612837876392
 73
     1
 72
     1
 10
78.16137771921558
 20
82.3967841311978
 11
78.85306687339977
 21
81.9171440410537
 72
     2
 10
78.7392453563707
 20
81.7530019885866
 40
0.199744714891267
 50
304.738716212382
 51
360.0
 73
     0
 72
     1
 10
78.93899007126197
 20
81.7530019885866
 11
78.93899007126197
 21
80.9438363622674
 72
     2
 10
78.71251948302688
 20
80.9438363622674
 40
0.2264705882353013
 50
0.0
 51
90.0
 73
     0
 72
     1
 10
78.71251948302688
 20
80.7173657740321
 11
78.56153909086976
 21
80.7173657740321
 72
     2
 10
78.56153909086976
 20
80.9438363622674
 40
0.2264705882352587
 50
90.0
 51
180.0
 73
     0
 72
     1
 10
78.3350685026345
 20
80.9438363622674
 11
78.3350685026345
 21
81.7742285191303
 72
     1
 10
78.3350685026345
 20
81.7742285191303
 11
77.88212732616387
 21
81.7742285191303
 72
     1
 10
77.88212732616387
 20
81.7742285191303
 11
77.88212732616387
 21
80.7173657740321
 72
     2
 10
78.3350685026345
 20
80.7173657740321
 40
0.452941176470631
 50
180.0
 51
270.0
 73
     1
 72
     1
 10
78.3350685026345
 20
80.2644245975617
 11
78.93899007126197
 21
80.2644245975617
 72
     2
 10
78.93899007126197
 20
80.7173657740321
 40
0.4529411764704037
 50
270.0
 51
360.0
 73
     1
 72
     1
 10
79.39193124773249
 20
80.7173657740321
 11
79.39193124773249
 21
81.7505641777207
 72
     2
 10
78.74276092433627
 20
81.7505641777207
 40
0.6491703233962198
 50
0.0
 51
55.26128378763098
 73
     1
 72
     1
 10
79.11268085468078
 20
82.2840258482391
 11
78.42099170049659
 21
82.7636659383832
 72
     2
 10
78.5348132175256
 20
82.9278079908503
 40
0.1997447148910965
 50
124.7387162123686
 51
180.0
 73
     0
 72
     1
 10
78.3350685026345
 20
82.9278079908503
 11
78.3350685026345
 21
83.4350128328558
 72
     2
 10
78.56153909086976
 20
83.4350128328558
 40
0.2264705882354008
 50
180.0
 51
270.0
 73
     0
 72
     1
 10
78.56153909086976
 20
83.6614834210912
 11
78.71251948302688
 21
83.6614834210912
 72
     2
 10
78.71251948302688
 20
83.4350128328558
 40
0.2264705882350881
 50
270.0
 51
360.0
 73
     0
 72
     1
 10
78.93899007126197
 20
83.4350128328558
 11
78.93899007126197
 21
82.9065814603066
 72
     1
 10
78.93899007126197
 20
82.9065814603066
 11
79.39193124773249
 21
82.9065814603066
 72
     1
 10
79.39193124773249
 20
82.9065814603066
 11
79.39193124773249
 21
83.6614834210912
 72
     2
 10
78.93899007126197
 20
83.6614834210912
 40
0.4529411764705173
 50
0.0
 51
90.0
 73
     1
 72
     1
 10
78.93899007126197
 20
84.1144245975617
 11
78.3350685026345
 21
84.1144245975617
 97
       28
330
28E
330
C8
330
C7
330
C9
330
295
330
C2
330
294
330
C3
330
296
330
CC
330
298
330
CB
330
290
330
C0
330
291
330
C1
330
C6
330
C5
330
292
330
C4
330
293
330
CA
330
297
330
CD
330
299
330
BF
330
28F
330
BE
 75
     1
 76
     0
 52
45.0
 41
0.01
 77
     0
 78
     1
 53
45.0
 43
0.0
 44
0.0
 45
-0.0070710678118655
 46
0.0070710678118655
 79
     0
 98
        1
 10
0.0
 20
0.0
  0
HATCH
  5
34C
330
1F
100
AcDbEntity
  8
1
  6
Continuous
 62
     4
100
AcDbHatch
 10
0.0
 20
0.0
 30
0.0
210
0.0
220
0.0
230
1.0
  2
_USER
 70
     0
 71
     1
 91
        1
 92
        1
 93
       12
 72
     1
 10
75.92289779608996
 20
84.1144245975617
 11
75.92289779608996
 21
80.7173657740321
 72
     2
 10
76.3758389725607
 20
80.7173657740321
 40
0.4529411764707447
 50
180.0
 51
270.0
 73
     1
 72
     1
 10
76.3758389725607
 20
80.2644245975617
 11
76.97976054118806
 21
80.2644245975617
 72
     2
 10
76.97976054118806
 20
80.7173657740321
 40
0.4529411764704037
 50
270.0
 51
360.0
 73
     1
 72
     1
 10
77.43270171765886
 20
80.7173657740321
 11
77.43270171765886
 21
84.093198067018
 72
     1
 10
77.43270171765886
 20
84.093198067018
 11
76.97976054118806
 21
84.093198067018
 72
     1
 10
76.97976054118806
 20
84.093198067018
 11
76.97976054118806
 21
80.9438363622674
 72
     2
 10
76.75328995295297
 20
80.9438363622674
 40
0.2264705882353013
 50
0.0
 51
90.0
 73
     0
 72
     1
 10
76.75328995295297
 20
80.7173657740321
 11
76.60230956079607
 21
80.7173657740321
 72
     2
 10
76.60230956079607
 20
80.9438363622674
 40
0.2264705882353724
 50
90.0
 51
180.0
 73
     0
 72
     1
 10
76.3758389725607
 20
80.9438363622674
 11
76.37583897256059
 21
84.1144245975617
 72
     1
 10
76.37583897256059
 20
84.1144245975617
 11
75.92289779608996
 21
84.1144245975617
 97
       12
330
E0
330
2A7
330
DF
330
2A8
330
E2
330
E4
330
E5
330
2A9
330
E3
330
2A6
330
DE
330
E1
 75
     1
 76
     0
 52
45.0
 41
0.01
 77
     0
 78
     1
 53
45.0
 43
0.0
 44
0.0
 45
-0.0070710678118655
 46
0.0070710678118655
 79
     0
 98
        1
 10
0.0
 20
0.0
  0
HATCH
  5
34D
330
1F
100
AcDbEntity
  8
1
  6
Continuous
 62
     4
100
AcDbHatch
 10
0.0
 20
0.0
 30
0.0
210
0.0
220
0.0
230
1.0
  2
_USER
 70
     0
 71
     1
 91
        1
 92
        1
 93
       28
 72
     1
 10
74.41660944248679
 20
84.1144245975617
 11
75.02053101111426
 21
84.1144245975617
 72
     2
 10
75.02053101111426
 20
83.6614834210912
 40
0.4529411764707447
 50
270.0
 51
360.0
 73
     0
 72
     1
 10
75.473472187585
 20
83.6614834210912
 11
75.473472187585
 21
82.9065814603066
 72
     1
 10
75.473472187585
 20
82.9065814603066
 11
75.02053101111426
 21
82.9065814603066
 72
     1
 10
75.02053101111426
 20
82.9065814603066
 11
75.02053101111426
 21
83.4350128328558
 72
     2
 10
74.79406042287917
 20
83.4350128328558
 40
0.2264705882350881
 50
0.0
 51
90.0
 73
     1
 72
     1
 10
74.79406042287917
 20
83.6614834210912
 11
74.64308003072227
 21
83.6614834210912
 72
     2
 10
74.64308003072227
 20
83.4350128328558
 40
0.2264705882354008
 50
90.0
 51
180.0
 73
     1
 72
     1
 10
74.41660944248679
 20
83.4350128328558
 11
74.41660944248679
 21
82.9278079908503
 72
     2
 10
74.616354157378
 20
82.9278079908503
 40
0.1997447148912102
 50
180.0
 51
235.2612837876046
 73
     1
 72
     1
 10
74.50253264034887
 20
82.7636659383832
 11
75.19422179453318
 21
82.2840258482391
 72
     2
 10
74.82430186418878
 20
81.7505641777207
 40
0.6491703233962198
 50
304.7387162123608
 51
360.0
 73
     0
 72
     1
 10
75.473472187585
 20
81.7505641777207
 11
75.473472187585
 21
80.7173657740321
 72
     2
 10
75.02053101111426
 20
80.7173657740321
 40
0.4529411764704037
 50
0.0
 51
90.0
 73
     0
 72
     1
 10
75.02053101111426
 20
80.2644245975617
 11
74.41660944248679
 21
80.2644245975617
 72
     2
 10
74.41660944248679
 20
80.7173657740321
 40
0.452941176470631
 50
90.0
 51
180.0
 73
     0
 72
     1
 10
73.96366826601616
 20
80.7173657740321
 11
73.96366826601616
 21
81.7742285191303
 72
     1
 10
73.96366826601616
 20
81.7742285191303
 11
74.41660944248679
 21
81.7742285191303
 72
     1
 10
74.41660944248679
 20
81.7742285191303
 11
74.41660944248679
 21
80.9438363622674
 72
     2
 10
74.64308003072227
 20
80.9438363622674
 40
0.226470588235486
 50
180.0
 51
270.0
 73
     1
 72
     1
 10
74.64308003072227
 20
80.7173657740321
 11
74.79406042287917
 21
80.7173657740321
 72
     2
 10
74.79406042287917
 20
80.9438363622674
 40
0.2264705882353013
 50
270.0
 51
360.0
 73
     1
 72
     1
 10
75.02053101111426
 20
80.9438363622674
 11
75.02053101111426
 21
81.7530019885866
 72
     2
 10
74.82078629622316
 20
81.7530019885866
 40
0.1997447148910965
 50
0.0
 51
55.26128378760459
 73
     1
 72
     1
 10
74.93460781325228
 20
81.9171440410537
 11
74.24291865906798
 21
82.3967841311978
 72
     2
 10
74.61283858941238
 20
82.9302458017162
 40
0.6491703233962198
 50
124.7387162123608
 51
180.0
 73
     0
 72
     1
 10
73.96366826601616
 20
82.9302458017162
 11
73.96366826601616
 21
83.6614834210912
 72
     2
 10
74.41660944248679
 20
83.6614834210912
 40
0.4529411764704889
 50
180.0
 51
270.0
 73
     0
 97
       28
330
CE
330
29A
330
D8
330
D7
330
D9
330
2A1
330
D2
330
2A0
330
D3
330
2A2
330
DC
330
2A4
330
DB
330
29C
330
D0
330
29D
330
D1
330
D6
330
D5
330
29E
330
D4
330
29F
330
DA
330
2A3
330
DD
330
2A5
330
CF
330
29B
 75
     1
 76
     0
 52
45.0
 41
0.01
 77
     0
 78
     1
 53
45.0
 43
0.0
 44
0.0
 45
-0.0070710678118655
 46
0.0070710678118655
 79
     0
 98
        1
 10
0.0
 20
0.0
  0
HATCH
  5
34E
330
1F
100
AcDbEntity
  8
1
  6
Continuous
 62
     4
100
AcDbHatch
 10
0.0
 20
0.0
 30
0.0
210
0.0
220
0.0
230
1.0
  2
_USER
 70
     0
 71
     1
 91
        1
 92
        1
 93
        4
 72
     1
 10
71.2741274019172
 20
85.2961147030182
 11
71.2741274019172
 21
83.6812986325943
 72
     1
 10
71.2741274019172
 20
83.6812986325943
 11
70.5107023971145
 21
83.6812986325943
 72
     1
 10
70.5107023971145
 20
83.6812986325943
 11
70.5107023971145
 21
85.2961147030182
 72
     1
 10
70.5107023971145
 20
85.2961147030182
 11
71.2741274019172
 21
85.2961147030182
 97
        4
330
187
330
1C5
330
188
330
189
 75
     1
 76
     0
 52
45.0
 41
0.01
 77
     0
 78
     1
 53
45.0
 43
0.0
 44
0.0
 45
-0.0070710678118655
 46
0.0070710678118655
 79
     0
 98
        1
 10
0.0
 20
0.0
  0
HATCH
  5
34F
330
1F
100
AcDbEntity
  8
1
  6
Continuous
 62
     4
100
AcDbHatch
 10
0.0
 20
0.0
 30
0.0
210
0.0
220
0.0
230
1.0
  2
_USER
 70
     0
 71
     1
 91
        1
 92
        1
 93
        1
 72
     2
 10
70.8927885986692
 20
86.4360732469737
 40
0.6089907961144974
 50
0.0
 51
360.0
 73
     1
 97
        1
330
32E
 75
     1
 76
     0
 52
45.0
 41
0.01
 77
     0
 78
     1
 53
45.0
 43
0.0
 44
0.0
 45
-0.0070710678118655
 46
0.0070710678118655
 79
     0
 98
        1
 10
0.0
 20
0.0
  0
HATCH
  5
350
330
1F
100
AcDbEntity
  8
1
  6
Continuous
 62
     4
100
AcDbHatch
 10
0.0
 20
0.0
 30
0.0
210
0.0
220
0.0
230
1.0
  2
_USER
 70
     0
 71
     1
 91
        1
 92
        1
 93
       10
 72
     1
 10
74.98581463122824
 20
89.1519290702753
 11
74.98581463122824
 21
85.40123139585671
 72
     1
 10
74.98581463122824
 20
85.40123139585671
 11
74.48446826601615
 21
85.4012313958567
 72
     1
 10
74.48446826601615
 20
85.4012313958567
 11
74.48446826601615
 21
88.40960348887995
 72
     1
 10
74.48446826601615
 20
88.40960348887995
 11
73.96366826601616
 21
88.40960348887995
 72
     1
 10
73.96366826601616
 20
88.40960348887995
 11
73.96366826601616
 21
88.62448720981018
 72
     1
 10
73.96366826601616
 20
88.62448720981018
 11
74.28286826601615
 21
88.68309186097298
 72
     1
 10
74.28286826601615
 20
88.68309186097298
 11
74.51806826601616
 21
88.83937093074042
 72
     1
 10
74.51806826601616
 20
88.83937093074042
 11
74.60206826601616
 21
88.97611511678693
 72
     1
 10
74.60206826601616
 20
88.97611511678693
 11
74.65246826601616
 21
89.1519290702753
 72
     1
 10
74.65246826601616
 20
89.1519290702753
 11
74.98581463122824
 21
89.1519290702753
 97
       10
330
87
330
86
330
85
330
84
330
83
330
82
330
81
330
80
330
7F
330
7E
 75
     1
 76
     0
 52
45.0
 41
0.01
 77
     0
 78
     1
 53
45.0
 43
0.0
 44
0.0
 45
-0.0070710678118655
 46
0.0070710678118655
 79
     0
 98
        1
 10
0.0
 20
0.0
  0
HATCH
  5
351
330
1F
100
AcDbEntity
  8
1
  6
Continuous
 62
     4
100
AcDbHatch
 10
0.0
 20
0.0
 30
0.0
210
0.0
220
0.0
230
1.0
  2
_USER
 70
     0
 71
     1
 91
        1
 92
        1
 93
        4
 72
     1
 10
78.99729190651135
 20
87.5259310301598
 11
78.99729190651135
 21
87.1479976459417
 72
     1
 10
78.99729190651135
 20
87.1479976459417
 11
76.56686705374537
 21
87.1479976459417
 72
     1
 10
76.56686705374537
 20
87.1479976459417
 11
76.56686705374537
 21
87.5259310301598
 72
     1
 10
76.56686705374537
 20
87.5259310301598
 11
78.99729190651135
 21
87.5259310301598
 97
        4
330
E7
330
E6
330
88
330
E8
 75
     1
 76
     0
 52
45.0
 41
0.01
 77
     0
 78
     1
 53
45.0
 43
0.0
 44
0.0
 45
-0.0070710678118655
 46
0.0070710678118655
 79
     0
 98
        1
 10
0.0
 20
0.0
  0
HATCH
  5
352
330
1F
100
AcDbEntity
  8
1
  6
Continuous
 62
     4
100
AcDbHatch
 10
0.0
 20
0.0
 30
0.0
210
0.0
220
0.0
230
1.0
  2
_USER
 70
     0
 71
     1
 91
        2
 92
        1
 93
       18
 72
     2
 10
80.47494759434068
 20
88.8065629020694
 40
0.4529411764705031
 50
90.0
 51
180.0
 73
     1
 72
     1
 10
80.02200641787016
 20
88.8065629020694
 11
80.02200641787016
 21
85.8624452550103
 72
     2
 10
80.47494759434068
 20
85.8624452550103
 40
0.4529411764705173
 50
180.0
 51
270.0
 73
     1
 72
     1
 10
80.47494759434068
 20
85.4095040785399
 11
81.07886916296826
 21
85.4095040785399
 72
     2
 10
81.07886916296826
 20
85.8624452550103
 40
0.4529411764704037
 50
270.0
 51
360.0
 73
     1
 72
     1
 10
81.53181033943866
 20
85.8624452550103
 11
81.53181033943866
 21
86.3720040785398
 72
     1
 10
81.53181033943866
 20
86.3720040785398
 11
81.53181033943866
 21
87.1080334903045
 72
     2
 10
81.07886916296826
 20
87.1080334903045
 40
0.4529411764704037
 50
0.0
 51
59.34933204295286
 73
     1
 72
     2
 10
80.77690837865447
 20
86.598474666775
 40
1.045250647862081
 50
59.34933204294902
 51
106.79141768712
 73
     1
 72
     1
 10
80.47494759434068
 20
87.5991587335978
 11
80.47494759434068
 21
88.5800923138342
 72
     2
 10
80.70141818257605
 20
88.5800923138342
 40
0.2264705882352018
 50
180.0
 51
270.0
 73
     0
 72
     1
 10
80.70141818257605
 20
88.8065629020694
 11
80.85239857473306
 21
88.8065629020694
 72
     2
 10
80.85239857473306
 20
88.5800923138342
 40
0.2264705882352018
 50
270.0
 51
360.0
 73
     0
 72
     1
 10
81.07886916296826
 20
88.5800923138342
 11
81.07886916296826
 21
88.3332276529956
 72
     1
 10
81.07886916296826
 20
88.3332276529956
 11
81.53181033943866
 21
88.3332276529956
 72
     1
 10
81.53181033943866
 20
88.3332276529956
 11
81.53181033943866
 21
88.8065629020694
 72
     2
 10
81.07886916296826
 20
88.8065629020694
 40
0.4529411764704037
 50
0.0
 51
90.0
 73
     1
 72
     1
 10
81.07886916296826
 20
89.2595040785399
 11
80.47494759434068
 21
89.2595040785399
 97
       18
330
26F
330
8A
330
91
330
8E
330
274
330
8D
330
275
330
97
330
269
330
278
330
94
330
92
330
270
330
8B
330
271
330
8C
330
26E
330
89
 92
       16
 93
        9
 72
     1
 10
80.70141818257599
 20
87.1080334903045
 11
80.85239857473306
 21
87.1080334903045
 72
     2
 10
80.85239857473306
 20
86.8815629020693
 40
0.2264705882352018
 50
270.0
 51
360.0
 73
     0
 72
     1
 10
81.07886916296826
 20
86.8815629020693
 11
81.07886916296826
 21
86.3720040785398
 72
     1
 10
81.07886916296826
 20
86.3720040785398
 11
81.07886916296826
 21
86.0889158432456
 72
     2
 10
80.85239857473306
 20
86.0889158432456
 40
0.2264705882353013
 50
0.0
 51
90.0
 73
     0
 72
     1
 10
80.85239857473306
 20
85.8624452550103
 11
80.70141818257605
 21
85.8624452550103
 72
     2
 10
80.70141818257605
 20
86.0889158432456
 40
0.2264705882353724
 50
90.0
 51
180.0
 73
     0
 72
     1
 10
80.47494759434068
 20
86.0889158432456
 11
80.47494759434068
 21
86.8815629020693
 72
     2
 10
80.70141818257599
 20
86.8815629020693
 40
0.2264705882352018
 50
180.0
 51
270.0
 73
     0
 97
        9
330
96
330
276
330
95
330
93
330
273
330
8F
330
272
330
90
330
277
 75
     1
 76
     0
 52
45.0
 41
0.01
 77
     0
 78
     1
 53
45.0
 43
0.0
 44
0.0
 45
-0.0070710678118655
 46
0.0070710678118655
 79
     0
 98
        1
 10
0.0
 20
0.0
  0
HATCH
  5
353
330
1F
100
AcDbEntity
  8
1
  6
Continuous
 62
     4
100
AcDbHatch
 10
0.0
 20
0.0
 30
0.0
210
0.0
220
0.0
230
1.0
  2
_USER
 70
     0
 71
     1
 91
        2
 92
        1
 93
        8
 72
     2
 10
82.44020119227349
 20
88.8109045365003
 40
0.453520061061397
 50
90.0
 51
180.0
 73
     1
 72
     1
 10
81.9866811312121
 20
88.8109045365003
 11
81.9866811312121
 21
85.8630241396012
 72
     2
 10
82.44020119227349
 20
85.8630241396012
 40
0.453520061061397
 50
180.0
 51
270.0
 73
     1
 72
     1
 10
82.44020119227349
 20
85.4095040785399
 11
83.04489460702206
 21
85.4095040785399
 72
     2
 10
83.04489460702206
 20
85.8630241396012
 40
0.4535200610612975
 50
270.0
 51
360.0
 73
     1
 72
     1
 10
83.49841466808346
 20
85.8630241396012
 11
83.49841466808346
 21
88.8109045365003
 72
     2
 10
83.04489460702206
 20
88.8109045365003
 40
0.453520061061397
 50
0.0
 51
90.0
 73
     1
 72
     1
 10
83.04489460702206
 20
89.2644245975617
 11
82.44020119227349
 21
89.2644245975617
 97
        8
330
2B0
330
EF
330
2AF
330
EE
330
2AE
330
ED
330
2B1
330
F0
 92
       16
 93
        8
 72
     1
 10
82.44020119227349
 20
86.08978417013181
 11
82.44020119227349
 21
88.5841445059697
 72
     2
 10
82.66696122280428
 20
88.5841445059697
 40
0.226760030530599
 50
180.0
 51
270.0
 73
     0
 72
     1
 10
82.66696122280428
 20
88.8109045365003
 11
82.81813457649156
 21
88.8109045365003
 72
     2
 10
82.81813457649156
 20
88.5841445059697
 40
0.2267600305304995
 50
270.0
 51
360.0
 73
     0
 72
     1
 10
83.04489460702206
 20
88.5841445059697
 11
83.04489460702206
 21
86.08978417013181
 72
     2
 10
82.81813457649156
 20
86.08978417013181
 40
0.2267600305306132
 50
0.0
 51
90.0
 73
     0
 72
     1
 10
82.81813457649156
 20
85.8630241396012
 11
82.66696122280428
 21
85.8630241396012
 72
     2
 10
82.66696122280428
 20
86.08978417013181
 40
0.2267600305307838
 50
90.0
 51
180.0
 73
     0
 97
        8
330
E9
330
2AA
330
EC
330
2AB
330
EB
330
2AC
330
EA
330
2AD
 75
     1
 76
     0
 52
45.0
 41
0.01
 77
     0
 78
     1
 53
45.0
 43
0.0
 44
0.0
 45
-0.0070710678118655
 46
0.0070710678118655
 79
     0
 98
        1
 10
0.0
 20
0.0
  0
HATCH
  5
354
330
1F
100
AcDbEntity
  8
1
  6
Continuous
 62
     4
100
AcDbHatch
 10
0.0
 20
0.0
 30
0.0
210
0.0
220
0.0
230
1.0
  2
_USER
 70
     0
 71
     1
 91
        2
 92
        1
 93
        8
 72
     1
 10
84.40545479020636
 20
89.2644245975617
 11
85.01014820495487
 21
89.2644245975617
 72
     2
 10
85.01014820495487
 20
88.8109045365003
 40
0.4535200610612833
 50
270.0
 51
360.0
 73
     0
 72
     1
 10
85.46366826601616
 20
88.8109045365003
 11
85.46366826601616
 21
85.8630241396012
 72
     2
 10
85.01014820495487
 20
85.8630241396012
 40
0.4535200610612975
 50
0.0
 51
90.0
 73
     0
 72
     1
 10
85.01014820495487
 20
85.4095040785399
 11
84.40545479020636
 21
85.4095040785399
 72
     2
 10
84.40545479020636
 20
85.8630241396012
 40
0.4535200610614538
 50
90.0
 51
180.0
 73
     0
 72
     1
 10
83.95193472914491
 20
85.8630241396012
 11
83.95193472914491
 21
88.8109045365003
 72
     2
 10
84.40545479020636
 20
88.8109045365003
 40
0.453520061061397
 50
180.0
 51
270.0
 73
     0
 97
        8
330
F8
330
2B8
330
F7
330
2B7
330
F6
330
2B6
330
F5
330
2B9
 92
       16
 93
        8
 72
     1
 10
84.40545479020636
 20
86.08978417013181
 11
84.40545479020636
 21
88.5841445059697
 72
     2
 10
84.63221482073709
 20
88.5841445059697
 40
0.226760030530599
 50
180.0
 51
270.0
 73
     0
 72
     1
 10
84.63221482073709
 20
88.8109045365003
 11
84.78338817442426
 21
88.8109045365003
 72
     2
 10
84.78338817442426
 20
88.5841445059697
 40
0.2267600305306132
 50
270.0
 51
360.0
 73
     0
 72
     1
 10
85.01014820495487
 20
88.5841445059697
 11
85.01014820495487
 21
86.08978417013181
 72
     2
 10
84.78338817442426
 20
86.08978417013181
 40
0.2267600305306132
 50
0.0
 51
90.0
 73
     0
 72
     1
 10
84.78338817442426
 20
85.8630241396012
 11
84.63221482073709
 21
85.8630241396012
 72
     2
 10
84.63221482073709
 20
86.08978417013181
 40
0.2267600305307269
 50
90.0
 51
180.0
 73
     0
 97
        8
330
F1
330
2B2
330
F4
330
2B3
330
F3
330
2B4
330
F2
330
2B5
 75
     1
 76
     0
 52
45.0
 41
0.01
 77
     0
 78
     1
 53
45.0
 43
0.0
 44
0.0
 45
-0.0070710678118655
 46
0.0070710678118655
 79
     0
 98
        1
 10
0.0
 20
0.0
  0
ENDSEC
  0
SECTION
  2
OBJECTS
  0
DICTIONARY
  5
C
330
0
100
AcDbDictionary
281
     1
  3
ACAD_GROUP
350
D
  3
ACAD_LAYOUT
350
1A
  3
ACAD_MATERIAL
350
43
  3
ACAD_MLEADERSTYLE
350
357
  3
ACAD_MLINESTYLE
350
17
  3
ACAD_PLOTSETTINGS
350
19
  3
ACAD_PLOTSTYLENAME
350
E
  3
ACAD_SCALELIST
350
47
  3
ACAD_VISUALSTYLE
350
2A
  3
AcDbVariableDictionary
350
355
  0
DICTIONARY
  5
D
102
{ACAD_REACTORS
330
C
102
}
330
C
100
AcDbDictionary
281
     1
  0
DICTIONARY
  5
1A
102
{ACAD_REACTORS
330
C
102
}
330
C
100
AcDbDictionary
281
     1
  3
Layout1
350
1E
  3
Layout2
350
26
  3
Model
350
22
  0
DICTIONARY
  5
43
102
{ACAD_REACTORS
330
C
102
}
330
C
100
AcDbDictionary
281
     1
  3
ByBlock
350
45
  3
ByLayer
350
44
  3
Global
350
46
  0
DICTIONARY
  5
357
102
{ACAD_REACTORS
330
C
102
}
330
C
100
AcDbDictionary
281
     1
  0
DICTIONARY
  5
17
102
{ACAD_REACTORS
330
C
102
}
330
C
100
AcDbDictionary
281
     1
  3
Standard
350
18
  0
DICTIONARY
  5
19
102
{ACAD_REACTORS
330
C
102
}
330
C
100
AcDbDictionary
281
     1
  0
ACDBDICTIONARYWDFLT
  5
E
102
{ACAD_REACTORS
330
C
102
}
330
C
100
AcDbDictionary
281
     1
  3
Normal
350
F
100
AcDbDictionaryWithDefault
340
F
  0
DICTIONARY
  5
47
102
{ACAD_REACTORS
330
C
102
}
330
C
100
AcDbDictionary
281
     1
  3
A0
350
48
  3
A1
350
49
  3
A2
350
4A
  3
A3
350
4B
  3
A4
350
4C
  3
A5
350
4D
  3
A6
350
4E
  3
A7
350
4F
  3
A8
350
50
  3
A9
350
51
  3
B0
350
52
  3
B1
350
53
  3
B2
350
54
  3
B3
350
55
  3
B4
350
56
  3
B5
350
57
  3
B6
350
58
  3
B7
350
59
  3
B8
350
5A
  3
B9
350
5B
  3
C0
350
5C
  3
C1
350
5D
  3
C2
350
5E
  3
C3
350
5F
  3
C4
350
60
  3
C5
350
61
  3
C6
350
62
  3
C7
350
63
  3
C8
350
64
  3
C9
350
65
  3
D0
350
66
  3
D1
350
67
  3
D2
350
68
  0
DICTIONARY
  5
2A
102
{ACAD_REACTORS
330
C
102
}
330
C
100
AcDbDictionary
281
     1
  3
2dWireframe
350
2F
  3
Basic
350
32
  3
Brighten
350
36
  3
ColorChange
350
3A
  3
Conceptual
350
34
  3
Dim
350
35
  3
EdgeColorOff
350
3D
  3
Facepattern
350
39
  3
Flat
350
2B
  3
FlatWithEdges
350
2C
  3
Gouraud
350
2D
  3
GouraudWithEdges
350
2E
  3
Hidden
350
31
  3
JitterOff
350
3B
  3
Linepattern
350
38
  3
OverhangOff
350
3C
  3
Realistic
350
33
  3
Shaded
350
42
  3
Shaded with edges
350
41
  3
Shades of Gray
350
3E
  3
Sketchy
350
3F
  3
Thicken
350
37
  3
Wireframe
350
30
  3
X-Ray
350
40
  0
DICTIONARY
  5
355
102
{ACAD_REACTORS
330
C
102
}
330
C
100
AcDbDictionary
281
     1
  3
CANNOSCALE
350
35C
  3
DIMASSOC
350
35A
  3
HIDETEXT
350
35B
  3
MSLTSCALE
350
35D
  0
LAYOUT
  5
1E
102
{ACAD_REACTORS
330
1A
102
}
330
1A
100
AcDbPlotSettings
  1

  2
none_device
  4

  6

 40
0.0
 41
0.0
 42
0.0
 43
0.0
 44
0.0
 45
0.0
 46
0.0
 47
0.0
 48
0.0
 49
0.0
140
0.0
141
0.0
142
1.0
143
1.0
 70
   688
 72
     0
 73
     0
 74
     5
  7

 75
    16
147
1.0
148
0.0
149
0.0
100
AcDbLayout
  1
Layout1
 70
     1
 71
     1
 10
0.0
 20
0.0
 11
12.0
 21
9.0
 12
0.0
 22
0.0
 32
0.0
 14
1.00000000000000E+20
 24
1.00000000000000E+20
 34
1.00000000000000E+20
 15
-1.00000000000000E+20
 25
-1.00000000000000E+20
 35
-1.00000000000000E+20
146
0.0
 13
0.0
 23
0.0
 33
0.0
 16
1.0
 26
0.0
 36
0.0
 17
0.0
 27
1.0
 37
0.0
 76
     0
330
1B
  0
LAYOUT
  5
26
102
{ACAD_REACTORS
330
1A
102
}
330
1A
100
AcDbPlotSettings
  1

  2
none_device
  4

  6

 40
0.0
 41
0.0
 42
0.0
 43
0.0
 44
0.0
 45
0.0
 46
0.0
 47
0.0
 48
0.0
 49
0.0
140
0.0
141
0.0
142
1.0
143
1.0
 70
   688
 72
     0
 73
     0
 74
     5
  7

 75
    16
147
1.0
148
0.0
149
0.0
100
AcDbLayout
  1
Layout2
 70
     1
 71
     2
 10
0.0
 20
0.0
 11
0.0
 21
0.0
 12
0.0
 22
0.0
 32
0.0
 14
0.0
 24
0.0
 34
0.0
 15
0.0
 25
0.0
 35
0.0
146
0.0
 13
0.0
 23
0.0
 33
0.0
 16
1.0
 26
0.0
 36
0.0
 17
0.0
 27
1.0
 37
0.0
 76
     0
330
23
  0
LAYOUT
  5
22
102
{ACAD_REACTORS
330
1A
102
}
330
1A
100
AcDbPlotSettings
  1

  2
none_device
  4
Letter_(8.50_x_11.00_Inches)
  6

 40
6.35
 41
6.35
 42
6.35000508
 43
6.35000508
 44
215.9
 45
279.4
 46
0.0
 47
0.0
 48
0.0
 49
0.0
140
0.0
141
0.0
142
1.0
143
1.0
 70
  1712
 72
     0
 73
     0
 74
     0
  7

 75
     0
147
1.0
148
0.0
149
0.0
100
AcDbLayout
  1
Model
 70
     1
 71
     0
 10
0.0
 20
0.0
 11
12.0
 21
9.0
 12
0.0
 22
0.0
 32
0.0
 14
-103.6318163748127
 24
-34.6443355089935
 34
0.0
 15
101.8186384958148
 25
106.57606436728
 35
0.0
146
0.0
 13
0.0
 23
0.0
 33
0.0
 16
1.0
 26
0.0
 36
0.0
 17
0.0
 27
1.0
 37
0.0
 76
     0
330
1F
331
29
  0
MATERIAL
  5
45
102
{ACAD_REACTORS
330
43
102
}
102
{ACAD_XDICTIONARY
360
390
102
}
330
43
100
AcDbMaterial
  1
ByBlock
  0
MATERIAL
  5
44
102
{ACAD_REACTORS
330
43
102
}
102
{ACAD_XDICTIONARY
360
38E
102
}
330
43
100
AcDbMaterial
  1
ByLayer
  0
MATERIAL
  5
46
102
{ACAD_REACTORS
330
43
102
}
102
{ACAD_XDICTIONARY
360
392
102
}
330
43
100
AcDbMaterial
  1
Global
  0
MLINESTYLE
  5
18
102
{ACAD_REACTORS
330
17
102
}
330
17
100
AcDbMlineStyle
  2
Standard
 70
     0
  3

 62
   256
 51
90.0
 52
90.0
 71
     2
 49
0.5
 62
   256
  6
BYLAYER
 49
-0.5
 62
   256
  6
BYLAYER
  0
ACDBPLACEHOLDER
  5
F
102
{ACAD_REACTORS
330
E
102
}
330
E
  0
SCALE
  5
48
102
{ACAD_REACTORS
330
47
102
}
330
47
100
AcDbScale
 70
     0
300
1:1
140
1.0
141
1.0
290
     1
  0
SCALE
  5
49
102
{ACAD_REACTORS
330
47
102
}
330
47
100
AcDbScale
 70
     0
300
1:2
140
1.0
141
2.0
290
     0
  0
SCALE
  5
4A
102
{ACAD_REACTORS
330
47
102
}
330
47
100
AcDbScale
 70
     0
300
1:4
140
1.0
141
4.0
290
     0
  0
SCALE
  5
4B
102
{ACAD_REACTORS
330
47
102
}
330
47
100
AcDbScale
 70
     0
300
1:5
140
1.0
141
5.0
290
     0
  0
SCALE
  5
4C
102
{ACAD_REACTORS
330
47
102
}
330
47
100
AcDbScale
 70
     0
300
1:8
140
1.0
141
8.0
290
     0
  0
SCALE
  5
4D
102
{ACAD_REACTORS
330
47
102
}
330
47
100
AcDbScale
 70
     0
300
1:10
140
1.0
141
10.0
290
     0
  0
SCALE
  5
4E
102
{ACAD_REACTORS
330
47
102
}
330
47
100
AcDbScale
 70
     0
300
1:16
140
1.0
141
16.0
290
     0
  0
SCALE
  5
4F
102
{ACAD_REACTORS
330
47
102
}
330
47
100
AcDbScale
 70
     0
300
1:20
140
1.0
141
20.0
290
     0
  0
SCALE
  5
50
102
{ACAD_REACTORS
330
47
102
}
330
47
100
AcDbScale
 70
     0
300
1:30
140
1.0
141
30.0
290
     0
  0
SCALE
  5
51
102
{ACAD_REACTORS
330
47
102
}
330
47
100
AcDbScale
 70
     0
300
1:40
140
1.0
141
40.0
290
     0
  0
SCALE
  5
52
102
{ACAD_REACTORS
330
47
102
}
330
47
100
AcDbScale
 70
     0
300
1:50
140
1.0
141
50.0
290
     0
  0
SCALE
  5
53
102
{ACAD_REACTORS
330
47
102
}
330
47
100
AcDbScale
 70
     0
300
1:100
140
1.0
141
100.0
290
     0
  0
SCALE
  5
54
102
{ACAD_REACTORS
330
47
102
}
330
47
100
AcDbScale
 70
     0
300
2:1
140
2.0
141
1.0
290
     0
  0
SCALE
  5
55
102
{ACAD_REACTORS
330
47
102
}
330
47
100
AcDbScale
 70
     0
300
4:1
140
4.0
141
1.0
290
     0
  0
SCALE
  5
56
102
{ACAD_REACTORS
330
47
102
}
330
47
100
AcDbScale
 70
     0
300
8:1
140
8.0
141
1.0
290
     0
  0
SCALE
  5
57
102
{ACAD_REACTORS
330
47
102
}
330
47
100
AcDbScale
 70
     0
300
10:1
140
10.0
141
1.0
290
     0
  0
SCALE
  5
58
102
{ACAD_REACTORS
330
47
102
}
330
47
100
AcDbScale
 70
     0
300
100:1
140
100.0
141
1.0
290
     0
  0
SCALE
  5
59
102
{ACAD_REACTORS
330
47
102
}
330
47
100
AcDbScale
 70
     0
300
1/128" = 1'-0"
140
0.0078125
141
12.0
290
     0
  0
SCALE
  5
5A
102
{ACAD_REACTORS
330
47
102
}
330
47
100
AcDbScale
 70
     0
300
1/64" = 1'-0"
140
0.015625
141
12.0
290
     0
  0
SCALE
  5
5B
102
{ACAD_REACTORS
330
47
102
}
330
47
100
AcDbScale
 70
     0
300
1/32" = 1'-0"
140
0.03125
141
12.0
290
     0
  0
SCALE
  5
5C
102
{ACAD_REACTORS
330
47
102
}
330
47
100
AcDbScale
 70
     0
300
1/16" = 1'-0"
140
0.0625
141
12.0
290
     0
  0
SCALE
  5
5D
102
{ACAD_REACTORS
330
47
102
}
330
47
100
AcDbScale
 70
     0
300
3/32" = 1'-0"
140
0.09375
141
12.0
290
     0
  0
SCALE
  5
5E
102
{ACAD_REACTORS
330
47
102
}
330
47
100
AcDbScale
 70
     0
300
1/8" = 1'-0"
140
0.125
141
12.0
290
     0
  0
SCALE
  5
5F
102
{ACAD_REACTORS
330
47
102
}
330
47
100
AcDbScale
 70
     0
300
3/16" = 1'-0"
140
0.1875
141
12.0
290
     0
  0
SCALE
  5
60
102
{ACAD_REACTORS
330
47
102
}
330
47
100
AcDbScale
 70
     0
300
1/4" = 1'-0"
140
0.25
141
12.0
290
     0
  0
SCALE
  5
61
102
{ACAD_REACTORS
330
47
102
}
330
47
100
AcDbScale
 70
     0
300
3/8" = 1'-0"
140
0.375
141
12.0
290
     0
  0
SCALE
  5
62
102
{ACAD_REACTORS
330
47
102
}
330
47
100
AcDbScale
 70
     0
300
1/2" = 1'-0"
140
0.5
141
12.0
290
     0
  0
SCALE
  5
63
102
{ACAD_REACTORS
330
47
102
}
330
47
100
AcDbScale
 70
     0
300
3/4" = 1'-0"
140
0.75
141
12.0
290
     0
  0
SCALE
  5
64
102
{ACAD_REACTORS
330
47
102
}
330
47
100
AcDbScale
 70
     0
300
1" = 1'-0"
140
1.0
141
12.0
290
     0
  0
SCALE
  5
65
102
{ACAD_REACTORS
330
47
102
}
330
47
100
AcDbScale
 70
     0
300
1-1/2" = 1'-0"
140
1.5
141
12.0
290
     0
  0
SCALE
  5
66
102
{ACAD_REACTORS
330
47
102
}
330
47
100
AcDbScale
 70
     0
300
3" = 1'-0"
140
3.0
141
12.0
290
     0
  0
SCALE
  5
67
102
{ACAD_REACTORS
330
47
102
}
330
47
100
AcDbScale
 70
     0
300
6" = 1'-0"
140
6.0
141
12.0
290
     0
  0
SCALE
  5
68
102
{ACAD_REACTORS
330
47
102
}
330
47
100
AcDbScale
 70
     0
300
1'-0" = 1'-0"
140
12.0
141
12.0
290
     0
  0
VISUALSTYLE
  5
2F
102
{ACAD_REACTORS
330
2A
102
}
102
{ACAD_XDICTIONARY
360
366
102
}
330
2A
100
AcDbVisualStyle
  2
2dWireframe
 70
     4
 71
     0
 72
     2
 73
     0
 90
        0
 40
0.6
 41
30.0
 62
     5
 63
     7
 74
     1
 91
        4
 64
     7
 65
   257
 75
     1
175
     1
 42
1.0
 92
        0
 66
   257
 43
1.0
 76
     1
 77
     6
 78
     2
 67
     7
 79
     5
170
     0
171
     0
290
     0
174
     0
 93
        1
 44
0.0
173
     0
291
     0
 45
0.0
1001
ACAD
1000
AcDbSavedByObjectVersion
1070
     0
  0
VISUALSTYLE
  5
32
102
{ACAD_REACTORS
330
2A
102
}
102
{ACAD_XDICTIONARY
360
36C
102
}
330
2A
100
AcDbVisualStyle
  2
Basic
 70
     7
 71
     1
 72
     0
 73
     1
 90
        0
 40
0.6
 41
30.0
 62
     5
 63
     7
 74
     0
 91
        4
 64
     7
 65
   257
 75
     1
175
     1
 42
1.0
 92
        8
 66
     7
 43
1.0
 76
     1
 77
     6
 78
     2
 67
     7
 79
     5
170
     0
171
     0
290
     0
174
     0
 93
        1
 44
0.0
173
     0
291
     1
 45
0.0
1001
ACAD
1000
AcDbSavedByObjectVersion
1070
     0
  0
VISUALSTYLE
  5
36
102
{ACAD_REACTORS
330
2A
102
}
102
{ACAD_XDICTIONARY
360
374
102
}
330
2A
100
AcDbVisualStyle
  2
Brighten
 70
    12
 71
     2
 72
     2
 73
     0
 90
        0
 40
0.6
 41
30.0
 62
     5
 63
     7
 74
     1
 91
        4
 64
     7
 65
   257
 75
     1
175
     1
 42
1.0
 92
        8
 66
     7
 43
1.0
 76
     1
 77
     6
 78
     2
 67
     7
 79
     5
170
     0
171
     0
290
     0
174
     0
 93
        1
 44
50.0
173
     0
291
     1
 45
0.0
1001
ACAD
1000
AcDbSavedByObjectVersion
1070
     0
  0
VISUALSTYLE
  5
3A
102
{ACAD_REACTORS
330
2A
102
}
102
{ACAD_XDICTIONARY
360
37C
102
}
330
2A
100
AcDbVisualStyle
  2
ColorChange
 70
    16
 71
     2
 72
     2
 73
     3
 90
        0
 40
0.6
 41
30.0
 62
     5
 63
     8
 74
     1
 91
        4
 64
     7
 65
   257
 75
     1
175
     1
 42
1.0
 92
        8
 66
     8
 43
1.0
 76
     1
 77
     6
 78
     2
 67
     7
 79
     5
170
     0
171
     0
290
     0
174
     0
 93
        1
 44
0.0
173
     0
291
     1
 45
0.0
1001
ACAD
1000
AcDbSavedByObjectVersion
1070
     0
  0
VISUALSTYLE
  5
34
102
{ACAD_REACTORS
330
2A
102
}
102
{ACAD_XDICTIONARY
360
370
102
}
330
2A
100
AcDbVisualStyle
  2
Conceptual
 70
     9
 71
     3
 72
     2
 73
     0
 90
        0
 40
0.6
 41
30.0
 62
     5
 63
     7
 74
     2
 91
        2
 64
     7
 65
   257
 75
     1
175
     1
 42
179.0
 92
        8
 66
     7
 43
1.0
 76
     1
 77
     6
 78
     2
 67
     7
 79
     3
170
     0
171
     0
290
     0
174
     0
 93
        1
 44
0.0
173
     0
291
     0
 45
0.0
1001
ACAD
1000
AcDbSavedByObjectVersion
1070
     0
  0
VISUALSTYLE
  5
35
102
{ACAD_REACTORS
330
2A
102
}
102
{ACAD_XDICTIONARY
360
372
102
}
330
2A
100
AcDbVisualStyle
  2
Dim
 70
    11
 71
     2
 72
     2
 73
     0
 90
        0
 40
0.6
 41
30.0
 62
     5
 63
     7
 74
     1
 91
        4
 64
     7
 65
   257
 75
     1
175
     1
 42
1.0
 92
        8
 66
     7
 43
1.0
 76
     1
 77
     6
 78
     2
 67
     7
 79
     5
170
     0
171
     0
290
     0
174
     0
 93
        1
 44
-50.0
173
     0
291
     1
 45
0.0
1001
ACAD
1000
AcDbSavedByObjectVersion
1070
     0
  0
VISUALSTYLE
  5
3D
102
{ACAD_REACTORS
330
2A
102
}
102
{ACAD_XDICTIONARY
360
382
102
}
330
2A
100
AcDbVisualStyle
  2
EdgeColorOff
 70
    22
 71
     2
 72
     2
 73
     0
 90
        0
 40
0.6
 41
30.0
 62
     5
 63
     7
 74
     1
 91
        4
 64
     7
 65
   257
 75
     1
175
     1
 42
1.0
 92
        8
 66
     7
 43
1.0
 76
     1
 77
     6
 78
     2
 67
     7
 79
     5
170
     0
171
     0
290
     0
174
     0
 93
        1
 44
0.0
173
     0
291
     1
 45
0.0
1001
ACAD
1000
AcDbSavedByObjectVersion
1070
     0
  0
VISUALSTYLE
  5
39
102
{ACAD_REACTORS
330
2A
102
}
102
{ACAD_XDICTIONARY
360
37A
102
}
330
2A
100
AcDbVisualStyle
  2
Facepattern
 70
    15
 71
     2
 72
     2
 73
     0
 90
        0
 40
0.6
 41
30.0
 62
     5
 63
     7
 74
     1
 91
        4
 64
     7
 65
   257
 75
     1
175
     1
 42
1.0
 92
        8
 66
     7
 43
1.0
 76
     1
 77
     6
 78
     2
 67
     7
 79
     5
170
     0
171
     0
290
     0
174
     0
 93
        1
 44
0.0
173
     0
291
     1
 45
0.0
1001
ACAD
1000
AcDbSavedByObjectVersion
1070
     0
  0
VISUALSTYLE
  5
2B
102
{ACAD_REACTORS
330
2A
102
}
102
{ACAD_XDICTIONARY
360
35E
102
}
330
2A
100
AcDbVisualStyle
  2
Flat
 70
     0
 71
     2
 72
     1
 73
     1
 90
        2
 40
0.6
 41
30.0
 62
     5
 63
     7
 74
     0
 91
        0
 64
     7
 65
   257
 75
     1
175
     1
 42
1.0
 92
        8
 66
     7
 43
1.0
 76
     1
 77
     6
 78
     2
 67
     7
 79
     5
170
     0
171
     0
290
     0
174
     0
 93
       13
 44
0.0
173
     0
291
     1
 45
0.0
1001
ACAD
1000
AcDbSavedByObjectVersion
1070
     0
  0
VISUALSTYLE
  5
2C
102
{ACAD_REACTORS
330
2A
102
}
102
{ACAD_XDICTIONARY
360
360
102
}
330
2A
100
AcDbVisualStyle
  2
FlatWithEdges
 70
     1
 71
     2
 72
     1
 73
     1
 90
        2
 40
0.6
 41
30.0
 62
     5
 63
     7
 74
     1
 91
        0
 64
     7
 65
   257
 75
     1
175
     1
 42
1.0
 92
        0
 66
   257
 43
1.0
 76
     1
 77
     6
 78
     2
 67
     7
 79
     5
170
     0
171
     0
290
     0
174
     0
 93
       13
 44
0.0
173
     0
291
     1
 45
0.0
1001
ACAD
1000
AcDbSavedByObjectVersion
1070
     0
  0
VISUALSTYLE
  5
2D
102
{ACAD_REACTORS
330
2A
102
}
102
{ACAD_XDICTIONARY
360
362
102
}
330
2A
100
AcDbVisualStyle
  2
Gouraud
 70
     2
 71
     2
 72
     2
 73
     1
 90
        2
 40
0.6
 41
30.0
 62
     5
 63
     7
 74
     0
 91
        0
 64
     7
 65
   257
 75
     1
175
     1
 42
1.0
 92
        0
 66
     7
 43
1.0
 76
     1
 77
     6
 78
     2
 67
     7
 79
     5
170
     0
171
     0
290
     0
174
     0
 93
       13
 44
0.0
173
     0
291
     1
 45
0.0
1001
ACAD
1000
AcDbSavedByObjectVersion
1070
     0
  0
VISUALSTYLE
  5
2E
102
{ACAD_REACTORS
330
2A
102
}
102
{ACAD_XDICTIONARY
360
364
102
}
330
2A
100
AcDbVisualStyle
  2
GouraudWithEdges
 70
     3
 71
     2
 72
     2
 73
     1
 90
        2
 40
0.6
 41
30.0
 62
     5
 63
     7
 74
     1
 91
        0
 64
     7
 65
   257
 75
     1
175
     1
 42
1.0
 92
        0
 66
   257
 43
1.0
 76
     1
 77
     6
 78
     2
 67
     7
 79
     5
170
     0
171
     0
290
     0
174
     0
 93
       13
 44
0.0
173
     0
291
     1
 45
0.0
1001
ACAD
1000
AcDbSavedByObjectVersion
1070
     0
  0
VISUALSTYLE
  5
31
102
{ACAD_REACTORS
330
2A
102
}
102
{ACAD_XDICTIONARY
360
36A
102
}
330
2A
100
AcDbVisualStyle
  2
Hidden
 70
     6
 71
     1
 72
     2
 73
     2
 90
        0
 40
0.6
 41
30.0
 62
     5
 63
     7
 74
     2
 91
        2
 64
     7
 65
   257
 75
     2
175
     1
 42
40.0
 92
        0
 66
   257
 43
1.0
 76
     1
 77
     6
 78
     2
 67
     7
 79
     3
170
     0
171
     0
290
     0
174
     0
 93
        1
 44
0.0
173
     0
291
     0
 45
0.0
1001
ACAD
1000
AcDbSavedByObjectVersion
1070
     0
  0
VISUALSTYLE
  5
3B
102
{ACAD_REACTORS
330
2A
102
}
102
{ACAD_XDICTIONARY
360
37E
102
}
330
2A
100
AcDbVisualStyle
  2
JitterOff
 70
    20
 71
     2
 72
     2
 73
     0
 90
        0
 40
0.6
 41
30.0
 62
     5
 63
     7
 74
     1
 91
        4
 64
     7
 65
   257
 75
     1
175
     1
 42
1.0
 92
       10
 66
     7
 43
1.0
 76
     1
 77
     6
 78
     2
 67
     7
 79
     5
170
     0
171
     0
290
     0
174
     0
 93
        1
 44
0.0
173
     0
291
     1
 45
0.0
1001
ACAD
1000
AcDbSavedByObjectVersion
1070
     0
  0
VISUALSTYLE
  5
38
102
{ACAD_REACTORS
330
2A
102
}
102
{ACAD_XDICTIONARY
360
378
102
}
330
2A
100
AcDbVisualStyle
  2
Linepattern
 70
    14
 71
     2
 72
     2
 73
     0
 90
        0
 40
0.6
 41
30.0
 62
     5
 63
     7
 74
     1
 91
        4
 64
     7
 65
   257
 75
     7
175
     7
 42
1.0
 92
        8
 66
     7
 43
1.0
 76
     1
 77
     6
 78
     2
 67
     7
 79
     5
170
     0
171
     0
290
     0
174
     0
 93
        1
 44
0.0
173
     0
291
     1
 45
0.0
1001
ACAD
1000
AcDbSavedByObjectVersion
1070
     0
  0
VISUALSTYLE
  5
3C
102
{ACAD_REACTORS
330
2A
102
}
102
{ACAD_XDICTIONARY
360
380
102
}
330
2A
100
AcDbVisualStyle
  2
OverhangOff
 70
    21
 71
     2
 72
     2
 73
     0
 90
        0
 40
0.6
 41
30.0
 62
     5
 63
     7
 74
     1
 91
        4
 64
     7
 65
   257
 75
     1
175
     1
 42
1.0
 92
        9
 66
     7
 43
1.0
 76
     1
 77
     6
 78
     2
 67
     7
 79
     5
170
     0
171
     0
290
     0
174
     0
 93
        1
 44
0.0
173
     0
291
     1
 45
0.0
1001
ACAD
1000
AcDbSavedByObjectVersion
1070
     0
  0
VISUALSTYLE
  5
33
102
{ACAD_REACTORS
330
2A
102
}
102
{ACAD_XDICTIONARY
360
36E
102
}
330
2A
100
AcDbVisualStyle
  2
Realistic
 70
     8
 71
     2
 72
     3
 73
     0
 90
        2
 40
0.6
 41
30.0
 62
     5
 63
     7
 74
     0
 91
        0
 64
     7
 65
   257
 75
     1
175
     1
 42
1.0
 92
        8
 66
   257
 43
1.0
 76
     1
 77
     6
 78
     2
 67
     7
 79
     3
170
     0
171
     0
290
     0
174
     0
 93
       13
 44
0.0
173
     0
291
     0
 45
0.0
1001
ACAD
1000
AcDbSavedByObjectVersion
1070
     0
  0
VISUALSTYLE
  5
42
102
{ACAD_REACTORS
330
2A
102
}
102
{ACAD_XDICTIONARY
360
38C
102
}
330
2A
100
AcDbVisualStyle
  2
Shaded
 70
    27
 71
     2
 72
     2
 73
     1
 90
        2
 40
0.6
 41
30.0
 62
     5
 63
     7
 74
     0
 91
        4
 64
     7
 65
   257
 75
     1
175
     1
 42
1.0
 92
        8
 66
   257
 43
1.0
 76
     1
 77
     6
 78
     2
 67
     8
 79
     3
170
     0
171
     0
290
     0
174
     0
 93
        5
 44
0.0
173
     0
291
     0
 45
0.0
1001
ACAD
1000
AcDbSavedByObjectVersion
1070
     0
  0
VISUALSTYLE
  5
41
102
{ACAD_REACTORS
330
2A
102
}
102
{ACAD_XDICTIONARY
360
38A
102
}
330
2A
100
AcDbVisualStyle
  2
Shaded with edges
 70
    26
 71
     2
 72
     2
 73
     1
 90
        2
 40
0.6
 41
30.0
 62
     5
 63
     7
 74
     1
 91
       10
 64
     7
 65
   257
 75
     2
175
     1
 42
1.0
 92
        8
 66
   257
 43
1.0
 76
     1
 77
     6
 78
     2
 67
     7
 79
     3
170
     0
171
     0
290
     0
174
     0
 93
        5
 44
0.0
173
     0
291
     0
 45
0.0
1001
ACAD
1000
AcDbSavedByObjectVersion
1070
     0
  0
VISUALSTYLE
  5
3E
102
{ACAD_REACTORS
330
2A
102
}
102
{ACAD_XDICTIONARY
360
384
102
}
330
2A
100
AcDbVisualStyle
  2
Shades of Gray
 70
    23
 71
     2
 72
     2
 73
     3
 90
        0
 40
0.6
 41
30.0
 62
     5
 63
     7
 74
     2
 91
        2
 64
     7
 65
     7
 75
     1
175
     1
 42
40.0
 92
        8
 66
     7
 43
1.0
 76
     1
 77
     6
 78
     2
 67
     7
 79
     3
170
     0
171
     0
290
     0
174
     0
 93
        1
 44
0.0
173
     0
291
     0
 45
0.0
1001
ACAD
1000
AcDbSavedByObjectVersion
1070
     0
  0
VISUALSTYLE
  5
3F
102
{ACAD_REACTORS
330
2A
102
}
102
{ACAD_XDICTIONARY
360
386
102
}
330
2A
100
AcDbVisualStyle
  2
Sketchy
 70
    24
 71
     1
 72
     2
 73
     2
 90
        0
 40
0.6
 41
30.0
 62
     5
 63
     7
 74
     2
 91
        2
 64
     7
 65
     7
 75
     1
175
     1
 42
40.0
 92
       11
 66
     7
 43
1.0
 76
     1
 77
     6
 78
     2
 67
     7
 79
     6
170
     0
171
     0
290
     0
174
     0
 93
        1
 44
0.0
173
     0
291
     0
 45
0.0
1001
ACAD
1000
AcDbSavedByObjectVersion
1070
     0
  0
VISUALSTYLE
  5
37
102
{ACAD_REACTORS
330
2A
102
}
102
{ACAD_XDICTIONARY
360
376
102
}
330
2A
100
AcDbVisualStyle
  2
Thicken
 70
    13
 71
     2
 72
     2
 73
     0
 90
        0
 40
0.6
 41
30.0
 62
     5
 63
     7
 74
     1
 91
        4
 64
     7
 65
   257
 75
     1
175
     1
 42
1.0
 92
       12
 66
     7
 43
1.0
 76
     1
 77
     6
 78
     2
 67
     7
 79
     5
170
     0
171
     0
290
     0
174
     0
 93
        1
 44
0.0
173
     0
291
     1
 45
0.0
1001
ACAD
1000
AcDbSavedByObjectVersion
1070
     0
  0
VISUALSTYLE
  5
30
102
{ACAD_REACTORS
330
2A
102
}
102
{ACAD_XDICTIONARY
360
368
102
}
330
2A
100
AcDbVisualStyle
  2
Wireframe
 70
     5
 71
     0
 72
     2
 73
     0
 90
        0
 40
0.6
 41
30.0
 62
     5
 63
     7
 74
     1
 91
        4
 64
     7
 65
   257
 75
     1
175
     1
 42
1.0
 92
        0
 66
   257
 43
1.0
 76
     1
 77
     6
 78
     2
 67
     7
 79
     3
170
     0
171
     0
290
     0
174
     0
 93
        1
 44
0.0
173
     0
291
     0
 45
0.0
1001
ACAD
1000
AcDbSavedByObjectVersion
1070
     0
  0
VISUALSTYLE
  5
40
102
{ACAD_REACTORS
330
2A
102
}
102
{ACAD_XDICTIONARY
360
388
102
}
330
2A
100
AcDbVisualStyle
  2
X-Ray
 70
    25
 71
     2
 72
     2
 73
     1
 90
        1
 40
0.5
 41
30.0
 62
     5
 63
     7
 74
     1
 91
        0
 64
     7
 65
   257
 75
     1
175
     1
 42
1.0
 92
        8
 66
     7
 43
1.0
 76
     1
 77
     6
 78
     2
 67
     7
 79
     3
170
     0
171
     0
290
     0
174
     0
 93
       13
 44
0.0
173
     0
291
     0
 45
0.0
1001
ACAD
1000
AcDbSavedByObjectVersion
1070
     0
  0
DICTIONARYVAR
  5
35C
102
{ACAD_REACTORS
330
355
102
}
330
355
100
DictionaryVariables
280
     0
  1
1:1
  0
DICTIONARYVAR
  5
35A
102
{ACAD_REACTORS
330
355
102
}
330
355
100
DictionaryVariables
280
     0
  1
2
  0
DICTIONARYVAR
  5
35B
102
{ACAD_REACTORS
330
355
102
}
330
355
100
DictionaryVariables
280
     0
  1
1
  0
DICTIONARYVAR
  5
35D
102
{ACAD_REACTORS
330
355
102
}
330
355
100
DictionaryVariables
280
     0
  1
1
  0
DICTIONARY
  5
390
330
45
100
AcDbDictionary
280
     1
281
     1
  3
ACAD_XREC_ROUNDTRIP
360
391
  0
DICTIONARY
  5
38E
330
44
100
AcDbDictionary
280
     1
281
     1
  3
ACAD_XREC_ROUNDTRIP
360
38F
  0
DICTIONARY
  5
392
330
46
100
AcDbDictionary
280
     1
281
     1
  3
ACAD_XREC_ROUNDTRIP
360
393
  0
DICTIONARY
  5
366
330
2F
100
AcDbDictionary
280
     1
281
     1
  3
ACAD_XREC_ROUNDTRIP
360
367
  0
DICTIONARY
  5
36C
330
32
100
AcDbDictionary
280
     1
281
     1
  3
ACAD_XREC_ROUNDTRIP
360
36D
  0
DICTIONARY
  5
374
330
36
100
AcDbDictionary
280
     1
281
     1
  3
ACAD_XREC_ROUNDTRIP
360
375
  0
DICTIONARY
  5
37C
330
3A
100
AcDbDictionary
280
     1
281
     1
  3
ACAD_XREC_ROUNDTRIP
360
37D
  0
DICTIONARY
  5
370
330
34
100
AcDbDictionary
280
     1
281
     1
  3
ACAD_XREC_ROUNDTRIP
360
371
  0
DICTIONARY
  5
372
330
35
100
AcDbDictionary
280
     1
281
     1
  3
ACAD_XREC_ROUNDTRIP
360
373
  0
DICTIONARY
  5
382
330
3D
100
AcDbDictionary
280
     1
281
     1
  3
ACAD_XREC_ROUNDTRIP
360
383
  0
DICTIONARY
  5
37A
330
39
100
AcDbDictionary
280
     1
281
     1
  3
ACAD_XREC_ROUNDTRIP
360
37B
  0
DICTIONARY
  5
35E
330
2B
100
AcDbDictionary
280
     1
281
     1
  3
ACAD_XREC_ROUNDTRIP
360
35F
  0
DICTIONARY
  5
360
330
2C
100
AcDbDictionary
280
     1
281
     1
  3
ACAD_XREC_ROUNDTRIP
360
361
  0
DICTIONARY
  5
362
330
2D
100
AcDbDictionary
280
     1
281
     1
  3
ACAD_XREC_ROUNDTRIP
360
363
  0
DICTIONARY
  5
364
330
2E
100
AcDbDictionary
280
     1
281
     1
  3
ACAD_XREC_ROUNDTRIP
360
365
  0
DICTIONARY
  5
36A
330
31
100
AcDbDictionary
280
     1
281
     1
  3
ACAD_XREC_ROUNDTRIP
360
36B
  0
DICTIONARY
  5
37E
330
3B
100
AcDbDictionary
280
     1
281
     1
  3
ACAD_XREC_ROUNDTRIP
360
37F
  0
DICTIONARY
  5
378
330
38
100
AcDbDictionary
280
     1
281
     1
  3
ACAD_XREC_ROUNDTRIP
360
379
  0
DICTIONARY
  5
380
330
3C
100
AcDbDictionary
280
     1
281
     1
  3
ACAD_XREC_ROUNDTRIP
360
381
  0
DICTIONARY
  5
36E
330
33
100
AcDbDictionary
280
     1
281
     1
  3
ACAD_XREC_ROUNDTRIP
360
36F
  0
DICTIONARY
  5
38C
330
42
100
AcDbDictionary
280
     1
281
     1
  3
ACAD_XREC_ROUNDTRIP
360
38D
  0
DICTIONARY
  5
38A
330
41
100
AcDbDictionary
280
     1
281
     1
  3
ACAD_XREC_ROUNDTRIP
360
38B
  0
DICTIONARY
  5
384
330
3E
100
AcDbDictionary
280
     1
281
     1
  3
ACAD_XREC_ROUNDTRIP
360
385
  0
DICTIONARY
  5
386
330
3F
100
AcDbDictionary
280
     1
281
     1
  3
ACAD_XREC_ROUNDTRIP
360
387
  0
DICTIONARY
  5
376
330
37
100
AcDbDictionary
280
     1
281
     1
  3
ACAD_XREC_ROUNDTRIP
360
377
  0
DICTIONARY
  5
368
330
30
100
AcDbDictionary
280
     1
281
     1
  3
ACAD_XREC_ROUNDTRIP
360
369
  0
DICTIONARY
  5
388
330
40
100
AcDbDictionary
280
     1
281
     1
  3
ACAD_XREC_ROUNDTRIP
360
389
  0
XRECORD
  5
391
102
{ACAD_REACTORS
330
390
102
}
330
390
100
AcDbXrecord
280
     1
102
MATERIAL
148
0.0
149
0.0
149
0.0
 93
        0
 94
      127
282
     0
 72
     1
 77
     1
171
     1
175
     1
179
     1
273
     0
  0
XRECORD
  5
38F
102
{ACAD_REACTORS
330
38E
102
}
330
38E
100
AcDbXrecord
280
     1
102
MATERIAL
148
0.0
149
0.0
149
0.0
 93
        0
 94
      127
282
     0
 72
     1
 77
     1
171
     1
175
     1
179
     1
273
     0
  0
XRECORD
  5
393
102
{ACAD_REACTORS
330
392
102
}
330
392
100
AcDbXrecord
280
     1
102
MATERIAL
148
0.0
149
0.0
149
0.0
 93
        0
 94
      127
282
     0
 72
     1
 77
     1
171
     1
175
     1
179
     1
273
     0
  0
XRECORD
  5
367
102
{ACAD_REACTORS
330
366
102
}
330
366
100
AcDbXrecord
280
     1
102
RTVSPropertyOp0
 70
     1
102
RTVSPropertyOp1
 70
     1
102
RTVSPropertyOp2
 70
     1
102
RTVSPropertyOp3
 70
     1
102
RTVSPropertyOp4
 70
     1
102
RTVSPropertyOp5
 70
     1
102
RTVSPropertyOp6
 70
     1
102
RTVSPropertyOp7
 70
     1
102
RTVSPropertyOp8
 70
     1
102
RTVSPropertyOp9
 70
     1
102
RTVSPropertyOp10
 70
     1
102
RTVSPropertyOp11
 70
     1
102
RTVSPropertyOp12
 70
     1
102
RTVSPropertyOp13
 70
     1
102
RTVSPropertyOp14
 70
     1
102
RTVSPropertyOp15
 70
     1
102
RTVSPropertyOp16
 70
     1
102
RTVSPropertyOp17
 70
     1
102
RTVSPropertyOp18
 70
     1
102
RTVSPropertyOp19
 70
     1
102
RTVSPropertyOp20
 70
     1
102
RTVSPropertyOp21
 70
     1
102
RTVSPropertyOp22
 70
     1
102
RTVSPropertyOp23
 70
     1
102
RTVSPropertyOp24
 70
     1
102
RTVSPropertyOp25
 70
     1
102
RTVSPropertyOp26
 70
     1
102
RTVSPropertyOp27
 70
     1
102
RTVSPropertyOp28
 70
     1
102
RTVSPropertyOp29
 70
     1
102
RTVSPropertyOp30
 70
     1
102
RTVSPropertyOp31
 70
     1
102
RTVSPropertyOp32
 70
     1
102
RTVSPropertyOp33
 70
     1
102
RTVSPropertyOp34
 70
     1
102
RTVSPropertyOp35
 70
     1
102
RTVSPropertyOp36
 70
     1
102
RTVSPropertyOp37
 70
     1
102
RTVSPropertyOp38
 70
     1
102
RTVSPropertyOp39
 70
     1
102
RTVSPropertyOp40
 70
     1
102
RTVSPropertyOp41
 70
     1
102
RTVSPropertyOp42
 70
     1
102
RTVSPropertyOp43
 70
     1
102
RTVSPropertyOp44
 70
     1
102
RTVSPropertyOp45
 70
     1
102
RTVSPropertyOp46
 70
     1
102
RTVSPropertyOp47
 70
     1
102
RTVSPropertyOp48
 70
     1
102
RTVSPropertyOp49
 70
     1
102
RTVSPropertyOp50
 70
     1
102
RTVSPropertyOp51
 70
     0
102
RTVSPropertyOp52
 70
     0
102
RTVSPropertyOp53
 70
     1
102
RTVSPropertyOp54
 70
     1
102
RTVSPropertyOp55
 70
     1
102
RTVSPropertyOp56
 70
     1
102
RTVSPropertyOp57
 70
     1
102
RTVSPost2010Prop28
280
     1
102
RTVSPost2010PropOp28
 70
     1
102
RTVSPost2010Prop29
280
     1
102
RTVSPost2010PropOp29
 70
     1
102
RTVSPost2010Prop30
280
     0
102
RTVSPost2010PropOp30
 70
     1
102
RTVSPost2010Prop31
280
     0
102
RTVSPost2010PropOp31
 70
     1
102
RTVSPost2010Prop32
280
     0
102
RTVSPost2010PropOp32
 70
     1
102
RTVSPost2010Prop33
280
     0
102
RTVSPost2010PropOp33
 70
     1
102
RTVSPost2010Prop34
280
     0
102
RTVSPost2010PropOp34
 70
     1
102
RTVSPost2010Prop35
280
     0
102
RTVSPost2010PropOp35
 70
     1
102
RTVSPost2010Prop36
280
     0
102
RTVSPost2010PropOp36
 70
     1
102
RTVSPost2010Prop37
 90
       50
102
RTVSPost2010PropOp37
 70
     1
102
RTVSPost2010Prop38
140
0.0
102
RTVSPost2010PropOp38
 70
     1
102
RTVSPost2010Prop39
140
1.0
102
RTVSPost2010PropOp39
 70
     1
102
RTVSPost2010Prop40
 90
        0
102
RTVSPost2010PropOp40
 70
     1
102
RTVSPost2010Prop41ColorIndex
 90
       18
102
RTVSPost2010Prop41ColorRGB
 90
        0
102
RTVSPost2010PropOp41
 70
     1
102
RTVSPost2010Prop42
 90
       50
102
RTVSPost2010PropOp42
 70
     1
102
RTVSPost2010Prop43
 90
        3
102
RTVSPost2010PropOp43
 70
     1
102
RTVSPost2010Prop44ColorIndex
 90
        5
102
RTVSPost2010Prop44ColorRGB
 90
      255
102
RTVSPost2010PropOp44
 70
     1
102
RTVSPost2010Prop45
280
     0
102
RTVSPost2010PropOp45
 70
     1
102
RTVSPost2010Prop46
 90
       50
102
RTVSPost2010PropOp46
 70
     1
102
RTVSPost2010Prop47
 90
       50
102
RTVSPost2010PropOp47
 70
     1
102
RTVSPost2010Prop48
 90
       50
102
RTVSPost2010PropOp48
 70
     1
102
RTVSPost2010Prop49
280
     0
102
RTVSPost2010PropOp49
 70
     1
102
RTVSPost2010Prop50
 90
       50
102
RTVSPost2010PropOp50
 70
     1
102
RTVSPost2010Prop51ColorIndex
 90
      256
102
RTVSPost2010Prop51ColorRGB
 90
-16777216
102
RTVSPost2010PropOp51
 70
     0
102
RTVSPost2010Prop52
140
1.0
102
RTVSPost2010PropOp52
 70
     0
102
RTVSPost2010Prop53
 90
        2
102
RTVSPost2010PropOp53
 70
     1
102
RTVSPost2010Prop54
  1
strokes_ogs.tif
102
RTVSPost2010PropOp54
 70
     1
102
RTVSPost2010Prop55
280
     0
102
RTVSPost2010PropOp55
 70
     1
102
RTVSPost2010Prop56
140
1.0
102
RTVSPost2010PropOp56
 70
     1
102
RTVSPost2010Prop57
140
1.0
102
RTVSPost2010PropOp57
 70
     1
  0
XRECORD
  5
36D
102
{ACAD_REACTORS
330
36C
102
}
330
36C
100
AcDbXrecord
280
     1
102
RTVSPropertyOp0
 70
     1
102
RTVSPropertyOp1
 70
     1
102
RTVSPropertyOp2
 70
     1
102
RTVSPropertyOp3
 70
     1
102
RTVSPropertyOp4
 70
     1
102
RTVSPropertyOp5
 70
     1
102
RTVSPropertyOp6
 70
     1
102
RTVSPropertyOp7
 70
     1
102
RTVSPropertyOp8
 70
     1
102
RTVSPropertyOp9
 70
     1
102
RTVSPropertyOp10
 70
     1
102
RTVSPropertyOp11
 70
     1
102
RTVSPropertyOp12
 70
     1
102
RTVSPropertyOp13
 70
     1
102
RTVSPropertyOp14
 70
     1
102
RTVSPropertyOp15
 70
     1
102
RTVSPropertyOp16
 70
     1
102
RTVSPropertyOp17
 70
     1
102
RTVSPropertyOp18
 70
     1
102
RTVSPropertyOp19
 70
     1
102
RTVSPropertyOp20
 70
     1
102
RTVSPropertyOp21
 70
     1
102
RTVSPropertyOp22
 70
     1
102
RTVSPropertyOp23
 70
     1
102
RTVSPropertyOp24
 70
     1
102
RTVSPropertyOp25
 70
     1
102
RTVSPropertyOp26
 70
     1
102
RTVSPropertyOp27
 70
     1
102
RTVSPropertyOp28
 70
     1
102
RTVSPropertyOp29
 70
     1
102
RTVSPropertyOp30
 70
     1
102
RTVSPropertyOp31
 70
     1
102
RTVSPropertyOp32
 70
     1
102
RTVSPropertyOp33
 70
     1
102
RTVSPropertyOp34
 70
     1
102
RTVSPropertyOp35
 70
     1
102
RTVSPropertyOp36
 70
     1
102
RTVSPropertyOp37
 70
     1
102
RTVSPropertyOp38
 70
     1
102
RTVSPropertyOp39
 70
     1
102
RTVSPropertyOp40
 70
     1
102
RTVSPropertyOp41
 70
     1
102
RTVSPropertyOp42
 70
     1
102
RTVSPropertyOp43
 70
     1
102
RTVSPropertyOp44
 70
     1
102
RTVSPropertyOp45
 70
     1
102
RTVSPropertyOp46
 70
     1
102
RTVSPropertyOp47
 70
     1
102
RTVSPropertyOp48
 70
     1
102
RTVSPropertyOp49
 70
     1
102
RTVSPropertyOp50
 70
     1
102
RTVSPropertyOp51
 70
     0
102
RTVSPropertyOp52
 70
     0
102
RTVSPropertyOp53
 70
     1
102
RTVSPropertyOp54
 70
     1
102
RTVSPropertyOp55
 70
     1
102
RTVSPropertyOp56
 70
     1
102
RTVSPropertyOp57
 70
     1
102
RTVSPost2010Prop28
280
     0
102
RTVSPost2010PropOp28
 70
     1
102
RTVSPost2010Prop29
280
     1
102
RTVSPost2010PropOp29
 70
     1
102
RTVSPost2010Prop30
280
     1
102
RTVSPost2010PropOp30
 70
     1
102
RTVSPost2010Prop31
280
     0
102
RTVSPost2010PropOp31
 70
     1
102
RTVSPost2010Prop32
280
     0
102
RTVSPost2010PropOp32
 70
     1
102
RTVSPost2010Prop33
280
     0
102
RTVSPost2010PropOp33
 70
     1
102
RTVSPost2010Prop34
280
     0
102
RTVSPost2010PropOp34
 70
     1
102
RTVSPost2010Prop35
280
     0
102
RTVSPost2010PropOp35
 70
     1
102
RTVSPost2010Prop36
280
     0
102
RTVSPost2010PropOp36
 70
     1
102
RTVSPost2010Prop37
 90
       50
102
RTVSPost2010PropOp37
 70
     1
102
RTVSPost2010Prop38
140
0.0
102
RTVSPost2010PropOp38
 70
     1
102
RTVSPost2010Prop39
140
1.0
102
RTVSPost2010PropOp39
 70
     1
102
RTVSPost2010Prop40
 90
        0
102
RTVSPost2010PropOp40
 70
     1
102
RTVSPost2010Prop41ColorIndex
 90
       18
102
RTVSPost2010Prop41ColorRGB
 90
        0
102
RTVSPost2010PropOp41
 70
     1
102
RTVSPost2010Prop42
 90
       50
102
RTVSPost2010PropOp42
 70
     1
102
RTVSPost2010Prop43
 90
        3
102
RTVSPost2010PropOp43
 70
     1
102
RTVSPost2010Prop44ColorIndex
 90
        5
102
RTVSPost2010Prop44ColorRGB
 90
      255
102
RTVSPost2010PropOp44
 70
     1
102
RTVSPost2010Prop45
280
     0
102
RTVSPost2010PropOp45
 70
     1
102
RTVSPost2010Prop46
 90
       50
102
RTVSPost2010PropOp46
 70
     1
102
RTVSPost2010Prop47
 90
       50
102
RTVSPost2010PropOp47
 70
     1
102
RTVSPost2010Prop48
 90
       50
102
RTVSPost2010PropOp48
 70
     1
102
RTVSPost2010Prop49
280
     0
102
RTVSPost2010PropOp49
 70
     1
102
RTVSPost2010Prop50
 90
       50
102
RTVSPost2010PropOp50
 70
     1
102
RTVSPost2010Prop51ColorIndex
 90
      256
102
RTVSPost2010Prop51ColorRGB
 90
-16777216
102
RTVSPost2010PropOp51
 70
     0
102
RTVSPost2010Prop52
140
1.0
102
RTVSPost2010PropOp52
 70
     0
102
RTVSPost2010Prop53
 90
        2
102
RTVSPost2010PropOp53
 70
     1
102
RTVSPost2010Prop54
  1
strokes_ogs.tif
102
RTVSPost2010PropOp54
 70
     1
102
RTVSPost2010Prop55
280
     0
102
RTVSPost2010PropOp55
 70
     1
102
RTVSPost2010Prop56
140
1.0
102
RTVSPost2010PropOp56
 70
     1
102
RTVSPost2010Prop57
140
1.0
102
RTVSPost2010PropOp57
 70
     1
  0
XRECORD
  5
375
102
{ACAD_REACTORS
330
374
102
}
330
374
100
AcDbXrecord
280
     1
102
RTVSPropertyOp0
 70
     1
102
RTVSPropertyOp1
 70
     1
102
RTVSPropertyOp2
 70
     1
102
RTVSPropertyOp3
 70
     1
102
RTVSPropertyOp4
 70
     1
102
RTVSPropertyOp5
 70
     1
102
RTVSPropertyOp6
 70
     1
102
RTVSPropertyOp7
 70
     1
102
RTVSPropertyOp8
 70
     1
102
RTVSPropertyOp9
 70
     1
102
RTVSPropertyOp10
 70
     1
102
RTVSPropertyOp11
 70
     1
102
RTVSPropertyOp12
 70
     1
102
RTVSPropertyOp13
 70
     1
102
RTVSPropertyOp14
 70
     1
102
RTVSPropertyOp15
 70
     1
102
RTVSPropertyOp16
 70
     1
102
RTVSPropertyOp17
 70
     1
102
RTVSPropertyOp18
 70
     1
102
RTVSPropertyOp19
 70
     1
102
RTVSPropertyOp20
 70
     1
102
RTVSPropertyOp21
 70
     1
102
RTVSPropertyOp22
 70
     1
102
RTVSPropertyOp23
 70
     1
102
RTVSPropertyOp24
 70
     1
102
RTVSPropertyOp25
 70
     1
102
RTVSPropertyOp26
 70
     1
102
RTVSPropertyOp27
 70
     1
102
RTVSPropertyOp28
 70
     1
102
RTVSPropertyOp29
 70
     1
102
RTVSPropertyOp30
 70
     1
102
RTVSPropertyOp31
 70
     1
102
RTVSPropertyOp32
 70
     1
102
RTVSPropertyOp33
 70
     1
102
RTVSPropertyOp34
 70
     1
102
RTVSPropertyOp35
 70
     1
102
RTVSPropertyOp36
 70
     1
102
RTVSPropertyOp37
 70
     1
102
RTVSPropertyOp38
 70
     1
102
RTVSPropertyOp39
 70
     1
102
RTVSPropertyOp40
 70
     1
102
RTVSPropertyOp41
 70
     1
102
RTVSPropertyOp42
 70
     1
102
RTVSPropertyOp43
 70
     1
102
RTVSPropertyOp44
 70
     1
102
RTVSPropertyOp45
 70
     1
102
RTVSPropertyOp46
 70
     1
102
RTVSPropertyOp47
 70
     1
102
RTVSPropertyOp48
 70
     1
102
RTVSPropertyOp49
 70
     1
102
RTVSPropertyOp50
 70
     1
102
RTVSPropertyOp51
 70
     0
102
RTVSPropertyOp52
 70
     0
102
RTVSPropertyOp53
 70
     1
102
RTVSPropertyOp54
 70
     1
102
RTVSPropertyOp55
 70
     1
102
RTVSPropertyOp56
 70
     1
102
RTVSPropertyOp57
 70
     1
102
RTVSPost2010Prop28
280
     0
102
RTVSPost2010PropOp28
 70
     1
102
RTVSPost2010Prop29
280
     1
102
RTVSPost2010PropOp29
 70
     1
102
RTVSPost2010Prop30
280
     1
102
RTVSPost2010PropOp30
 70
     1
102
RTVSPost2010Prop31
280
     0
102
RTVSPost2010PropOp31
 70
     1
102
RTVSPost2010Prop32
280
     0
102
RTVSPost2010PropOp32
 70
     1
102
RTVSPost2010Prop33
280
     0
102
RTVSPost2010PropOp33
 70
     1
102
RTVSPost2010Prop34
280
     0
102
RTVSPost2010PropOp34
 70
     1
102
RTVSPost2010Prop35
280
     0
102
RTVSPost2010PropOp35
 70
     1
102
RTVSPost2010Prop36
280
     0
102
RTVSPost2010PropOp36
 70
     1
102
RTVSPost2010Prop37
 90
       50
102
RTVSPost2010PropOp37
 70
     1
102
RTVSPost2010Prop38
140
0.0
102
RTVSPost2010PropOp38
 70
     1
102
RTVSPost2010Prop39
140
1.0
102
RTVSPost2010PropOp39
 70
     1
102
RTVSPost2010Prop40
 90
        0
102
RTVSPost2010PropOp40
 70
     1
102
RTVSPost2010Prop41ColorIndex
 90
       18
102
RTVSPost2010Prop41ColorRGB
 90
        0
102
RTVSPost2010PropOp41
 70
     1
102
RTVSPost2010Prop42
 90
       50
102
RTVSPost2010PropOp42
 70
     1
102
RTVSPost2010Prop43
 90
        3
102
RTVSPost2010PropOp43
 70
     1
102
RTVSPost2010Prop44ColorIndex
 90
        5
102
RTVSPost2010Prop44ColorRGB
 90
      255
102
RTVSPost2010PropOp44
 70
     1
102
RTVSPost2010Prop45
280
     0
102
RTVSPost2010PropOp45
 70
     1
102
RTVSPost2010Prop46
 90
       50
102
RTVSPost2010PropOp46
 70
     1
102
RTVSPost2010Prop47
 90
       50
102
RTVSPost2010PropOp47
 70
     1
102
RTVSPost2010Prop48
 90
       50
102
RTVSPost2010PropOp48
 70
     1
102
RTVSPost2010Prop49
280
     0
102
RTVSPost2010PropOp49
 70
     1
102
RTVSPost2010Prop50
 90
       50
102
RTVSPost2010PropOp50
 70
     1
102
RTVSPost2010Prop51ColorIndex
 90
      256
102
RTVSPost2010Prop51ColorRGB
 90
-16777216
102
RTVSPost2010PropOp51
 70
     0
102
RTVSPost2010Prop52
140
1.0
102
RTVSPost2010PropOp52
 70
     0
102
RTVSPost2010Prop53
 90
        2
102
RTVSPost2010PropOp53
 70
     1
102
RTVSPost2010Prop54
  1
strokes_ogs.tif
102
RTVSPost2010PropOp54
 70
     1
102
RTVSPost2010Prop55
280
     0
102
RTVSPost2010PropOp55
 70
     1
102
RTVSPost2010Prop56
140
1.0
102
RTVSPost2010PropOp56
 70
     1
102
RTVSPost2010Prop57
140
1.0
102
RTVSPost2010PropOp57
 70
     1
  0
XRECORD
  5
37D
102
{ACAD_REACTORS
330
37C
102
}
330
37C
100
AcDbXrecord
280
     1
102
RTVSPropertyOp0
 70
     1
102
RTVSPropertyOp1
 70
     1
102
RTVSPropertyOp2
 70
     1
102
RTVSPropertyOp3
 70
     1
102
RTVSPropertyOp4
 70
     1
102
RTVSPropertyOp5
 70
     1
102
RTVSPropertyOp6
 70
     1
102
RTVSPropertyOp7
 70
     1
102
RTVSPropertyOp8
 70
     1
102
RTVSPropertyOp9
 70
     1
102
RTVSPropertyOp10
 70
     1
102
RTVSPropertyOp11
 70
     1
102
RTVSPropertyOp12
 70
     1
102
RTVSPropertyOp13
 70
     1
102
RTVSPropertyOp14
 70
     1
102
RTVSPropertyOp15
 70
     1
102
RTVSPropertyOp16
 70
     1
102
RTVSPropertyOp17
 70
     1
102
RTVSPropertyOp18
 70
     1
102
RTVSPropertyOp19
 70
     1
102
RTVSPropertyOp20
 70
     1
102
RTVSPropertyOp21
 70
     1
102
RTVSPropertyOp22
 70
     1
102
RTVSPropertyOp23
 70
     1
102
RTVSPropertyOp24
 70
     1
102
RTVSPropertyOp25
 70
     1
102
RTVSPropertyOp26
 70
     1
102
RTVSPropertyOp27
 70
     1
102
RTVSPropertyOp28
 70
     1
102
RTVSPropertyOp29
 70
     1
102
RTVSPropertyOp30
 70
     1
102
RTVSPropertyOp31
 70
     1
102
RTVSPropertyOp32
 70
     1
102
RTVSPropertyOp33
 70
     1
102
RTVSPropertyOp34
 70
     1
102
RTVSPropertyOp35
 70
     1
102
RTVSPropertyOp36
 70
     1
102
RTVSPropertyOp37
 70
     1
102
RTVSPropertyOp38
 70
     1
102
RTVSPropertyOp39
 70
     1
102
RTVSPropertyOp40
 70
     1
102
RTVSPropertyOp41
 70
     1
102
RTVSPropertyOp42
 70
     1
102
RTVSPropertyOp43
 70
     1
102
RTVSPropertyOp44
 70
     1
102
RTVSPropertyOp45
 70
     1
102
RTVSPropertyOp46
 70
     1
102
RTVSPropertyOp47
 70
     1
102
RTVSPropertyOp48
 70
     1
102
RTVSPropertyOp49
 70
     1
102
RTVSPropertyOp50
 70
     1
102
RTVSPropertyOp51
 70
     0
102
RTVSPropertyOp52
 70
     0
102
RTVSPropertyOp53
 70
     1
102
RTVSPropertyOp54
 70
     1
102
RTVSPropertyOp55
 70
     1
102
RTVSPropertyOp56
 70
     1
102
RTVSPropertyOp57
 70
     1
102
RTVSPost2010Prop28
280
     0
102
RTVSPost2010PropOp28
 70
     1
102
RTVSPost2010Prop29
280
     1
102
RTVSPost2010PropOp29
 70
     1
102
RTVSPost2010Prop30
280
     1
102
RTVSPost2010PropOp30
 70
     1
102
RTVSPost2010Prop31
280
     0
102
RTVSPost2010PropOp31
 70
     1
102
RTVSPost2010Prop32
280
     0
102
RTVSPost2010PropOp32
 70
     1
102
RTVSPost2010Prop33
280
     0
102
RTVSPost2010PropOp33
 70
     1
102
RTVSPost2010Prop34
280
     0
102
RTVSPost2010PropOp34
 70
     1
102
RTVSPost2010Prop35
280
     0
102
RTVSPost2010PropOp35
 70
     1
102
RTVSPost2010Prop36
280
     0
102
RTVSPost2010PropOp36
 70
     1
102
RTVSPost2010Prop37
 90
       50
102
RTVSPost2010PropOp37
 70
     1
102
RTVSPost2010Prop38
140
0.0
102
RTVSPost2010PropOp38
 70
     1
102
RTVSPost2010Prop39
140
1.0
102
RTVSPost2010PropOp39
 70
     1
102
RTVSPost2010Prop40
 90
        0
102
RTVSPost2010PropOp40
 70
     1
102
RTVSPost2010Prop41ColorIndex
 90
       18
102
RTVSPost2010Prop41ColorRGB
 90
        0
102
RTVSPost2010PropOp41
 70
     1
102
RTVSPost2010Prop42
 90
       50
102
RTVSPost2010PropOp42
 70
     1
102
RTVSPost2010Prop43
 90
        3
102
RTVSPost2010PropOp43
 70
     1
102
RTVSPost2010Prop44ColorIndex
 90
        5
102
RTVSPost2010Prop44ColorRGB
 90
      255
102
RTVSPost2010PropOp44
 70
     1
102
RTVSPost2010Prop45
280
     0
102
RTVSPost2010PropOp45
 70
     1
102
RTVSPost2010Prop46
 90
       50
102
RTVSPost2010PropOp46
 70
     1
102
RTVSPost2010Prop47
 90
       50
102
RTVSPost2010PropOp47
 70
     1
102
RTVSPost2010Prop48
 90
       50
102
RTVSPost2010PropOp48
 70
     1
102
RTVSPost2010Prop49
280
     0
102
RTVSPost2010PropOp49
 70
     1
102
RTVSPost2010Prop50
 90
       50
102
RTVSPost2010PropOp50
 70
     1
102
RTVSPost2010Prop51ColorIndex
 90
      256
102
RTVSPost2010Prop51ColorRGB
 90
-16777216
102
RTVSPost2010PropOp51
 70
     0
102
RTVSPost2010Prop52
140
1.0
102
RTVSPost2010PropOp52
 70
     0
102
RTVSPost2010Prop53
 90
        2
102
RTVSPost2010PropOp53
 70
     1
102
RTVSPost2010Prop54
  1
strokes_ogs.tif
102
RTVSPost2010PropOp54
 70
     1
102
RTVSPost2010Prop55
280
     0
102
RTVSPost2010PropOp55
 70
     1
102
RTVSPost2010Prop56
140
1.0
102
RTVSPost2010PropOp56
 70
     1
102
RTVSPost2010Prop57
140
1.0
102
RTVSPost2010PropOp57
 70
     1
  0
XRECORD
  5
371
102
{ACAD_REACTORS
330
370
102
}
330
370
100
AcDbXrecord
280
     1
102
RTVSPropertyOp0
 70
     1
102
RTVSPropertyOp1
 70
     1
102
RTVSPropertyOp2
 70
     1
102
RTVSPropertyOp3
 70
     1
102
RTVSPropertyOp4
 70
     1
102
RTVSPropertyOp5
 70
     1
102
RTVSPropertyOp6
 70
     1
102
RTVSPropertyOp7
 70
     1
102
RTVSPropertyOp8
 70
     1
102
RTVSPropertyOp9
 70
     1
102
RTVSPropertyOp10
 70
     1
102
RTVSPropertyOp11
 70
     1
102
RTVSPropertyOp12
 70
     1
102
RTVSPropertyOp13
 70
     1
102
RTVSPropertyOp14
 70
     1
102
RTVSPropertyOp15
 70
     1
102
RTVSPropertyOp16
 70
     1
102
RTVSPropertyOp17
 70
     1
102
RTVSPropertyOp18
 70
     1
102
RTVSPropertyOp19
 70
     1
102
RTVSPropertyOp20
 70
     1
102
RTVSPropertyOp21
 70
     1
102
RTVSPropertyOp22
 70
     1
102
RTVSPropertyOp23
 70
     1
102
RTVSPropertyOp24
 70
     1
102
RTVSPropertyOp25
 70
     1
102
RTVSPropertyOp26
 70
     1
102
RTVSPropertyOp27
 70
     1
102
RTVSPropertyOp28
 70
     1
102
RTVSPropertyOp29
 70
     1
102
RTVSPropertyOp30
 70
     1
102
RTVSPropertyOp31
 70
     1
102
RTVSPropertyOp32
 70
     1
102
RTVSPropertyOp33
 70
     1
102
RTVSPropertyOp34
 70
     1
102
RTVSPropertyOp35
 70
     1
102
RTVSPropertyOp36
 70
     1
102
RTVSPropertyOp37
 70
     1
102
RTVSPropertyOp38
 70
     1
102
RTVSPropertyOp39
 70
     1
102
RTVSPropertyOp40
 70
     1
102
RTVSPropertyOp41
 70
     1
102
RTVSPropertyOp42
 70
     1
102
RTVSPropertyOp43
 70
     1
102
RTVSPropertyOp44
 70
     1
102
RTVSPropertyOp45
 70
     1
102
RTVSPropertyOp46
 70
     1
102
RTVSPropertyOp47
 70
     1
102
RTVSPropertyOp48
 70
     1
102
RTVSPropertyOp49
 70
     1
102
RTVSPropertyOp50
 70
     1
102
RTVSPropertyOp51
 70
     0
102
RTVSPropertyOp52
 70
     0
102
RTVSPropertyOp53
 70
     1
102
RTVSPropertyOp54
 70
     1
102
RTVSPropertyOp55
 70
     1
102
RTVSPropertyOp56
 70
     1
102
RTVSPropertyOp57
 70
     1
102
RTVSPost2010Prop28
280
     0
102
RTVSPost2010PropOp28
 70
     1
102
RTVSPost2010Prop29
280
     1
102
RTVSPost2010PropOp29
 70
     1
102
RTVSPost2010Prop30
280
     1
102
RTVSPost2010PropOp30
 70
     1
102
RTVSPost2010Prop31
280
     0
102
RTVSPost2010PropOp31
 70
     1
102
RTVSPost2010Prop32
280
     0
102
RTVSPost2010PropOp32
 70
     1
102
RTVSPost2010Prop33
280
     0
102
RTVSPost2010PropOp33
 70
     1
102
RTVSPost2010Prop34
280
     0
102
RTVSPost2010PropOp34
 70
     1
102
RTVSPost2010Prop35
280
     0
102
RTVSPost2010PropOp35
 70
     1
102
RTVSPost2010Prop36
280
     0
102
RTVSPost2010PropOp36
 70
     1
102
RTVSPost2010Prop37
 90
       50
102
RTVSPost2010PropOp37
 70
     1
102
RTVSPost2010Prop38
140
0.0
102
RTVSPost2010PropOp38
 70
     1
102
RTVSPost2010Prop39
140
1.0
102
RTVSPost2010PropOp39
 70
     1
102
RTVSPost2010Prop40
 90
        0
102
RTVSPost2010PropOp40
 70
     1
102
RTVSPost2010Prop41ColorIndex
 90
       18
102
RTVSPost2010Prop41ColorRGB
 90
        0
102
RTVSPost2010PropOp41
 70
     1
102
RTVSPost2010Prop42
 90
       50
102
RTVSPost2010PropOp42
 70
     1
102
RTVSPost2010Prop43
 90
        3
102
RTVSPost2010PropOp43
 70
     1
102
RTVSPost2010Prop44ColorIndex
 90
        5
102
RTVSPost2010Prop44ColorRGB
 90
      255
102
RTVSPost2010PropOp44
 70
     1
102
RTVSPost2010Prop45
280
     0
102
RTVSPost2010PropOp45
 70
     1
102
RTVSPost2010Prop46
 90
       50
102
RTVSPost2010PropOp46
 70
     1
102
RTVSPost2010Prop47
 90
       50
102
RTVSPost2010PropOp47
 70
     1
102
RTVSPost2010Prop48
 90
       50
102
RTVSPost2010PropOp48
 70
     1
102
RTVSPost2010Prop49
280
     0
102
RTVSPost2010PropOp49
 70
     1
102
RTVSPost2010Prop50
 90
       50
102
RTVSPost2010PropOp50
 70
     1
102
RTVSPost2010Prop51ColorIndex
 90
      256
102
RTVSPost2010Prop51ColorRGB
 90
-16777216
102
RTVSPost2010PropOp51
 70
     0
102
RTVSPost2010Prop52
140
1.0
102
RTVSPost2010PropOp52
 70
     0
102
RTVSPost2010Prop53
 90
        2
102
RTVSPost2010PropOp53
 70
     1
102
RTVSPost2010Prop54
  1
strokes_ogs.tif
102
RTVSPost2010PropOp54
 70
     1
102
RTVSPost2010Prop55
280
     0
102
RTVSPost2010PropOp55
 70
     1
102
RTVSPost2010Prop56
140
1.0
102
RTVSPost2010PropOp56
 70
     1
102
RTVSPost2010Prop57
140
1.0
102
RTVSPost2010PropOp57
 70
     1
  0
XRECORD
  5
373
102
{ACAD_REACTORS
330
372
102
}
330
372
100
AcDbXrecord
280
     1
102
RTVSPropertyOp0
 70
     1
102
RTVSPropertyOp1
 70
     1
102
RTVSPropertyOp2
 70
     1
102
RTVSPropertyOp3
 70
     1
102
RTVSPropertyOp4
 70
     1
102
RTVSPropertyOp5
 70
     1
102
RTVSPropertyOp6
 70
     1
102
RTVSPropertyOp7
 70
     1
102
RTVSPropertyOp8
 70
     1
102
RTVSPropertyOp9
 70
     1
102
RTVSPropertyOp10
 70
     1
102
RTVSPropertyOp11
 70
     1
102
RTVSPropertyOp12
 70
     1
102
RTVSPropertyOp13
 70
     1
102
RTVSPropertyOp14
 70
     1
102
RTVSPropertyOp15
 70
     1
102
RTVSPropertyOp16
 70
     1
102
RTVSPropertyOp17
 70
     1
102
RTVSPropertyOp18
 70
     1
102
RTVSPropertyOp19
 70
     1
102
RTVSPropertyOp20
 70
     1
102
RTVSPropertyOp21
 70
     1
102
RTVSPropertyOp22
 70
     1
102
RTVSPropertyOp23
 70
     1
102
RTVSPropertyOp24
 70
     1
102
RTVSPropertyOp25
 70
     1
102
RTVSPropertyOp26
 70
     1
102
RTVSPropertyOp27
 70
     1
102
RTVSPropertyOp28
 70
     1
102
RTVSPropertyOp29
 70
     1
102
RTVSPropertyOp30
 70
     1
102
RTVSPropertyOp31
 70
     1
102
RTVSPropertyOp32
 70
     1
102
RTVSPropertyOp33
 70
     1
102
RTVSPropertyOp34
 70
     1
102
RTVSPropertyOp35
 70
     1
102
RTVSPropertyOp36
 70
     1
102
RTVSPropertyOp37
 70
     1
102
RTVSPropertyOp38
 70
     1
102
RTVSPropertyOp39
 70
     1
102
RTVSPropertyOp40
 70
     1
102
RTVSPropertyOp41
 70
     1
102
RTVSPropertyOp42
 70
     1
102
RTVSPropertyOp43
 70
     1
102
RTVSPropertyOp44
 70
     1
102
RTVSPropertyOp45
 70
     1
102
RTVSPropertyOp46
 70
     1
102
RTVSPropertyOp47
 70
     1
102
RTVSPropertyOp48
 70
     1
102
RTVSPropertyOp49
 70
     1
102
RTVSPropertyOp50
 70
     1
102
RTVSPropertyOp51
 70
     0
102
RTVSPropertyOp52
 70
     0
102
RTVSPropertyOp53
 70
     1
102
RTVSPropertyOp54
 70
     1
102
RTVSPropertyOp55
 70
     1
102
RTVSPropertyOp56
 70
     1
102
RTVSPropertyOp57
 70
     1
102
RTVSPost2010Prop28
280
     0
102
RTVSPost2010PropOp28
 70
     1
102
RTVSPost2010Prop29
280
     1
102
RTVSPost2010PropOp29
 70
     1
102
RTVSPost2010Prop30
280
     1
102
RTVSPost2010PropOp30
 70
     1
102
RTVSPost2010Prop31
280
     0
102
RTVSPost2010PropOp31
 70
     1
102
RTVSPost2010Prop32
280
     0
102
RTVSPost2010PropOp32
 70
     1
102
RTVSPost2010Prop33
280
     0
102
RTVSPost2010PropOp33
 70
     1
102
RTVSPost2010Prop34
280
     0
102
RTVSPost2010PropOp34
 70
     1
102
RTVSPost2010Prop35
280
     0
102
RTVSPost2010PropOp35
 70
     1
102
RTVSPost2010Prop36
280
     0
102
RTVSPost2010PropOp36
 70
     1
102
RTVSPost2010Prop37
 90
       50
102
RTVSPost2010PropOp37
 70
     1
102
RTVSPost2010Prop38
140
0.0
102
RTVSPost2010PropOp38
 70
     1
102
RTVSPost2010Prop39
140
1.0
102
RTVSPost2010PropOp39
 70
     1
102
RTVSPost2010Prop40
 90
        0
102
RTVSPost2010PropOp40
 70
     1
102
RTVSPost2010Prop41ColorIndex
 90
       18
102
RTVSPost2010Prop41ColorRGB
 90
        0
102
RTVSPost2010PropOp41
 70
     1
102
RTVSPost2010Prop42
 90
       50
102
RTVSPost2010PropOp42
 70
     1
102
RTVSPost2010Prop43
 90
        3
102
RTVSPost2010PropOp43
 70
     1
102
RTVSPost2010Prop44ColorIndex
 90
        5
102
RTVSPost2010Prop44ColorRGB
 90
      255
102
RTVSPost2010PropOp44
 70
     1
102
RTVSPost2010Prop45
280
     0
102
RTVSPost2010PropOp45
 70
     1
102
RTVSPost2010Prop46
 90
       50
102
RTVSPost2010PropOp46
 70
     1
102
RTVSPost2010Prop47
 90
       50
102
RTVSPost2010PropOp47
 70
     1
102
RTVSPost2010Prop48
 90
       50
102
RTVSPost2010PropOp48
 70
     1
102
RTVSPost2010Prop49
280
     0
102
RTVSPost2010PropOp49
 70
     1
102
RTVSPost2010Prop50
 90
       50
102
RTVSPost2010PropOp50
 70
     1
102
RTVSPost2010Prop51ColorIndex
 90
      256
102
RTVSPost2010Prop51ColorRGB
 90
-16777216
102
RTVSPost2010PropOp51
 70
     0
102
RTVSPost2010Prop52
140
1.0
102
RTVSPost2010PropOp52
 70
     0
102
RTVSPost2010Prop53
 90
        2
102
RTVSPost2010PropOp53
 70
     1
102
RTVSPost2010Prop54
  1
strokes_ogs.tif
102
RTVSPost2010PropOp54
 70
     1
102
RTVSPost2010Prop55
280
     0
102
RTVSPost2010PropOp55
 70
     1
102
RTVSPost2010Prop56
140
1.0
102
RTVSPost2010PropOp56
 70
     1
102
RTVSPost2010Prop57
140
1.0
102
RTVSPost2010PropOp57
 70
     1
  0
XRECORD
  5
383
102
{ACAD_REACTORS
330
382
102
}
330
382
100
AcDbXrecord
280
     1
102
RTVSPropertyOp0
 70
     0
102
RTVSPropertyOp1
 70
     0
102
RTVSPropertyOp2
 70
     0
102
RTVSPropertyOp3
 70
     0
102
RTVSPropertyOp4
 70
     0
102
RTVSPropertyOp5
 70
     0
102
RTVSPropertyOp6
 70
     0
102
RTVSPropertyOp7
 70
     0
102
RTVSPropertyOp8
 70
     0
102
RTVSPropertyOp9
 70
     0
102
RTVSPropertyOp10
 70
     0
102
RTVSPropertyOp11
 70
     0
102
RTVSPropertyOp12
 70
     0
102
RTVSPropertyOp13
 70
     0
102
RTVSPropertyOp14
 70
     2
102
RTVSPropertyOp15
 70
     0
102
RTVSPropertyOp16
 70
     0
102
RTVSPropertyOp17
 70
     0
102
RTVSPropertyOp18
 70
     0
102
RTVSPropertyOp19
 70
     0
102
RTVSPropertyOp20
 70
     0
102
RTVSPropertyOp21
 70
     0
102
RTVSPropertyOp22
 70
     0
102
RTVSPropertyOp23
 70
     0
102
RTVSPropertyOp24
 70
     0
102
RTVSPropertyOp25
 70
     0
102
RTVSPropertyOp26
 70
     0
102
RTVSPropertyOp27
 70
     0
102
RTVSPropertyOp28
 70
     0
102
RTVSPropertyOp29
 70
     0
102
RTVSPropertyOp30
 70
     0
102
RTVSPropertyOp31
 70
     0
102
RTVSPropertyOp32
 70
     0
102
RTVSPropertyOp33
 70
     0
102
RTVSPropertyOp34
 70
     0
102
RTVSPropertyOp35
 70
     0
102
RTVSPropertyOp36
 70
     0
102
RTVSPropertyOp37
 70
     0
102
RTVSPropertyOp38
 70
     0
102
RTVSPropertyOp39
 70
     0
102
RTVSPropertyOp40
 70
     0
102
RTVSPropertyOp41
 70
     0
102
RTVSPropertyOp42
 70
     0
102
RTVSPropertyOp43
 70
     0
102
RTVSPropertyOp44
 70
     0
102
RTVSPropertyOp45
 70
     0
102
RTVSPropertyOp46
 70
     0
102
RTVSPropertyOp47
 70
     0
102
RTVSPropertyOp48
 70
     0
102
RTVSPropertyOp49
 70
     0
102
RTVSPropertyOp50
 70
     0
102
RTVSPropertyOp51
 70
     0
102
RTVSPropertyOp52
 70
     0
102
RTVSPropertyOp53
 70
     0
102
RTVSPropertyOp54
 70
     0
102
RTVSPropertyOp55
 70
     0
102
RTVSPropertyOp56
 70
     0
102
RTVSPropertyOp57
 70
     0
102
RTVSPost2010Prop28
280
     0
102
RTVSPost2010PropOp28
 70
     0
102
RTVSPost2010Prop29
280
     1
102
RTVSPost2010PropOp29
 70
     0
102
RTVSPost2010Prop30
280
     1
102
RTVSPost2010PropOp30
 70
     0
102
RTVSPost2010Prop31
280
     0
102
RTVSPost2010PropOp31
 70
     0
102
RTVSPost2010Prop32
280
     0
102
RTVSPost2010PropOp32
 70
     0
102
RTVSPost2010Prop33
280
     0
102
RTVSPost2010PropOp33
 70
     0
102
RTVSPost2010Prop34
280
     0
102
RTVSPost2010PropOp34
 70
     0
102
RTVSPost2010Prop35
280
     0
102
RTVSPost2010PropOp35
 70
     0
102
RTVSPost2010Prop36
280
     0
102
RTVSPost2010PropOp36
 70
     0
102
RTVSPost2010Prop37
 90
       50
102
RTVSPost2010PropOp37
 70
     0
102
RTVSPost2010Prop38
140
0.0
102
RTVSPost2010PropOp38
 70
     0
102
RTVSPost2010Prop39
140
1.0
102
RTVSPost2010PropOp39
 70
     0
102
RTVSPost2010Prop40
 90
        0
102
RTVSPost2010PropOp40
 70
     0
102
RTVSPost2010Prop41ColorIndex
 90
       18
102
RTVSPost2010Prop41ColorRGB
 90
        0
102
RTVSPost2010PropOp41
 70
     0
102
RTVSPost2010Prop42
 90
       50
102
RTVSPost2010PropOp42
 70
     0
102
RTVSPost2010Prop43
 90
        3
102
RTVSPost2010PropOp43
 70
     0
102
RTVSPost2010Prop44ColorIndex
 90
        5
102
RTVSPost2010Prop44ColorRGB
 90
      255
102
RTVSPost2010PropOp44
 70
     0
102
RTVSPost2010Prop45
280
     0
102
RTVSPost2010PropOp45
 70
     0
102
RTVSPost2010Prop46
 90
       50
102
RTVSPost2010PropOp46
 70
     0
102
RTVSPost2010Prop47
 90
       50
102
RTVSPost2010PropOp47
 70
     0
102
RTVSPost2010Prop48
 90
       50
102
RTVSPost2010PropOp48
 70
     0
102
RTVSPost2010Prop49
280
     0
102
RTVSPost2010PropOp49
 70
     0
102
RTVSPost2010Prop50
 90
       50
102
RTVSPost2010PropOp50
 70
     0
102
RTVSPost2010Prop51ColorIndex
 90
      256
102
RTVSPost2010Prop51ColorRGB
 90
-16777216
102
RTVSPost2010PropOp51
 70
     0
102
RTVSPost2010Prop52
140
1.0
102
RTVSPost2010PropOp52
 70
     0
102
RTVSPost2010Prop53
 90
        2
102
RTVSPost2010PropOp53
 70
     0
102
RTVSPost2010Prop54
  1
strokes_ogs.tif
102
RTVSPost2010PropOp54
 70
     0
102
RTVSPost2010Prop55
280
     0
102
RTVSPost2010PropOp55
 70
     0
102
RTVSPost2010Prop56
140
1.0
102
RTVSPost2010PropOp56
 70
     0
102
RTVSPost2010Prop57
140
1.0
102
RTVSPost2010PropOp57
 70
     0
  0
XRECORD
  5
37B
102
{ACAD_REACTORS
330
37A
102
}
330
37A
100
AcDbXrecord
280
     1
102
RTVSPropertyOp0
 70
     1
102
RTVSPropertyOp1
 70
     1
102
RTVSPropertyOp2
 70
     1
102
RTVSPropertyOp3
 70
     1
102
RTVSPropertyOp4
 70
     1
102
RTVSPropertyOp5
 70
     1
102
RTVSPropertyOp6
 70
     1
102
RTVSPropertyOp7
 70
     1
102
RTVSPropertyOp8
 70
     1
102
RTVSPropertyOp9
 70
     1
102
RTVSPropertyOp10
 70
     1
102
RTVSPropertyOp11
 70
     1
102
RTVSPropertyOp12
 70
     1
102
RTVSPropertyOp13
 70
     1
102
RTVSPropertyOp14
 70
     1
102
RTVSPropertyOp15
 70
     1
102
RTVSPropertyOp16
 70
     1
102
RTVSPropertyOp17
 70
     1
102
RTVSPropertyOp18
 70
     1
102
RTVSPropertyOp19
 70
     1
102
RTVSPropertyOp20
 70
     1
102
RTVSPropertyOp21
 70
     1
102
RTVSPropertyOp22
 70
     1
102
RTVSPropertyOp23
 70
     1
102
RTVSPropertyOp24
 70
     1
102
RTVSPropertyOp25
 70
     1
102
RTVSPropertyOp26
 70
     1
102
RTVSPropertyOp27
 70
     1
102
RTVSPropertyOp28
 70
     1
102
RTVSPropertyOp29
 70
     1
102
RTVSPropertyOp30
 70
     1
102
RTVSPropertyOp31
 70
     1
102
RTVSPropertyOp32
 70
     1
102
RTVSPropertyOp33
 70
     1
102
RTVSPropertyOp34
 70
     1
102
RTVSPropertyOp35
 70
     1
102
RTVSPropertyOp36
 70
     1
102
RTVSPropertyOp37
 70
     1
102
RTVSPropertyOp38
 70
     1
102
RTVSPropertyOp39
 70
     1
102
RTVSPropertyOp40
 70
     1
102
RTVSPropertyOp41
 70
     1
102
RTVSPropertyOp42
 70
     1
102
RTVSPropertyOp43
 70
     1
102
RTVSPropertyOp44
 70
     1
102
RTVSPropertyOp45
 70
     1
102
RTVSPropertyOp46
 70
     1
102
RTVSPropertyOp47
 70
     1
102
RTVSPropertyOp48
 70
     1
102
RTVSPropertyOp49
 70
     1
102
RTVSPropertyOp50
 70
     1
102
RTVSPropertyOp51
 70
     0
102
RTVSPropertyOp52
 70
     0
102
RTVSPropertyOp53
 70
     1
102
RTVSPropertyOp54
 70
     1
102
RTVSPropertyOp55
 70
     1
102
RTVSPropertyOp56
 70
     1
102
RTVSPropertyOp57
 70
     1
102
RTVSPost2010Prop28
280
     0
102
RTVSPost2010PropOp28
 70
     1
102
RTVSPost2010Prop29
280
     1
102
RTVSPost2010PropOp29
 70
     1
102
RTVSPost2010Prop30
280
     1
102
RTVSPost2010PropOp30
 70
     1
102
RTVSPost2010Prop31
280
     0
102
RTVSPost2010PropOp31
 70
     1
102
RTVSPost2010Prop32
280
     0
102
RTVSPost2010PropOp32
 70
     1
102
RTVSPost2010Prop33
280
     0
102
RTVSPost2010PropOp33
 70
     1
102
RTVSPost2010Prop34
280
     0
102
RTVSPost2010PropOp34
 70
     1
102
RTVSPost2010Prop35
280
     0
102
RTVSPost2010PropOp35
 70
     1
102
RTVSPost2010Prop36
280
     0
102
RTVSPost2010PropOp36
 70
     1
102
RTVSPost2010Prop37
 90
       50
102
RTVSPost2010PropOp37
 70
     1
102
RTVSPost2010Prop38
140
0.0
102
RTVSPost2010PropOp38
 70
     1
102
RTVSPost2010Prop39
140
1.0
102
RTVSPost2010PropOp39
 70
     1
102
RTVSPost2010Prop40
 90
        0
102
RTVSPost2010PropOp40
 70
     1
102
RTVSPost2010Prop41ColorIndex
 90
       18
102
RTVSPost2010Prop41ColorRGB
 90
        0
102
RTVSPost2010PropOp41
 70
     1
102
RTVSPost2010Prop42
 90
       50
102
RTVSPost2010PropOp42
 70
     1
102
RTVSPost2010Prop43
 90
        3
102
RTVSPost2010PropOp43
 70
     1
102
RTVSPost2010Prop44ColorIndex
 90
        5
102
RTVSPost2010Prop44ColorRGB
 90
      255
102
RTVSPost2010PropOp44
 70
     1
102
RTVSPost2010Prop45
280
     0
102
RTVSPost2010PropOp45
 70
     1
102
RTVSPost2010Prop46
 90
       50
102
RTVSPost2010PropOp46
 70
     1
102
RTVSPost2010Prop47
 90
       50
102
RTVSPost2010PropOp47
 70
     1
102
RTVSPost2010Prop48
 90
       50
102
RTVSPost2010PropOp48
 70
     1
102
RTVSPost2010Prop49
280
     0
102
RTVSPost2010PropOp49
 70
     1
102
RTVSPost2010Prop50
 90
       50
102
RTVSPost2010PropOp50
 70
     1
102
RTVSPost2010Prop51ColorIndex
 90
      256
102
RTVSPost2010Prop51ColorRGB
 90
-16777216
102
RTVSPost2010PropOp51
 70
     0
102
RTVSPost2010Prop52
140
1.0
102
RTVSPost2010PropOp52
 70
     0
102
RTVSPost2010Prop53
 90
        2
102
RTVSPost2010PropOp53
 70
     1
102
RTVSPost2010Prop54
  1
strokes_ogs.tif
102
RTVSPost2010PropOp54
 70
     1
102
RTVSPost2010Prop55
280
     0
102
RTVSPost2010PropOp55
 70
     1
102
RTVSPost2010Prop56
140
1.0
102
RTVSPost2010PropOp56
 70
     1
102
RTVSPost2010Prop57
140
1.0
102
RTVSPost2010PropOp57
 70
     1
  0
XRECORD
  5
35F
102
{ACAD_REACTORS
330
35E
102
}
330
35E
100
AcDbXrecord
280
     1
102
RTVSPropertyOp0
 70
     1
102
RTVSPropertyOp1
 70
     1
102
RTVSPropertyOp2
 70
     1
102
RTVSPropertyOp3
 70
     1
102
RTVSPropertyOp4
 70
     1
102
RTVSPropertyOp5
 70
     1
102
RTVSPropertyOp6
 70
     1
102
RTVSPropertyOp7
 70
     1
102
RTVSPropertyOp8
 70
     1
102
RTVSPropertyOp9
 70
     1
102
RTVSPropertyOp10
 70
     1
102
RTVSPropertyOp11
 70
     1
102
RTVSPropertyOp12
 70
     1
102
RTVSPropertyOp13
 70
     1
102
RTVSPropertyOp14
 70
     1
102
RTVSPropertyOp15
 70
     1
102
RTVSPropertyOp16
 70
     1
102
RTVSPropertyOp17
 70
     1
102
RTVSPropertyOp18
 70
     1
102
RTVSPropertyOp19
 70
     1
102
RTVSPropertyOp20
 70
     1
102
RTVSPropertyOp21
 70
     1
102
RTVSPropertyOp22
 70
     1
102
RTVSPropertyOp23
 70
     1
102
RTVSPropertyOp24
 70
     1
102
RTVSPropertyOp25
 70
     1
102
RTVSPropertyOp26
 70
     1
102
RTVSPropertyOp27
 70
     1
102
RTVSPropertyOp28
 70
     1
102
RTVSPropertyOp29
 70
     1
102
RTVSPropertyOp30
 70
     1
102
RTVSPropertyOp31
 70
     1
102
RTVSPropertyOp32
 70
     1
102
RTVSPropertyOp33
 70
     1
102
RTVSPropertyOp34
 70
     1
102
RTVSPropertyOp35
 70
     1
102
RTVSPropertyOp36
 70
     1
102
RTVSPropertyOp37
 70
     1
102
RTVSPropertyOp38
 70
     1
102
RTVSPropertyOp39
 70
     1
102
RTVSPropertyOp40
 70
     1
102
RTVSPropertyOp41
 70
     1
102
RTVSPropertyOp42
 70
     1
102
RTVSPropertyOp43
 70
     1
102
RTVSPropertyOp44
 70
     1
102
RTVSPropertyOp45
 70
     1
102
RTVSPropertyOp46
 70
     1
102
RTVSPropertyOp47
 70
     1
102
RTVSPropertyOp48
 70
     1
102
RTVSPropertyOp49
 70
     1
102
RTVSPropertyOp50
 70
     1
102
RTVSPropertyOp51
 70
     0
102
RTVSPropertyOp52
 70
     0
102
RTVSPropertyOp53
 70
     1
102
RTVSPropertyOp54
 70
     1
102
RTVSPropertyOp55
 70
     1
102
RTVSPropertyOp56
 70
     1
102
RTVSPropertyOp57
 70
     1
102
RTVSPost2010Prop28
280
     0
102
RTVSPost2010PropOp28
 70
     1
102
RTVSPost2010Prop29
280
     1
102
RTVSPost2010PropOp29
 70
     1
102
RTVSPost2010Prop30
280
     1
102
RTVSPost2010PropOp30
 70
     1
102
RTVSPost2010Prop31
280
     0
102
RTVSPost2010PropOp31
 70
     1
102
RTVSPost2010Prop32
280
     0
102
RTVSPost2010PropOp32
 70
     1
102
RTVSPost2010Prop33
280
     0
102
RTVSPost2010PropOp33
 70
     1
102
RTVSPost2010Prop34
280
     0
102
RTVSPost2010PropOp34
 70
     1
102
RTVSPost2010Prop35
280
     0
102
RTVSPost2010PropOp35
 70
     1
102
RTVSPost2010Prop36
280
     0
102
RTVSPost2010PropOp36
 70
     1
102
RTVSPost2010Prop37
 90
       50
102
RTVSPost2010PropOp37
 70
     1
102
RTVSPost2010Prop38
140
0.0
102
RTVSPost2010PropOp38
 70
     1
102
RTVSPost2010Prop39
140
1.0
102
RTVSPost2010PropOp39
 70
     1
102
RTVSPost2010Prop40
 90
        0
102
RTVSPost2010PropOp40
 70
     1
102
RTVSPost2010Prop41ColorIndex
 90
       18
102
RTVSPost2010Prop41ColorRGB
 90
        0
102
RTVSPost2010PropOp41
 70
     1
102
RTVSPost2010Prop42
 90
       50
102
RTVSPost2010PropOp42
 70
     1
102
RTVSPost2010Prop43
 90
        3
102
RTVSPost2010PropOp43
 70
     1
102
RTVSPost2010Prop44ColorIndex
 90
        5
102
RTVSPost2010Prop44ColorRGB
 90
      255
102
RTVSPost2010PropOp44
 70
     1
102
RTVSPost2010Prop45
280
     0
102
RTVSPost2010PropOp45
 70
     1
102
RTVSPost2010Prop46
 90
       50
102
RTVSPost2010PropOp46
 70
     1
102
RTVSPost2010Prop47
 90
       50
102
RTVSPost2010PropOp47
 70
     1
102
RTVSPost2010Prop48
 90
       50
102
RTVSPost2010PropOp48
 70
     1
102
RTVSPost2010Prop49
280
     0
102
RTVSPost2010PropOp49
 70
     1
102
RTVSPost2010Prop50
 90
       50
102
RTVSPost2010PropOp50
 70
     1
102
RTVSPost2010Prop51ColorIndex
 90
      256
102
RTVSPost2010Prop51ColorRGB
 90
-16777216
102
RTVSPost2010PropOp51
 70
     0
102
RTVSPost2010Prop52
140
1.0
102
RTVSPost2010PropOp52
 70
     0
102
RTVSPost2010Prop53
 90
        2
102
RTVSPost2010PropOp53
 70
     1
102
RTVSPost2010Prop54
  1
strokes_ogs.tif
102
RTVSPost2010PropOp54
 70
     1
102
RTVSPost2010Prop55
280
     0
102
RTVSPost2010PropOp55
 70
     1
102
RTVSPost2010Prop56
140
1.0
102
RTVSPost2010PropOp56
 70
     1
102
RTVSPost2010Prop57
140
1.0
102
RTVSPost2010PropOp57
 70
     1
  0
XRECORD
  5
361
102
{ACAD_REACTORS
330
360
102
}
330
360
100
AcDbXrecord
280
     1
102
RTVSPropertyOp0
 70
     1
102
RTVSPropertyOp1
 70
     1
102
RTVSPropertyOp2
 70
     1
102
RTVSPropertyOp3
 70
     1
102
RTVSPropertyOp4
 70
     1
102
RTVSPropertyOp5
 70
     1
102
RTVSPropertyOp6
 70
     1
102
RTVSPropertyOp7
 70
     1
102
RTVSPropertyOp8
 70
     1
102
RTVSPropertyOp9
 70
     1
102
RTVSPropertyOp10
 70
     1
102
RTVSPropertyOp11
 70
     1
102
RTVSPropertyOp12
 70
     1
102
RTVSPropertyOp13
 70
     1
102
RTVSPropertyOp14
 70
     1
102
RTVSPropertyOp15
 70
     1
102
RTVSPropertyOp16
 70
     1
102
RTVSPropertyOp17
 70
     1
102
RTVSPropertyOp18
 70
     1
102
RTVSPropertyOp19
 70
     1
102
RTVSPropertyOp20
 70
     1
102
RTVSPropertyOp21
 70
     1
102
RTVSPropertyOp22
 70
     1
102
RTVSPropertyOp23
 70
     1
102
RTVSPropertyOp24
 70
     1
102
RTVSPropertyOp25
 70
     1
102
RTVSPropertyOp26
 70
     1
102
RTVSPropertyOp27
 70
     1
102
RTVSPropertyOp28
 70
     1
102
RTVSPropertyOp29
 70
     1
102
RTVSPropertyOp30
 70
     1
102
RTVSPropertyOp31
 70
     1
102
RTVSPropertyOp32
 70
     1
102
RTVSPropertyOp33
 70
     1
102
RTVSPropertyOp34
 70
     1
102
RTVSPropertyOp35
 70
     1
102
RTVSPropertyOp36
 70
     1
102
RTVSPropertyOp37
 70
     1
102
RTVSPropertyOp38
 70
     1
102
RTVSPropertyOp39
 70
     1
102
RTVSPropertyOp40
 70
     1
102
RTVSPropertyOp41
 70
     1
102
RTVSPropertyOp42
 70
     1
102
RTVSPropertyOp43
 70
     1
102
RTVSPropertyOp44
 70
     1
102
RTVSPropertyOp45
 70
     1
102
RTVSPropertyOp46
 70
     1
102
RTVSPropertyOp47
 70
     1
102
RTVSPropertyOp48
 70
     1
102
RTVSPropertyOp49
 70
     1
102
RTVSPropertyOp50
 70
     1
102
RTVSPropertyOp51
 70
     0
102
RTVSPropertyOp52
 70
     0
102
RTVSPropertyOp53
 70
     1
102
RTVSPropertyOp54
 70
     1
102
RTVSPropertyOp55
 70
     1
102
RTVSPropertyOp56
 70
     1
102
RTVSPropertyOp57
 70
     1
102
RTVSPost2010Prop28
280
     0
102
RTVSPost2010PropOp28
 70
     1
102
RTVSPost2010Prop29
280
     1
102
RTVSPost2010PropOp29
 70
     1
102
RTVSPost2010Prop30
280
     1
102
RTVSPost2010PropOp30
 70
     1
102
RTVSPost2010Prop31
280
     0
102
RTVSPost2010PropOp31
 70
     1
102
RTVSPost2010Prop32
280
     0
102
RTVSPost2010PropOp32
 70
     1
102
RTVSPost2010Prop33
280
     0
102
RTVSPost2010PropOp33
 70
     1
102
RTVSPost2010Prop34
280
     0
102
RTVSPost2010PropOp34
 70
     1
102
RTVSPost2010Prop35
280
     0
102
RTVSPost2010PropOp35
 70
     1
102
RTVSPost2010Prop36
280
     0
102
RTVSPost2010PropOp36
 70
     1
102
RTVSPost2010Prop37
 90
       50
102
RTVSPost2010PropOp37
 70
     1
102
RTVSPost2010Prop38
140
0.0
102
RTVSPost2010PropOp38
 70
     1
102
RTVSPost2010Prop39
140
1.0
102
RTVSPost2010PropOp39
 70
     1
102
RTVSPost2010Prop40
 90
        0
102
RTVSPost2010PropOp40
 70
     1
102
RTVSPost2010Prop41ColorIndex
 90
       18
102
RTVSPost2010Prop41ColorRGB
 90
        0
102
RTVSPost2010PropOp41
 70
     1
102
RTVSPost2010Prop42
 90
       50
102
RTVSPost2010PropOp42
 70
     1
102
RTVSPost2010Prop43
 90
        3
102
RTVSPost2010PropOp43
 70
     1
102
RTVSPost2010Prop44ColorIndex
 90
        5
102
RTVSPost2010Prop44ColorRGB
 90
      255
102
RTVSPost2010PropOp44
 70
     1
102
RTVSPost2010Prop45
280
     0
102
RTVSPost2010PropOp45
 70
     1
102
RTVSPost2010Prop46
 90
       50
102
RTVSPost2010PropOp46
 70
     1
102
RTVSPost2010Prop47
 90
       50
102
RTVSPost2010PropOp47
 70
     1
102
RTVSPost2010Prop48
 90
       50
102
RTVSPost2010PropOp48
 70
     1
102
RTVSPost2010Prop49
280
     0
102
RTVSPost2010PropOp49
 70
     1
102
RTVSPost2010Prop50
 90
       50
102
RTVSPost2010PropOp50
 70
     1
102
RTVSPost2010Prop51ColorIndex
 90
      256
102
RTVSPost2010Prop51ColorRGB
 90
-16777216
102
RTVSPost2010PropOp51
 70
     0
102
RTVSPost2010Prop52
140
1.0
102
RTVSPost2010PropOp52
 70
     0
102
RTVSPost2010Prop53
 90
        2
102
RTVSPost2010PropOp53
 70
     1
102
RTVSPost2010Prop54
  1
strokes_ogs.tif
102
RTVSPost2010PropOp54
 70
     1
102
RTVSPost2010Prop55
280
     0
102
RTVSPost2010PropOp55
 70
     1
102
RTVSPost2010Prop56
140
1.0
102
RTVSPost2010PropOp56
 70
     1
102
RTVSPost2010Prop57
140
1.0
102
RTVSPost2010PropOp57
 70
     1
  0
XRECORD
  5
363
102
{ACAD_REACTORS
330
362
102
}
330
362
100
AcDbXrecord
280
     1
102
RTVSPropertyOp0
 70
     1
102
RTVSPropertyOp1
 70
     1
102
RTVSPropertyOp2
 70
     1
102
RTVSPropertyOp3
 70
     1
102
RTVSPropertyOp4
 70
     1
102
RTVSPropertyOp5
 70
     1
102
RTVSPropertyOp6
 70
     1
102
RTVSPropertyOp7
 70
     1
102
RTVSPropertyOp8
 70
     1
102
RTVSPropertyOp9
 70
     1
102
RTVSPropertyOp10
 70
     1
102
RTVSPropertyOp11
 70
     1
102
RTVSPropertyOp12
 70
     1
102
RTVSPropertyOp13
 70
     1
102
RTVSPropertyOp14
 70
     1
102
RTVSPropertyOp15
 70
     1
102
RTVSPropertyOp16
 70
     1
102
RTVSPropertyOp17
 70
     1
102
RTVSPropertyOp18
 70
     1
102
RTVSPropertyOp19
 70
     1
102
RTVSPropertyOp20
 70
     1
102
RTVSPropertyOp21
 70
     1
102
RTVSPropertyOp22
 70
     1
102
RTVSPropertyOp23
 70
     1
102
RTVSPropertyOp24
 70
     1
102
RTVSPropertyOp25
 70
     1
102
RTVSPropertyOp26
 70
     1
102
RTVSPropertyOp27
 70
     1
102
RTVSPropertyOp28
 70
     1
102
RTVSPropertyOp29
 70
     1
102
RTVSPropertyOp30
 70
     1
102
RTVSPropertyOp31
 70
     1
102
RTVSPropertyOp32
 70
     1
102
RTVSPropertyOp33
 70
     1
102
RTVSPropertyOp34
 70
     1
102
RTVSPropertyOp35
 70
     1
102
RTVSPropertyOp36
 70
     1
102
RTVSPropertyOp37
 70
     1
102
RTVSPropertyOp38
 70
     1
102
RTVSPropertyOp39
 70
     1
102
RTVSPropertyOp40
 70
     1
102
RTVSPropertyOp41
 70
     1
102
RTVSPropertyOp42
 70
     1
102
RTVSPropertyOp43
 70
     1
102
RTVSPropertyOp44
 70
     1
102
RTVSPropertyOp45
 70
     1
102
RTVSPropertyOp46
 70
     1
102
RTVSPropertyOp47
 70
     1
102
RTVSPropertyOp48
 70
     1
102
RTVSPropertyOp49
 70
     1
102
RTVSPropertyOp50
 70
     1
102
RTVSPropertyOp51
 70
     0
102
RTVSPropertyOp52
 70
     0
102
RTVSPropertyOp53
 70
     1
102
RTVSPropertyOp54
 70
     1
102
RTVSPropertyOp55
 70
     1
102
RTVSPropertyOp56
 70
     1
102
RTVSPropertyOp57
 70
     1
102
RTVSPost2010Prop28
280
     0
102
RTVSPost2010PropOp28
 70
     1
102
RTVSPost2010Prop29
280
     1
102
RTVSPost2010PropOp29
 70
     1
102
RTVSPost2010Prop30
280
     1
102
RTVSPost2010PropOp30
 70
     1
102
RTVSPost2010Prop31
280
     0
102
RTVSPost2010PropOp31
 70
     1
102
RTVSPost2010Prop32
280
     0
102
RTVSPost2010PropOp32
 70
     1
102
RTVSPost2010Prop33
280
     0
102
RTVSPost2010PropOp33
 70
     1
102
RTVSPost2010Prop34
280
     0
102
RTVSPost2010PropOp34
 70
     1
102
RTVSPost2010Prop35
280
     0
102
RTVSPost2010PropOp35
 70
     1
102
RTVSPost2010Prop36
280
     0
102
RTVSPost2010PropOp36
 70
     1
102
RTVSPost2010Prop37
 90
       50
102
RTVSPost2010PropOp37
 70
     1
102
RTVSPost2010Prop38
140
0.0
102
RTVSPost2010PropOp38
 70
     1
102
RTVSPost2010Prop39
140
1.0
102
RTVSPost2010PropOp39
 70
     1
102
RTVSPost2010Prop40
 90
        0
102
RTVSPost2010PropOp40
 70
     1
102
RTVSPost2010Prop41ColorIndex
 90
       18
102
RTVSPost2010Prop41ColorRGB
 90
        0
102
RTVSPost2010PropOp41
 70
     1
102
RTVSPost2010Prop42
 90
       50
102
RTVSPost2010PropOp42
 70
     1
102
RTVSPost2010Prop43
 90
        3
102
RTVSPost2010PropOp43
 70
     1
102
RTVSPost2010Prop44ColorIndex
 90
        5
102
RTVSPost2010Prop44ColorRGB
 90
      255
102
RTVSPost2010PropOp44
 70
     1
102
RTVSPost2010Prop45
280
     0
102
RTVSPost2010PropOp45
 70
     1
102
RTVSPost2010Prop46
 90
       50
102
RTVSPost2010PropOp46
 70
     1
102
RTVSPost2010Prop47
 90
       50
102
RTVSPost2010PropOp47
 70
     1
102
RTVSPost2010Prop48
 90
       50
102
RTVSPost2010PropOp48
 70
     1
102
RTVSPost2010Prop49
280
     0
102
RTVSPost2010PropOp49
 70
     1
102
RTVSPost2010Prop50
 90
       50
102
RTVSPost2010PropOp50
 70
     1
102
RTVSPost2010Prop51ColorIndex
 90
      256
102
RTVSPost2010Prop51ColorRGB
 90
-16777216
102
RTVSPost2010PropOp51
 70
     0
102
RTVSPost2010Prop52
140
1.0
102
RTVSPost2010PropOp52
 70
     0
102
RTVSPost2010Prop53
 90
        2
102
RTVSPost2010PropOp53
 70
     1
102
RTVSPost2010Prop54
  1
strokes_ogs.tif
102
RTVSPost2010PropOp54
 70
     1
102
RTVSPost2010Prop55
280
     0
102
RTVSPost2010PropOp55
 70
     1
102
RTVSPost2010Prop56
140
1.0
102
RTVSPost2010PropOp56
 70
     1
102
RTVSPost2010Prop57
140
1.0
102
RTVSPost2010PropOp57
 70
     1
  0
XRECORD
  5
365
102
{ACAD_REACTORS
330
364
102
}
330
364
100
AcDbXrecord
280
     1
102
RTVSPropertyOp0
 70
     1
102
RTVSPropertyOp1
 70
     1
102
RTVSPropertyOp2
 70
     1
102
RTVSPropertyOp3
 70
     1
102
RTVSPropertyOp4
 70
     1
102
RTVSPropertyOp5
 70
     1
102
RTVSPropertyOp6
 70
     1
102
RTVSPropertyOp7
 70
     1
102
RTVSPropertyOp8
 70
     1
102
RTVSPropertyOp9
 70
     1
102
RTVSPropertyOp10
 70
     1
102
RTVSPropertyOp11
 70
     1
102
RTVSPropertyOp12
 70
     1
102
RTVSPropertyOp13
 70
     1
102
RTVSPropertyOp14
 70
     1
102
RTVSPropertyOp15
 70
     1
102
RTVSPropertyOp16
 70
     1
102
RTVSPropertyOp17
 70
     1
102
RTVSPropertyOp18
 70
     1
102
RTVSPropertyOp19
 70
     1
102
RTVSPropertyOp20
 70
     1
102
RTVSPropertyOp21
 70
     1
102
RTVSPropertyOp22
 70
     1
102
RTVSPropertyOp23
 70
     1
102
RTVSPropertyOp24
 70
     1
102
RTVSPropertyOp25
 70
     1
102
RTVSPropertyOp26
 70
     1
102
RTVSPropertyOp27
 70
     1
102
RTVSPropertyOp28
 70
     1
102
RTVSPropertyOp29
 70
     1
102
RTVSPropertyOp30
 70
     1
102
RTVSPropertyOp31
 70
     1
102
RTVSPropertyOp32
 70
     1
102
RTVSPropertyOp33
 70
     1
102
RTVSPropertyOp34
 70
     1
102
RTVSPropertyOp35
 70
     1
102
RTVSPropertyOp36
 70
     1
102
RTVSPropertyOp37
 70
     1
102
RTVSPropertyOp38
 70
     1
102
RTVSPropertyOp39
 70
     1
102
RTVSPropertyOp40
 70
     1
102
RTVSPropertyOp41
 70
     1
102
RTVSPropertyOp42
 70
     1
102
RTVSPropertyOp43
 70
     1
102
RTVSPropertyOp44
 70
     1
102
RTVSPropertyOp45
 70
     1
102
RTVSPropertyOp46
 70
     1
102
RTVSPropertyOp47
 70
     1
102
RTVSPropertyOp48
 70
     1
102
RTVSPropertyOp49
 70
     1
102
RTVSPropertyOp50
 70
     1
102
RTVSPropertyOp51
 70
     0
102
RTVSPropertyOp52
 70
     0
102
RTVSPropertyOp53
 70
     1
102
RTVSPropertyOp54
 70
     1
102
RTVSPropertyOp55
 70
     1
102
RTVSPropertyOp56
 70
     1
102
RTVSPropertyOp57
 70
     1
102
RTVSPost2010Prop28
280
     0
102
RTVSPost2010PropOp28
 70
     1
102
RTVSPost2010Prop29
280
     1
102
RTVSPost2010PropOp29
 70
     1
102
RTVSPost2010Prop30
280
     1
102
RTVSPost2010PropOp30
 70
     1
102
RTVSPost2010Prop31
280
     0
102
RTVSPost2010PropOp31
 70
     1
102
RTVSPost2010Prop32
280
     0
102
RTVSPost2010PropOp32
 70
     1
102
RTVSPost2010Prop33
280
     0
102
RTVSPost2010PropOp33
 70
     1
102
RTVSPost2010Prop34
280
     0
102
RTVSPost2010PropOp34
 70
     1
102
RTVSPost2010Prop35
280
     0
102
RTVSPost2010PropOp35
 70
     1
102
RTVSPost2010Prop36
280
     0
102
RTVSPost2010PropOp36
 70
     1
102
RTVSPost2010Prop37
 90
       50
102
RTVSPost2010PropOp37
 70
     1
102
RTVSPost2010Prop38
140
0.0
102
RTVSPost2010PropOp38
 70
     1
102
RTVSPost2010Prop39
140
1.0
102
RTVSPost2010PropOp39
 70
     1
102
RTVSPost2010Prop40
 90
        0
102
RTVSPost2010PropOp40
 70
     1
102
RTVSPost2010Prop41ColorIndex
 90
       18
102
RTVSPost2010Prop41ColorRGB
 90
        0
102
RTVSPost2010PropOp41
 70
     1
102
RTVSPost2010Prop42
 90
       50
102
RTVSPost2010PropOp42
 70
     1
102
RTVSPost2010Prop43
 90
        3
102
RTVSPost2010PropOp43
 70
     1
102
RTVSPost2010Prop44ColorIndex
 90
        5
102
RTVSPost2010Prop44ColorRGB
 90
      255
102
RTVSPost2010PropOp44
 70
     1
102
RTVSPost2010Prop45
280
     0
102
RTVSPost2010PropOp45
 70
     1
102
RTVSPost2010Prop46
 90
       50
102
RTVSPost2010PropOp46
 70
     1
102
RTVSPost2010Prop47
 90
       50
102
RTVSPost2010PropOp47
 70
     1
102
RTVSPost2010Prop48
 90
       50
102
RTVSPost2010PropOp48
 70
     1
102
RTVSPost2010Prop49
280
     0
102
RTVSPost2010PropOp49
 70
     1
102
RTVSPost2010Prop50
 90
       50
102
RTVSPost2010PropOp50
 70
     1
102
RTVSPost2010Prop51ColorIndex
 90
      256
102
RTVSPost2010Prop51ColorRGB
 90
-16777216
102
RTVSPost2010PropOp51
 70
     0
102
RTVSPost2010Prop52
140
1.0
102
RTVSPost2010PropOp52
 70
     0
102
RTVSPost2010Prop53
 90
        2
102
RTVSPost2010PropOp53
 70
     1
102
RTVSPost2010Prop54
  1
strokes_ogs.tif
102
RTVSPost2010PropOp54
 70
     1
102
RTVSPost2010Prop55
280
     0
102
RTVSPost2010PropOp55
 70
     1
102
RTVSPost2010Prop56
140
1.0
102
RTVSPost2010PropOp56
 70
     1
102
RTVSPost2010Prop57
140
1.0
102
RTVSPost2010PropOp57
 70
     1
  0
XRECORD
  5
36B
102
{ACAD_REACTORS
330
36A
102
}
330
36A
100
AcDbXrecord
280
     1
102
RTVSPropertyOp0
 70
     1
102
RTVSPropertyOp1
 70
     1
102
RTVSPropertyOp2
 70
     1
102
RTVSPropertyOp3
 70
     1
102
RTVSPropertyOp4
 70
     1
102
RTVSPropertyOp5
 70
     1
102
RTVSPropertyOp6
 70
     1
102
RTVSPropertyOp7
 70
     1
102
RTVSPropertyOp8
 70
     1
102
RTVSPropertyOp9
 70
     1
102
RTVSPropertyOp10
 70
     1
102
RTVSPropertyOp11
 70
     1
102
RTVSPropertyOp12
 70
     1
102
RTVSPropertyOp13
 70
     1
102
RTVSPropertyOp14
 70
     1
102
RTVSPropertyOp15
 70
     1
102
RTVSPropertyOp16
 70
     1
102
RTVSPropertyOp17
 70
     1
102
RTVSPropertyOp18
 70
     1
102
RTVSPropertyOp19
 70
     1
102
RTVSPropertyOp20
 70
     1
102
RTVSPropertyOp21
 70
     1
102
RTVSPropertyOp22
 70
     1
102
RTVSPropertyOp23
 70
     1
102
RTVSPropertyOp24
 70
     1
102
RTVSPropertyOp25
 70
     1
102
RTVSPropertyOp26
 70
     1
102
RTVSPropertyOp27
 70
     1
102
RTVSPropertyOp28
 70
     1
102
RTVSPropertyOp29
 70
     1
102
RTVSPropertyOp30
 70
     1
102
RTVSPropertyOp31
 70
     1
102
RTVSPropertyOp32
 70
     1
102
RTVSPropertyOp33
 70
     1
102
RTVSPropertyOp34
 70
     1
102
RTVSPropertyOp35
 70
     1
102
RTVSPropertyOp36
 70
     1
102
RTVSPropertyOp37
 70
     1
102
RTVSPropertyOp38
 70
     1
102
RTVSPropertyOp39
 70
     1
102
RTVSPropertyOp40
 70
     1
102
RTVSPropertyOp41
 70
     1
102
RTVSPropertyOp42
 70
     1
102
RTVSPropertyOp43
 70
     1
102
RTVSPropertyOp44
 70
     1
102
RTVSPropertyOp45
 70
     1
102
RTVSPropertyOp46
 70
     1
102
RTVSPropertyOp47
 70
     1
102
RTVSPropertyOp48
 70
     1
102
RTVSPropertyOp49
 70
     1
102
RTVSPropertyOp50
 70
     1
102
RTVSPropertyOp51
 70
     0
102
RTVSPropertyOp52
 70
     0
102
RTVSPropertyOp53
 70
     1
102
RTVSPropertyOp54
 70
     1
102
RTVSPropertyOp55
 70
     1
102
RTVSPropertyOp56
 70
     1
102
RTVSPropertyOp57
 70
     1
102
RTVSPost2010Prop28
280
     0
102
RTVSPost2010PropOp28
 70
     1
102
RTVSPost2010Prop29
280
     1
102
RTVSPost2010PropOp29
 70
     1
102
RTVSPost2010Prop30
280
     1
102
RTVSPost2010PropOp30
 70
     1
102
RTVSPost2010Prop31
280
     0
102
RTVSPost2010PropOp31
 70
     1
102
RTVSPost2010Prop32
280
     0
102
RTVSPost2010PropOp32
 70
     1
102
RTVSPost2010Prop33
280
     0
102
RTVSPost2010PropOp33
 70
     1
102
RTVSPost2010Prop34
280
     0
102
RTVSPost2010PropOp34
 70
     1
102
RTVSPost2010Prop35
280
     0
102
RTVSPost2010PropOp35
 70
     1
102
RTVSPost2010Prop36
280
     0
102
RTVSPost2010PropOp36
 70
     1
102
RTVSPost2010Prop37
 90
       50
102
RTVSPost2010PropOp37
 70
     1
102
RTVSPost2010Prop38
140
0.0
102
RTVSPost2010PropOp38
 70
     1
102
RTVSPost2010Prop39
140
1.0
102
RTVSPost2010PropOp39
 70
     1
102
RTVSPost2010Prop40
 90
        0
102
RTVSPost2010PropOp40
 70
     1
102
RTVSPost2010Prop41ColorIndex
 90
       18
102
RTVSPost2010Prop41ColorRGB
 90
        0
102
RTVSPost2010PropOp41
 70
     1
102
RTVSPost2010Prop42
 90
       50
102
RTVSPost2010PropOp42
 70
     1
102
RTVSPost2010Prop43
 90
        3
102
RTVSPost2010PropOp43
 70
     1
102
RTVSPost2010Prop44ColorIndex
 90
        5
102
RTVSPost2010Prop44ColorRGB
 90
      255
102
RTVSPost2010PropOp44
 70
     1
102
RTVSPost2010Prop45
280
     0
102
RTVSPost2010PropOp45
 70
     1
102
RTVSPost2010Prop46
 90
       50
102
RTVSPost2010PropOp46
 70
     1
102
RTVSPost2010Prop47
 90
       50
102
RTVSPost2010PropOp47
 70
     1
102
RTVSPost2010Prop48
 90
       50
102
RTVSPost2010PropOp48
 70
     1
102
RTVSPost2010Prop49
280
     0
102
RTVSPost2010PropOp49
 70
     1
102
RTVSPost2010Prop50
 90
       50
102
RTVSPost2010PropOp50
 70
     1
102
RTVSPost2010Prop51ColorIndex
 90
      256
102
RTVSPost2010Prop51ColorRGB
 90
-16777216
102
RTVSPost2010PropOp51
 70
     0
102
RTVSPost2010Prop52
140
1.0
102
RTVSPost2010PropOp52
 70
     0
102
RTVSPost2010Prop53
 90
        2
102
RTVSPost2010PropOp53
 70
     1
102
RTVSPost2010Prop54
  1
strokes_ogs.tif
102
RTVSPost2010PropOp54
 70
     1
102
RTVSPost2010Prop55
280
     0
102
RTVSPost2010PropOp55
 70
     1
102
RTVSPost2010Prop56
140
1.0
102
RTVSPost2010PropOp56
 70
     1
102
RTVSPost2010Prop57
140
1.0
102
RTVSPost2010PropOp57
 70
     1
  0
XRECORD
  5
37F
102
{ACAD_REACTORS
330
37E
102
}
330
37E
100
AcDbXrecord
280
     1
102
RTVSPropertyOp0
 70
     0
102
RTVSPropertyOp1
 70
     0
102
RTVSPropertyOp2
 70
     0
102
RTVSPropertyOp3
 70
     0
102
RTVSPropertyOp4
 70
     0
102
RTVSPropertyOp5
 70
     0
102
RTVSPropertyOp6
 70
     0
102
RTVSPropertyOp7
 70
     0
102
RTVSPropertyOp8
 70
     0
102
RTVSPropertyOp9
 70
     0
102
RTVSPropertyOp10
 70
     0
102
RTVSPropertyOp11
 70
     0
102
RTVSPropertyOp12
 70
     0
102
RTVSPropertyOp13
 70
     0
102
RTVSPropertyOp14
 70
     2
102
RTVSPropertyOp15
 70
     0
102
RTVSPropertyOp16
 70
     0
102
RTVSPropertyOp17
 70
     0
102
RTVSPropertyOp18
 70
     0
102
RTVSPropertyOp19
 70
     0
102
RTVSPropertyOp20
 70
     0
102
RTVSPropertyOp21
 70
     0
102
RTVSPropertyOp22
 70
     0
102
RTVSPropertyOp23
 70
     0
102
RTVSPropertyOp24
 70
     0
102
RTVSPropertyOp25
 70
     0
102
RTVSPropertyOp26
 70
     0
102
RTVSPropertyOp27
 70
     0
102
RTVSPropertyOp28
 70
     0
102
RTVSPropertyOp29
 70
     0
102
RTVSPropertyOp30
 70
     0
102
RTVSPropertyOp31
 70
     0
102
RTVSPropertyOp32
 70
     0
102
RTVSPropertyOp33
 70
     0
102
RTVSPropertyOp34
 70
     0
102
RTVSPropertyOp35
 70
     0
102
RTVSPropertyOp36
 70
     0
102
RTVSPropertyOp37
 70
     0
102
RTVSPropertyOp38
 70
     0
102
RTVSPropertyOp39
 70
     0
102
RTVSPropertyOp40
 70
     0
102
RTVSPropertyOp41
 70
     0
102
RTVSPropertyOp42
 70
     0
102
RTVSPropertyOp43
 70
     0
102
RTVSPropertyOp44
 70
     0
102
RTVSPropertyOp45
 70
     0
102
RTVSPropertyOp46
 70
     0
102
RTVSPropertyOp47
 70
     0
102
RTVSPropertyOp48
 70
     0
102
RTVSPropertyOp49
 70
     0
102
RTVSPropertyOp50
 70
     0
102
RTVSPropertyOp51
 70
     0
102
RTVSPropertyOp52
 70
     0
102
RTVSPropertyOp53
 70
     0
102
RTVSPropertyOp54
 70
     0
102
RTVSPropertyOp55
 70
     0
102
RTVSPropertyOp56
 70
     0
102
RTVSPropertyOp57
 70
     0
102
RTVSPost2010Prop28
280
     0
102
RTVSPost2010PropOp28
 70
     0
102
RTVSPost2010Prop29
280
     1
102
RTVSPost2010PropOp29
 70
     0
102
RTVSPost2010Prop30
280
     1
102
RTVSPost2010PropOp30
 70
     0
102
RTVSPost2010Prop31
280
     0
102
RTVSPost2010PropOp31
 70
     0
102
RTVSPost2010Prop32
280
     0
102
RTVSPost2010PropOp32
 70
     0
102
RTVSPost2010Prop33
280
     0
102
RTVSPost2010PropOp33
 70
     0
102
RTVSPost2010Prop34
280
     0
102
RTVSPost2010PropOp34
 70
     0
102
RTVSPost2010Prop35
280
     0
102
RTVSPost2010PropOp35
 70
     0
102
RTVSPost2010Prop36
280
     0
102
RTVSPost2010PropOp36
 70
     0
102
RTVSPost2010Prop37
 90
       50
102
RTVSPost2010PropOp37
 70
     0
102
RTVSPost2010Prop38
140
0.0
102
RTVSPost2010PropOp38
 70
     0
102
RTVSPost2010Prop39
140
1.0
102
RTVSPost2010PropOp39
 70
     0
102
RTVSPost2010Prop40
 90
        0
102
RTVSPost2010PropOp40
 70
     0
102
RTVSPost2010Prop41ColorIndex
 90
       18
102
RTVSPost2010Prop41ColorRGB
 90
        0
102
RTVSPost2010PropOp41
 70
     0
102
RTVSPost2010Prop42
 90
       50
102
RTVSPost2010PropOp42
 70
     0
102
RTVSPost2010Prop43
 90
        3
102
RTVSPost2010PropOp43
 70
     0
102
RTVSPost2010Prop44ColorIndex
 90
        5
102
RTVSPost2010Prop44ColorRGB
 90
      255
102
RTVSPost2010PropOp44
 70
     0
102
RTVSPost2010Prop45
280
     0
102
RTVSPost2010PropOp45
 70
     0
102
RTVSPost2010Prop46
 90
       50
102
RTVSPost2010PropOp46
 70
     0
102
RTVSPost2010Prop47
 90
       50
102
RTVSPost2010PropOp47
 70
     0
102
RTVSPost2010Prop48
 90
       50
102
RTVSPost2010PropOp48
 70
     0
102
RTVSPost2010Prop49
280
     0
102
RTVSPost2010PropOp49
 70
     0
102
RTVSPost2010Prop50
 90
       50
102
RTVSPost2010PropOp50
 70
     0
102
RTVSPost2010Prop51ColorIndex
 90
      256
102
RTVSPost2010Prop51ColorRGB
 90
-16777216
102
RTVSPost2010PropOp51
 70
     0
102
RTVSPost2010Prop52
140
1.0
102
RTVSPost2010PropOp52
 70
     0
102
RTVSPost2010Prop53
 90
        2
102
RTVSPost2010PropOp53
 70
     0
102
RTVSPost2010Prop54
  1
strokes_ogs.tif
102
RTVSPost2010PropOp54
 70
     0
102
RTVSPost2010Prop55
280
     0
102
RTVSPost2010PropOp55
 70
     0
102
RTVSPost2010Prop56
140
1.0
102
RTVSPost2010PropOp56
 70
     0
102
RTVSPost2010Prop57
140
1.0
102
RTVSPost2010PropOp57
 70
     0
  0
XRECORD
  5
379
102
{ACAD_REACTORS
330
378
102
}
330
378
100
AcDbXrecord
280
     1
102
RTVSPropertyOp0
 70
     1
102
RTVSPropertyOp1
 70
     1
102
RTVSPropertyOp2
 70
     1
102
RTVSPropertyOp3
 70
     1
102
RTVSPropertyOp4
 70
     1
102
RTVSPropertyOp5
 70
     1
102
RTVSPropertyOp6
 70
     1
102
RTVSPropertyOp7
 70
     1
102
RTVSPropertyOp8
 70
     1
102
RTVSPropertyOp9
 70
     1
102
RTVSPropertyOp10
 70
     1
102
RTVSPropertyOp11
 70
     1
102
RTVSPropertyOp12
 70
     1
102
RTVSPropertyOp13
 70
     1
102
RTVSPropertyOp14
 70
     1
102
RTVSPropertyOp15
 70
     1
102
RTVSPropertyOp16
 70
     1
102
RTVSPropertyOp17
 70
     1
102
RTVSPropertyOp18
 70
     1
102
RTVSPropertyOp19
 70
     1
102
RTVSPropertyOp20
 70
     1
102
RTVSPropertyOp21
 70
     1
102
RTVSPropertyOp22
 70
     1
102
RTVSPropertyOp23
 70
     1
102
RTVSPropertyOp24
 70
     1
102
RTVSPropertyOp25
 70
     1
102
RTVSPropertyOp26
 70
     1
102
RTVSPropertyOp27
 70
     1
102
RTVSPropertyOp28
 70
     1
102
RTVSPropertyOp29
 70
     1
102
RTVSPropertyOp30
 70
     1
102
RTVSPropertyOp31
 70
     1
102
RTVSPropertyOp32
 70
     1
102
RTVSPropertyOp33
 70
     1
102
RTVSPropertyOp34
 70
     1
102
RTVSPropertyOp35
 70
     1
102
RTVSPropertyOp36
 70
     1
102
RTVSPropertyOp37
 70
     1
102
RTVSPropertyOp38
 70
     1
102
RTVSPropertyOp39
 70
     1
102
RTVSPropertyOp40
 70
     1
102
RTVSPropertyOp41
 70
     1
102
RTVSPropertyOp42
 70
     1
102
RTVSPropertyOp43
 70
     1
102
RTVSPropertyOp44
 70
     1
102
RTVSPropertyOp45
 70
     1
102
RTVSPropertyOp46
 70
     1
102
RTVSPropertyOp47
 70
     1
102
RTVSPropertyOp48
 70
     1
102
RTVSPropertyOp49
 70
     1
102
RTVSPropertyOp50
 70
     1
102
RTVSPropertyOp51
 70
     0
102
RTVSPropertyOp52
 70
     0
102
RTVSPropertyOp53
 70
     1
102
RTVSPropertyOp54
 70
     1
102
RTVSPropertyOp55
 70
     1
102
RTVSPropertyOp56
 70
     1
102
RTVSPropertyOp57
 70
     1
102
RTVSPost2010Prop28
280
     0
102
RTVSPost2010PropOp28
 70
     1
102
RTVSPost2010Prop29
280
     1
102
RTVSPost2010PropOp29
 70
     1
102
RTVSPost2010Prop30
280
     1
102
RTVSPost2010PropOp30
 70
     1
102
RTVSPost2010Prop31
280
     0
102
RTVSPost2010PropOp31
 70
     1
102
RTVSPost2010Prop32
280
     0
102
RTVSPost2010PropOp32
 70
     1
102
RTVSPost2010Prop33
280
     0
102
RTVSPost2010PropOp33
 70
     1
102
RTVSPost2010Prop34
280
     0
102
RTVSPost2010PropOp34
 70
     1
102
RTVSPost2010Prop35
280
     0
102
RTVSPost2010PropOp35
 70
     1
102
RTVSPost2010Prop36
280
     0
102
RTVSPost2010PropOp36
 70
     1
102
RTVSPost2010Prop37
 90
       50
102
RTVSPost2010PropOp37
 70
     1
102
RTVSPost2010Prop38
140
0.0
102
RTVSPost2010PropOp38
 70
     1
102
RTVSPost2010Prop39
140
1.0
102
RTVSPost2010PropOp39
 70
     1
102
RTVSPost2010Prop40
 90
        0
102
RTVSPost2010PropOp40
 70
     1
102
RTVSPost2010Prop41ColorIndex
 90
       18
102
RTVSPost2010Prop41ColorRGB
 90
        0
102
RTVSPost2010PropOp41
 70
     1
102
RTVSPost2010Prop42
 90
       50
102
RTVSPost2010PropOp42
 70
     1
102
RTVSPost2010Prop43
 90
        3
102
RTVSPost2010PropOp43
 70
     1
102
RTVSPost2010Prop44ColorIndex
 90
        5
102
RTVSPost2010Prop44ColorRGB
 90
      255
102
RTVSPost2010PropOp44
 70
     1
102
RTVSPost2010Prop45
280
     0
102
RTVSPost2010PropOp45
 70
     1
102
RTVSPost2010Prop46
 90
       50
102
RTVSPost2010PropOp46
 70
     1
102
RTVSPost2010Prop47
 90
       50
102
RTVSPost2010PropOp47
 70
     1
102
RTVSPost2010Prop48
 90
       50
102
RTVSPost2010PropOp48
 70
     1
102
RTVSPost2010Prop49
280
     0
102
RTVSPost2010PropOp49
 70
     1
102
RTVSPost2010Prop50
 90
       50
102
RTVSPost2010PropOp50
 70
     1
102
RTVSPost2010Prop51ColorIndex
 90
      256
102
RTVSPost2010Prop51ColorRGB
 90
-16777216
102
RTVSPost2010PropOp51
 70
     0
102
RTVSPost2010Prop52
140
1.0
102
RTVSPost2010PropOp52
 70
     0
102
RTVSPost2010Prop53
 90
        2
102
RTVSPost2010PropOp53
 70
     1
102
RTVSPost2010Prop54
  1
strokes_ogs.tif
102
RTVSPost2010PropOp54
 70
     1
102
RTVSPost2010Prop55
280
     0
102
RTVSPost2010PropOp55
 70
     1
102
RTVSPost2010Prop56
140
1.0
102
RTVSPost2010PropOp56
 70
     1
102
RTVSPost2010Prop57
140
1.0
102
RTVSPost2010PropOp57
 70
     1
  0
XRECORD
  5
381
102
{ACAD_REACTORS
330
380
102
}
330
380
100
AcDbXrecord
280
     1
102
RTVSPropertyOp0
 70
     0
102
RTVSPropertyOp1
 70
     0
102
RTVSPropertyOp2
 70
     0
102
RTVSPropertyOp3
 70
     0
102
RTVSPropertyOp4
 70
     0
102
RTVSPropertyOp5
 70
     0
102
RTVSPropertyOp6
 70
     0
102
RTVSPropertyOp7
 70
     0
102
RTVSPropertyOp8
 70
     0
102
RTVSPropertyOp9
 70
     0
102
RTVSPropertyOp10
 70
     0
102
RTVSPropertyOp11
 70
     0
102
RTVSPropertyOp12
 70
     0
102
RTVSPropertyOp13
 70
     0
102
RTVSPropertyOp14
 70
     2
102
RTVSPropertyOp15
 70
     0
102
RTVSPropertyOp16
 70
     0
102
RTVSPropertyOp17
 70
     0
102
RTVSPropertyOp18
 70
     0
102
RTVSPropertyOp19
 70
     0
102
RTVSPropertyOp20
 70
     0
102
RTVSPropertyOp21
 70
     0
102
RTVSPropertyOp22
 70
     0
102
RTVSPropertyOp23
 70
     0
102
RTVSPropertyOp24
 70
     0
102
RTVSPropertyOp25
 70
     0
102
RTVSPropertyOp26
 70
     0
102
RTVSPropertyOp27
 70
     0
102
RTVSPropertyOp28
 70
     0
102
RTVSPropertyOp29
 70
     0
102
RTVSPropertyOp30
 70
     0
102
RTVSPropertyOp31
 70
     0
102
RTVSPropertyOp32
 70
     0
102
RTVSPropertyOp33
 70
     0
102
RTVSPropertyOp34
 70
     0
102
RTVSPropertyOp35
 70
     0
102
RTVSPropertyOp36
 70
     0
102
RTVSPropertyOp37
 70
     0
102
RTVSPropertyOp38
 70
     0
102
RTVSPropertyOp39
 70
     0
102
RTVSPropertyOp40
 70
     0
102
RTVSPropertyOp41
 70
     0
102
RTVSPropertyOp42
 70
     0
102
RTVSPropertyOp43
 70
     0
102
RTVSPropertyOp44
 70
     0
102
RTVSPropertyOp45
 70
     0
102
RTVSPropertyOp46
 70
     0
102
RTVSPropertyOp47
 70
     0
102
RTVSPropertyOp48
 70
     0
102
RTVSPropertyOp49
 70
     0
102
RTVSPropertyOp50
 70
     0
102
RTVSPropertyOp51
 70
     0
102
RTVSPropertyOp52
 70
     0
102
RTVSPropertyOp53
 70
     0
102
RTVSPropertyOp54
 70
     0
102
RTVSPropertyOp55
 70
     0
102
RTVSPropertyOp56
 70
     0
102
RTVSPropertyOp57
 70
     0
102
RTVSPost2010Prop28
280
     0
102
RTVSPost2010PropOp28
 70
     0
102
RTVSPost2010Prop29
280
     1
102
RTVSPost2010PropOp29
 70
     0
102
RTVSPost2010Prop30
280
     1
102
RTVSPost2010PropOp30
 70
     0
102
RTVSPost2010Prop31
280
     0
102
RTVSPost2010PropOp31
 70
     0
102
RTVSPost2010Prop32
280
     0
102
RTVSPost2010PropOp32
 70
     0
102
RTVSPost2010Prop33
280
     0
102
RTVSPost2010PropOp33
 70
     0
102
RTVSPost2010Prop34
280
     0
102
RTVSPost2010PropOp34
 70
     0
102
RTVSPost2010Prop35
280
     0
102
RTVSPost2010PropOp35
 70
     0
102
RTVSPost2010Prop36
280
     0
102
RTVSPost2010PropOp36
 70
     0
102
RTVSPost2010Prop37
 90
       50
102
RTVSPost2010PropOp37
 70
     0
102
RTVSPost2010Prop38
140
0.0
102
RTVSPost2010PropOp38
 70
     0
102
RTVSPost2010Prop39
140
1.0
102
RTVSPost2010PropOp39
 70
     0
102
RTVSPost2010Prop40
 90
        0
102
RTVSPost2010PropOp40
 70
     0
102
RTVSPost2010Prop41ColorIndex
 90
       18
102
RTVSPost2010Prop41ColorRGB
 90
        0
102
RTVSPost2010PropOp41
 70
     0
102
RTVSPost2010Prop42
 90
       50
102
RTVSPost2010PropOp42
 70
     0
102
RTVSPost2010Prop43
 90
        3
102
RTVSPost2010PropOp43
 70
     0
102
RTVSPost2010Prop44ColorIndex
 90
        5
102
RTVSPost2010Prop44ColorRGB
 90
      255
102
RTVSPost2010PropOp44
 70
     0
102
RTVSPost2010Prop45
280
     0
102
RTVSPost2010PropOp45
 70
     0
102
RTVSPost2010Prop46
 90
       50
102
RTVSPost2010PropOp46
 70
     0
102
RTVSPost2010Prop47
 90
       50
102
RTVSPost2010PropOp47
 70
     0
102
RTVSPost2010Prop48
 90
       50
102
RTVSPost2010PropOp48
 70
     0
102
RTVSPost2010Prop49
280
     0
102
RTVSPost2010PropOp49
 70
     0
102
RTVSPost2010Prop50
 90
       50
102
RTVSPost2010PropOp50
 70
     0
102
RTVSPost2010Prop51ColorIndex
 90
      256
102
RTVSPost2010Prop51ColorRGB
 90
-16777216
102
RTVSPost2010PropOp51
 70
     0
102
RTVSPost2010Prop52
140
1.0
102
RTVSPost2010PropOp52
 70
     0
102
RTVSPost2010Prop53
 90
        2
102
RTVSPost2010PropOp53
 70
     0
102
RTVSPost2010Prop54
  1
strokes_ogs.tif
102
RTVSPost2010PropOp54
 70
     0
102
RTVSPost2010Prop55
280
     0
102
RTVSPost2010PropOp55
 70
     0
102
RTVSPost2010Prop56
140
1.0
102
RTVSPost2010PropOp56
 70
     0
102
RTVSPost2010Prop57
140
1.0
102
RTVSPost2010PropOp57
 70
     0
  0
XRECORD
  5
36F
102
{ACAD_REACTORS
330
36E
102
}
330
36E
100
AcDbXrecord
280
     1
102
RTVSPropertyOp0
 70
     1
102
RTVSPropertyOp1
 70
     1
102
RTVSPropertyOp2
 70
     1
102
RTVSPropertyOp3
 70
     1
102
RTVSPropertyOp4
 70
     1
102
RTVSPropertyOp5
 70
     1
102
RTVSPropertyOp6
 70
     1
102
RTVSPropertyOp7
 70
     1
102
RTVSPropertyOp8
 70
     1
102
RTVSPropertyOp9
 70
     1
102
RTVSPropertyOp10
 70
     1
102
RTVSPropertyOp11
 70
     1
102
RTVSPropertyOp12
 70
     1
102
RTVSPropertyOp13
 70
     1
102
RTVSPropertyOp14
 70
     1
102
RTVSPropertyOp15
 70
     1
102
RTVSPropertyOp16
 70
     1
102
RTVSPropertyOp17
 70
     1
102
RTVSPropertyOp18
 70
     1
102
RTVSPropertyOp19
 70
     1
102
RTVSPropertyOp20
 70
     1
102
RTVSPropertyOp21
 70
     1
102
RTVSPropertyOp22
 70
     1
102
RTVSPropertyOp23
 70
     1
102
RTVSPropertyOp24
 70
     1
102
RTVSPropertyOp25
 70
     1
102
RTVSPropertyOp26
 70
     1
102
RTVSPropertyOp27
 70
     1
102
RTVSPropertyOp28
 70
     1
102
RTVSPropertyOp29
 70
     1
102
RTVSPropertyOp30
 70
     1
102
RTVSPropertyOp31
 70
     1
102
RTVSPropertyOp32
 70
     1
102
RTVSPropertyOp33
 70
     1
102
RTVSPropertyOp34
 70
     1
102
RTVSPropertyOp35
 70
     1
102
RTVSPropertyOp36
 70
     1
102
RTVSPropertyOp37
 70
     1
102
RTVSPropertyOp38
 70
     1
102
RTVSPropertyOp39
 70
     1
102
RTVSPropertyOp40
 70
     1
102
RTVSPropertyOp41
 70
     1
102
RTVSPropertyOp42
 70
     1
102
RTVSPropertyOp43
 70
     1
102
RTVSPropertyOp44
 70
     1
102
RTVSPropertyOp45
 70
     1
102
RTVSPropertyOp46
 70
     1
102
RTVSPropertyOp47
 70
     1
102
RTVSPropertyOp48
 70
     1
102
RTVSPropertyOp49
 70
     1
102
RTVSPropertyOp50
 70
     1
102
RTVSPropertyOp51
 70
     0
102
RTVSPropertyOp52
 70
     0
102
RTVSPropertyOp53
 70
     1
102
RTVSPropertyOp54
 70
     1
102
RTVSPropertyOp55
 70
     1
102
RTVSPropertyOp56
 70
     1
102
RTVSPropertyOp57
 70
     1
102
RTVSPost2010Prop28
280
     0
102
RTVSPost2010PropOp28
 70
     1
102
RTVSPost2010Prop29
280
     1
102
RTVSPost2010PropOp29
 70
     1
102
RTVSPost2010Prop30
280
     1
102
RTVSPost2010PropOp30
 70
     1
102
RTVSPost2010Prop31
280
     0
102
RTVSPost2010PropOp31
 70
     1
102
RTVSPost2010Prop32
280
     0
102
RTVSPost2010PropOp32
 70
     1
102
RTVSPost2010Prop33
280
     0
102
RTVSPost2010PropOp33
 70
     1
102
RTVSPost2010Prop34
280
     0
102
RTVSPost2010PropOp34
 70
     1
102
RTVSPost2010Prop35
280
     0
102
RTVSPost2010PropOp35
 70
     1
102
RTVSPost2010Prop36
280
     0
102
RTVSPost2010PropOp36
 70
     1
102
RTVSPost2010Prop37
 90
       50
102
RTVSPost2010PropOp37
 70
     1
102
RTVSPost2010Prop38
140
0.0
102
RTVSPost2010PropOp38
 70
     1
102
RTVSPost2010Prop39
140
1.0
102
RTVSPost2010PropOp39
 70
     1
102
RTVSPost2010Prop40
 90
        0
102
RTVSPost2010PropOp40
 70
     1
102
RTVSPost2010Prop41ColorIndex
 90
       18
102
RTVSPost2010Prop41ColorRGB
 90
        0
102
RTVSPost2010PropOp41
 70
     1
102
RTVSPost2010Prop42
 90
       50
102
RTVSPost2010PropOp42
 70
     1
102
RTVSPost2010Prop43
 90
        3
102
RTVSPost2010PropOp43
 70
     1
102
RTVSPost2010Prop44ColorIndex
 90
        5
102
RTVSPost2010Prop44ColorRGB
 90
      255
102
RTVSPost2010PropOp44
 70
     1
102
RTVSPost2010Prop45
280
     0
102
RTVSPost2010PropOp45
 70
     1
102
RTVSPost2010Prop46
 90
       50
102
RTVSPost2010PropOp46
 70
     1
102
RTVSPost2010Prop47
 90
       50
102
RTVSPost2010PropOp47
 70
     1
102
RTVSPost2010Prop48
 90
       50
102
RTVSPost2010PropOp48
 70
     1
102
RTVSPost2010Prop49
280
     0
102
RTVSPost2010PropOp49
 70
     1
102
RTVSPost2010Prop50
 90
       50
102
RTVSPost2010PropOp50
 70
     1
102
RTVSPost2010Prop51ColorIndex
 90
      256
102
RTVSPost2010Prop51ColorRGB
 90
-16777216
102
RTVSPost2010PropOp51
 70
     0
102
RTVSPost2010Prop52
140
1.0
102
RTVSPost2010PropOp52
 70
     0
102
RTVSPost2010Prop53
 90
        2
102
RTVSPost2010PropOp53
 70
     1
102
RTVSPost2010Prop54
  1
strokes_ogs.tif
102
RTVSPost2010PropOp54
 70
     1
102
RTVSPost2010Prop55
280
     0
102
RTVSPost2010PropOp55
 70
     1
102
RTVSPost2010Prop56
140
1.0
102
RTVSPost2010PropOp56
 70
     1
102
RTVSPost2010Prop57
140
1.0
102
RTVSPost2010PropOp57
 70
     1
  0
XRECORD
  5
38D
102
{ACAD_REACTORS
330
38C
102
}
330
38C
100
AcDbXrecord
280
     1
102
RTVSPropertyOp0
 70
     1
102
RTVSPropertyOp1
 70
     1
102
RTVSPropertyOp2
 70
     1
102
RTVSPropertyOp3
 70
     1
102
RTVSPropertyOp4
 70
     1
102
RTVSPropertyOp5
 70
     1
102
RTVSPropertyOp6
 70
     1
102
RTVSPropertyOp7
 70
     1
102
RTVSPropertyOp8
 70
     1
102
RTVSPropertyOp9
 70
     1
102
RTVSPropertyOp10
 70
     1
102
RTVSPropertyOp11
 70
     1
102
RTVSPropertyOp12
 70
     1
102
RTVSPropertyOp13
 70
     1
102
RTVSPropertyOp14
 70
     1
102
RTVSPropertyOp15
 70
     1
102
RTVSPropertyOp16
 70
     1
102
RTVSPropertyOp17
 70
     1
102
RTVSPropertyOp18
 70
     1
102
RTVSPropertyOp19
 70
     1
102
RTVSPropertyOp20
 70
     1
102
RTVSPropertyOp21
 70
     1
102
RTVSPropertyOp22
 70
     1
102
RTVSPropertyOp23
 70
     1
102
RTVSPropertyOp24
 70
     1
102
RTVSPropertyOp25
 70
     1
102
RTVSPropertyOp26
 70
     1
102
RTVSPropertyOp27
 70
     1
102
RTVSPropertyOp28
 70
     1
102
RTVSPropertyOp29
 70
     1
102
RTVSPropertyOp30
 70
     1
102
RTVSPropertyOp31
 70
     1
102
RTVSPropertyOp32
 70
     1
102
RTVSPropertyOp33
 70
     1
102
RTVSPropertyOp34
 70
     1
102
RTVSPropertyOp35
 70
     1
102
RTVSPropertyOp36
 70
     1
102
RTVSPropertyOp37
 70
     1
102
RTVSPropertyOp38
 70
     1
102
RTVSPropertyOp39
 70
     1
102
RTVSPropertyOp40
 70
     1
102
RTVSPropertyOp41
 70
     1
102
RTVSPropertyOp42
 70
     1
102
RTVSPropertyOp43
 70
     1
102
RTVSPropertyOp44
 70
     1
102
RTVSPropertyOp45
 70
     1
102
RTVSPropertyOp46
 70
     1
102
RTVSPropertyOp47
 70
     1
102
RTVSPropertyOp48
 70
     1
102
RTVSPropertyOp49
 70
     1
102
RTVSPropertyOp50
 70
     1
102
RTVSPropertyOp51
 70
     0
102
RTVSPropertyOp52
 70
     0
102
RTVSPropertyOp53
 70
     1
102
RTVSPropertyOp54
 70
     1
102
RTVSPropertyOp55
 70
     1
102
RTVSPropertyOp56
 70
     1
102
RTVSPropertyOp57
 70
     1
102
RTVSPost2010Prop28
280
     0
102
RTVSPost2010PropOp28
 70
     1
102
RTVSPost2010Prop29
280
     1
102
RTVSPost2010PropOp29
 70
     1
102
RTVSPost2010Prop30
280
     1
102
RTVSPost2010PropOp30
 70
     1
102
RTVSPost2010Prop31
280
     0
102
RTVSPost2010PropOp31
 70
     1
102
RTVSPost2010Prop32
280
     0
102
RTVSPost2010PropOp32
 70
     1
102
RTVSPost2010Prop33
280
     0
102
RTVSPost2010PropOp33
 70
     1
102
RTVSPost2010Prop34
280
     0
102
RTVSPost2010PropOp34
 70
     1
102
RTVSPost2010Prop35
280
     0
102
RTVSPost2010PropOp35
 70
     1
102
RTVSPost2010Prop36
280
     0
102
RTVSPost2010PropOp36
 70
     1
102
RTVSPost2010Prop37
 90
       50
102
RTVSPost2010PropOp37
 70
     1
102
RTVSPost2010Prop38
140
0.0
102
RTVSPost2010PropOp38
 70
     1
102
RTVSPost2010Prop39
140
1.0
102
RTVSPost2010PropOp39
 70
     1
102
RTVSPost2010Prop40
 90
        0
102
RTVSPost2010PropOp40
 70
     1
102
RTVSPost2010Prop41ColorIndex
 90
       18
102
RTVSPost2010Prop41ColorRGB
 90
        0
102
RTVSPost2010PropOp41
 70
     1
102
RTVSPost2010Prop42
 90
       50
102
RTVSPost2010PropOp42
 70
     1
102
RTVSPost2010Prop43
 90
        3
102
RTVSPost2010PropOp43
 70
     1
102
RTVSPost2010Prop44ColorIndex
 90
        5
102
RTVSPost2010Prop44ColorRGB
 90
      255
102
RTVSPost2010PropOp44
 70
     1
102
RTVSPost2010Prop45
280
     0
102
RTVSPost2010PropOp45
 70
     1
102
RTVSPost2010Prop46
 90
       50
102
RTVSPost2010PropOp46
 70
     1
102
RTVSPost2010Prop47
 90
       50
102
RTVSPost2010PropOp47
 70
     1
102
RTVSPost2010Prop48
 90
       50
102
RTVSPost2010PropOp48
 70
     1
102
RTVSPost2010Prop49
280
     0
102
RTVSPost2010PropOp49
 70
     1
102
RTVSPost2010Prop50
 90
       50
102
RTVSPost2010PropOp50
 70
     1
102
RTVSPost2010Prop51ColorIndex
 90
      256
102
RTVSPost2010Prop51ColorRGB
 90
-16777216
102
RTVSPost2010PropOp51
 70
     0
102
RTVSPost2010Prop52
140
1.0
102
RTVSPost2010PropOp52
 70
     0
102
RTVSPost2010Prop53
 90
        2
102
RTVSPost2010PropOp53
 70
     1
102
RTVSPost2010Prop54
  1
strokes_ogs.tif
102
RTVSPost2010PropOp54
 70
     1
102
RTVSPost2010Prop55
280
     0
102
RTVSPost2010PropOp55
 70
     1
102
RTVSPost2010Prop56
140
1.0
102
RTVSPost2010PropOp56
 70
     1
102
RTVSPost2010Prop57
140
1.0
102
RTVSPost2010PropOp57
 70
     1
  0
XRECORD
  5
38B
102
{ACAD_REACTORS
330
38A
102
}
330
38A
100
AcDbXrecord
280
     1
102
RTVSPropertyOp0
 70
     1
102
RTVSPropertyOp1
 70
     1
102
RTVSPropertyOp2
 70
     1
102
RTVSPropertyOp3
 70
     1
102
RTVSPropertyOp4
 70
     1
102
RTVSPropertyOp5
 70
     1
102
RTVSPropertyOp6
 70
     1
102
RTVSPropertyOp7
 70
     1
102
RTVSPropertyOp8
 70
     1
102
RTVSPropertyOp9
 70
     1
102
RTVSPropertyOp10
 70
     1
102
RTVSPropertyOp11
 70
     1
102
RTVSPropertyOp12
 70
     1
102
RTVSPropertyOp13
 70
     1
102
RTVSPropertyOp14
 70
     1
102
RTVSPropertyOp15
 70
     1
102
RTVSPropertyOp16
 70
     1
102
RTVSPropertyOp17
 70
     1
102
RTVSPropertyOp18
 70
     1
102
RTVSPropertyOp19
 70
     1
102
RTVSPropertyOp20
 70
     1
102
RTVSPropertyOp21
 70
     1
102
RTVSPropertyOp22
 70
     1
102
RTVSPropertyOp23
 70
     1
102
RTVSPropertyOp24
 70
     1
102
RTVSPropertyOp25
 70
     1
102
RTVSPropertyOp26
 70
     1
102
RTVSPropertyOp27
 70
     1
102
RTVSPropertyOp28
 70
     1
102
RTVSPropertyOp29
 70
     1
102
RTVSPropertyOp30
 70
     1
102
RTVSPropertyOp31
 70
     1
102
RTVSPropertyOp32
 70
     1
102
RTVSPropertyOp33
 70
     1
102
RTVSPropertyOp34
 70
     1
102
RTVSPropertyOp35
 70
     1
102
RTVSPropertyOp36
 70
     1
102
RTVSPropertyOp37
 70
     1
102
RTVSPropertyOp38
 70
     1
102
RTVSPropertyOp39
 70
     1
102
RTVSPropertyOp40
 70
     1
102
RTVSPropertyOp41
 70
     1
102
RTVSPropertyOp42
 70
     1
102
RTVSPropertyOp43
 70
     1
102
RTVSPropertyOp44
 70
     1
102
RTVSPropertyOp45
 70
     1
102
RTVSPropertyOp46
 70
     1
102
RTVSPropertyOp47
 70
     1
102
RTVSPropertyOp48
 70
     1
102
RTVSPropertyOp49
 70
     1
102
RTVSPropertyOp50
 70
     1
102
RTVSPropertyOp51
 70
     0
102
RTVSPropertyOp52
 70
     0
102
RTVSPropertyOp53
 70
     1
102
RTVSPropertyOp54
 70
     1
102
RTVSPropertyOp55
 70
     1
102
RTVSPropertyOp56
 70
     1
102
RTVSPropertyOp57
 70
     1
102
RTVSPost2010Prop28
280
     0
102
RTVSPost2010PropOp28
 70
     1
102
RTVSPost2010Prop29
280
     1
102
RTVSPost2010PropOp29
 70
     1
102
RTVSPost2010Prop30
280
     1
102
RTVSPost2010PropOp30
 70
     1
102
RTVSPost2010Prop31
280
     0
102
RTVSPost2010PropOp31
 70
     1
102
RTVSPost2010Prop32
280
     0
102
RTVSPost2010PropOp32
 70
     1
102
RTVSPost2010Prop33
280
     0
102
RTVSPost2010PropOp33
 70
     1
102
RTVSPost2010Prop34
280
     0
102
RTVSPost2010PropOp34
 70
     1
102
RTVSPost2010Prop35
280
     0
102
RTVSPost2010PropOp35
 70
     1
102
RTVSPost2010Prop36
280
     0
102
RTVSPost2010PropOp36
 70
     1
102
RTVSPost2010Prop37
 90
       50
102
RTVSPost2010PropOp37
 70
     1
102
RTVSPost2010Prop38
140
0.0
102
RTVSPost2010PropOp38
 70
     1
102
RTVSPost2010Prop39
140
1.0
102
RTVSPost2010PropOp39
 70
     1
102
RTVSPost2010Prop40
 90
        0
102
RTVSPost2010PropOp40
 70
     1
102
RTVSPost2010Prop41ColorIndex
 90
       18
102
RTVSPost2010Prop41ColorRGB
 90
        0
102
RTVSPost2010PropOp41
 70
     1
102
RTVSPost2010Prop42
 90
       50
102
RTVSPost2010PropOp42
 70
     1
102
RTVSPost2010Prop43
 90
        3
102
RTVSPost2010PropOp43
 70
     1
102
RTVSPost2010Prop44ColorIndex
 90
        5
102
RTVSPost2010Prop44ColorRGB
 90
      255
102
RTVSPost2010PropOp44
 70
     1
102
RTVSPost2010Prop45
280
     0
102
RTVSPost2010PropOp45
 70
     1
102
RTVSPost2010Prop46
 90
       50
102
RTVSPost2010PropOp46
 70
     1
102
RTVSPost2010Prop47
 90
       50
102
RTVSPost2010PropOp47
 70
     1
102
RTVSPost2010Prop48
 90
       50
102
RTVSPost2010PropOp48
 70
     1
102
RTVSPost2010Prop49
280
     0
102
RTVSPost2010PropOp49
 70
     1
102
RTVSPost2010Prop50
 90
       50
102
RTVSPost2010PropOp50
 70
     1
102
RTVSPost2010Prop51ColorIndex
 90
      256
102
RTVSPost2010Prop51ColorRGB
 90
-16777216
102
RTVSPost2010PropOp51
 70
     0
102
RTVSPost2010Prop52
140
1.0
102
RTVSPost2010PropOp52
 70
     0
102
RTVSPost2010Prop53
 90
        2
102
RTVSPost2010PropOp53
 70
     1
102
RTVSPost2010Prop54
  1
strokes_ogs.tif
102
RTVSPost2010PropOp54
 70
     1
102
RTVSPost2010Prop55
280
     0
102
RTVSPost2010PropOp55
 70
     1
102
RTVSPost2010Prop56
140
1.0
102
RTVSPost2010PropOp56
 70
     1
102
RTVSPost2010Prop57
140
1.0
102
RTVSPost2010PropOp57
 70
     1
  0
XRECORD
  5
385
102
{ACAD_REACTORS
330
384
102
}
330
384
100
AcDbXrecord
280
     1
102
RTVSPropertyOp0
 70
     1
102
RTVSPropertyOp1
 70
     1
102
RTVSPropertyOp2
 70
     1
102
RTVSPropertyOp3
 70
     1
102
RTVSPropertyOp4
 70
     1
102
RTVSPropertyOp5
 70
     1
102
RTVSPropertyOp6
 70
     1
102
RTVSPropertyOp7
 70
     1
102
RTVSPropertyOp8
 70
     1
102
RTVSPropertyOp9
 70
     1
102
RTVSPropertyOp10
 70
     1
102
RTVSPropertyOp11
 70
     1
102
RTVSPropertyOp12
 70
     1
102
RTVSPropertyOp13
 70
     1
102
RTVSPropertyOp14
 70
     1
102
RTVSPropertyOp15
 70
     1
102
RTVSPropertyOp16
 70
     1
102
RTVSPropertyOp17
 70
     1
102
RTVSPropertyOp18
 70
     1
102
RTVSPropertyOp19
 70
     1
102
RTVSPropertyOp20
 70
     1
102
RTVSPropertyOp21
 70
     1
102
RTVSPropertyOp22
 70
     1
102
RTVSPropertyOp23
 70
     1
102
RTVSPropertyOp24
 70
     1
102
RTVSPropertyOp25
 70
     1
102
RTVSPropertyOp26
 70
     1
102
RTVSPropertyOp27
 70
     1
102
RTVSPropertyOp28
 70
     1
102
RTVSPropertyOp29
 70
     1
102
RTVSPropertyOp30
 70
     1
102
RTVSPropertyOp31
 70
     1
102
RTVSPropertyOp32
 70
     1
102
RTVSPropertyOp33
 70
     1
102
RTVSPropertyOp34
 70
     1
102
RTVSPropertyOp35
 70
     1
102
RTVSPropertyOp36
 70
     1
102
RTVSPropertyOp37
 70
     1
102
RTVSPropertyOp38
 70
     1
102
RTVSPropertyOp39
 70
     1
102
RTVSPropertyOp40
 70
     1
102
RTVSPropertyOp41
 70
     1
102
RTVSPropertyOp42
 70
     1
102
RTVSPropertyOp43
 70
     1
102
RTVSPropertyOp44
 70
     1
102
RTVSPropertyOp45
 70
     1
102
RTVSPropertyOp46
 70
     1
102
RTVSPropertyOp47
 70
     1
102
RTVSPropertyOp48
 70
     1
102
RTVSPropertyOp49
 70
     1
102
RTVSPropertyOp50
 70
     1
102
RTVSPropertyOp51
 70
     0
102
RTVSPropertyOp52
 70
     0
102
RTVSPropertyOp53
 70
     1
102
RTVSPropertyOp54
 70
     1
102
RTVSPropertyOp55
 70
     1
102
RTVSPropertyOp56
 70
     1
102
RTVSPropertyOp57
 70
     1
102
RTVSPost2010Prop28
280
     0
102
RTVSPost2010PropOp28
 70
     1
102
RTVSPost2010Prop29
280
     1
102
RTVSPost2010PropOp29
 70
     1
102
RTVSPost2010Prop30
280
     1
102
RTVSPost2010PropOp30
 70
     1
102
RTVSPost2010Prop31
280
     0
102
RTVSPost2010PropOp31
 70
     1
102
RTVSPost2010Prop32
280
     0
102
RTVSPost2010PropOp32
 70
     1
102
RTVSPost2010Prop33
280
     0
102
RTVSPost2010PropOp33
 70
     1
102
RTVSPost2010Prop34
280
     0
102
RTVSPost2010PropOp34
 70
     1
102
RTVSPost2010Prop35
280
     0
102
RTVSPost2010PropOp35
 70
     1
102
RTVSPost2010Prop36
280
     0
102
RTVSPost2010PropOp36
 70
     1
102
RTVSPost2010Prop37
 90
       50
102
RTVSPost2010PropOp37
 70
     1
102
RTVSPost2010Prop38
140
0.0
102
RTVSPost2010PropOp38
 70
     1
102
RTVSPost2010Prop39
140
1.0
102
RTVSPost2010PropOp39
 70
     1
102
RTVSPost2010Prop40
 90
        0
102
RTVSPost2010PropOp40
 70
     1
102
RTVSPost2010Prop41ColorIndex
 90
       18
102
RTVSPost2010Prop41ColorRGB
 90
        0
102
RTVSPost2010PropOp41
 70
     1
102
RTVSPost2010Prop42
 90
       50
102
RTVSPost2010PropOp42
 70
     1
102
RTVSPost2010Prop43
 90
        3
102
RTVSPost2010PropOp43
 70
     1
102
RTVSPost2010Prop44ColorIndex
 90
        5
102
RTVSPost2010Prop44ColorRGB
 90
      255
102
RTVSPost2010PropOp44
 70
     1
102
RTVSPost2010Prop45
280
     0
102
RTVSPost2010PropOp45
 70
     1
102
RTVSPost2010Prop46
 90
       50
102
RTVSPost2010PropOp46
 70
     1
102
RTVSPost2010Prop47
 90
       50
102
RTVSPost2010PropOp47
 70
     1
102
RTVSPost2010Prop48
 90
       50
102
RTVSPost2010PropOp48
 70
     1
102
RTVSPost2010Prop49
280
     0
102
RTVSPost2010PropOp49
 70
     1
102
RTVSPost2010Prop50
 90
       50
102
RTVSPost2010PropOp50
 70
     1
102
RTVSPost2010Prop51ColorIndex
 90
      256
102
RTVSPost2010Prop51ColorRGB
 90
-16777216
102
RTVSPost2010PropOp51
 70
     0
102
RTVSPost2010Prop52
140
1.0
102
RTVSPost2010PropOp52
 70
     0
102
RTVSPost2010Prop53
 90
        2
102
RTVSPost2010PropOp53
 70
     1
102
RTVSPost2010Prop54
  1
strokes_ogs.tif
102
RTVSPost2010PropOp54
 70
     1
102
RTVSPost2010Prop55
280
     0
102
RTVSPost2010PropOp55
 70
     1
102
RTVSPost2010Prop56
140
1.0
102
RTVSPost2010PropOp56
 70
     1
102
RTVSPost2010Prop57
140
1.0
102
RTVSPost2010PropOp57
 70
     1
  0
XRECORD
  5
387
102
{ACAD_REACTORS
330
386
102
}
330
386
100
AcDbXrecord
280
     1
102
RTVSPropertyOp0
 70
     1
102
RTVSPropertyOp1
 70
     1
102
RTVSPropertyOp2
 70
     1
102
RTVSPropertyOp3
 70
     1
102
RTVSPropertyOp4
 70
     1
102
RTVSPropertyOp5
 70
     1
102
RTVSPropertyOp6
 70
     1
102
RTVSPropertyOp7
 70
     1
102
RTVSPropertyOp8
 70
     1
102
RTVSPropertyOp9
 70
     1
102
RTVSPropertyOp10
 70
     1
102
RTVSPropertyOp11
 70
     1
102
RTVSPropertyOp12
 70
     1
102
RTVSPropertyOp13
 70
     1
102
RTVSPropertyOp14
 70
     1
102
RTVSPropertyOp15
 70
     1
102
RTVSPropertyOp16
 70
     1
102
RTVSPropertyOp17
 70
     1
102
RTVSPropertyOp18
 70
     1
102
RTVSPropertyOp19
 70
     1
102
RTVSPropertyOp20
 70
     1
102
RTVSPropertyOp21
 70
     1
102
RTVSPropertyOp22
 70
     1
102
RTVSPropertyOp23
 70
     1
102
RTVSPropertyOp24
 70
     1
102
RTVSPropertyOp25
 70
     1
102
RTVSPropertyOp26
 70
     1
102
RTVSPropertyOp27
 70
     1
102
RTVSPropertyOp28
 70
     1
102
RTVSPropertyOp29
 70
     1
102
RTVSPropertyOp30
 70
     1
102
RTVSPropertyOp31
 70
     1
102
RTVSPropertyOp32
 70
     1
102
RTVSPropertyOp33
 70
     1
102
RTVSPropertyOp34
 70
     1
102
RTVSPropertyOp35
 70
     1
102
RTVSPropertyOp36
 70
     1
102
RTVSPropertyOp37
 70
     1
102
RTVSPropertyOp38
 70
     1
102
RTVSPropertyOp39
 70
     1
102
RTVSPropertyOp40
 70
     1
102
RTVSPropertyOp41
 70
     1
102
RTVSPropertyOp42
 70
     1
102
RTVSPropertyOp43
 70
     1
102
RTVSPropertyOp44
 70
     1
102
RTVSPropertyOp45
 70
     1
102
RTVSPropertyOp46
 70
     1
102
RTVSPropertyOp47
 70
     1
102
RTVSPropertyOp48
 70
     1
102
RTVSPropertyOp49
 70
     1
102
RTVSPropertyOp50
 70
     1
102
RTVSPropertyOp51
 70
     0
102
RTVSPropertyOp52
 70
     0
102
RTVSPropertyOp53
 70
     1
102
RTVSPropertyOp54
 70
     1
102
RTVSPropertyOp55
 70
     1
102
RTVSPropertyOp56
 70
     1
102
RTVSPropertyOp57
 70
     1
102
RTVSPost2010Prop28
280
     0
102
RTVSPost2010PropOp28
 70
     1
102
RTVSPost2010Prop29
280
     1
102
RTVSPost2010PropOp29
 70
     1
102
RTVSPost2010Prop30
280
     1
102
RTVSPost2010PropOp30
 70
     1
102
RTVSPost2010Prop31
280
     0
102
RTVSPost2010PropOp31
 70
     1
102
RTVSPost2010Prop32
280
     0
102
RTVSPost2010PropOp32
 70
     1
102
RTVSPost2010Prop33
280
     0
102
RTVSPost2010PropOp33
 70
     1
102
RTVSPost2010Prop34
280
     0
102
RTVSPost2010PropOp34
 70
     1
102
RTVSPost2010Prop35
280
     0
102
RTVSPost2010PropOp35
 70
     1
102
RTVSPost2010Prop36
280
     0
102
RTVSPost2010PropOp36
 70
     1
102
RTVSPost2010Prop37
 90
       50
102
RTVSPost2010PropOp37
 70
     1
102
RTVSPost2010Prop38
140
0.0
102
RTVSPost2010PropOp38
 70
     1
102
RTVSPost2010Prop39
140
1.0
102
RTVSPost2010PropOp39
 70
     1
102
RTVSPost2010Prop40
 90
        0
102
RTVSPost2010PropOp40
 70
     1
102
RTVSPost2010Prop41ColorIndex
 90
       18
102
RTVSPost2010Prop41ColorRGB
 90
        0
102
RTVSPost2010PropOp41
 70
     1
102
RTVSPost2010Prop42
 90
       50
102
RTVSPost2010PropOp42
 70
     1
102
RTVSPost2010Prop43
 90
        3
102
RTVSPost2010PropOp43
 70
     1
102
RTVSPost2010Prop44ColorIndex
 90
        5
102
RTVSPost2010Prop44ColorRGB
 90
      255
102
RTVSPost2010PropOp44
 70
     1
102
RTVSPost2010Prop45
280
     0
102
RTVSPost2010PropOp45
 70
     1
102
RTVSPost2010Prop46
 90
       50
102
RTVSPost2010PropOp46
 70
     1
102
RTVSPost2010Prop47
 90
       50
102
RTVSPost2010PropOp47
 70
     1
102
RTVSPost2010Prop48
 90
       50
102
RTVSPost2010PropOp48
 70
     1
102
RTVSPost2010Prop49
280
     0
102
RTVSPost2010PropOp49
 70
     1
102
RTVSPost2010Prop50
 90
       50
102
RTVSPost2010PropOp50
 70
     1
102
RTVSPost2010Prop51ColorIndex
 90
      256
102
RTVSPost2010Prop51ColorRGB
 90
-16777216
102
RTVSPost2010PropOp51
 70
     0
102
RTVSPost2010Prop52
140
1.0
102
RTVSPost2010PropOp52
 70
     0
102
RTVSPost2010Prop53
 90
        2
102
RTVSPost2010PropOp53
 70
     1
102
RTVSPost2010Prop54
  1
strokes_ogs.tif
102
RTVSPost2010PropOp54
 70
     1
102
RTVSPost2010Prop55
280
     0
102
RTVSPost2010PropOp55
 70
     1
102
RTVSPost2010Prop56
140
1.0
102
RTVSPost2010PropOp56
 70
     1
102
RTVSPost2010Prop57
140
1.0
102
RTVSPost2010PropOp57
 70
     1
  0
XRECORD
  5
377
102
{ACAD_REACTORS
330
376
102
}
330
376
100
AcDbXrecord
280
     1
102
RTVSPropertyOp0
 70
     1
102
RTVSPropertyOp1
 70
     1
102
RTVSPropertyOp2
 70
     1
102
RTVSPropertyOp3
 70
     1
102
RTVSPropertyOp4
 70
     1
102
RTVSPropertyOp5
 70
     1
102
RTVSPropertyOp6
 70
     1
102
RTVSPropertyOp7
 70
     1
102
RTVSPropertyOp8
 70
     1
102
RTVSPropertyOp9
 70
     1
102
RTVSPropertyOp10
 70
     1
102
RTVSPropertyOp11
 70
     1
102
RTVSPropertyOp12
 70
     1
102
RTVSPropertyOp13
 70
     1
102
RTVSPropertyOp14
 70
     1
102
RTVSPropertyOp15
 70
     1
102
RTVSPropertyOp16
 70
     1
102
RTVSPropertyOp17
 70
     1
102
RTVSPropertyOp18
 70
     1
102
RTVSPropertyOp19
 70
     1
102
RTVSPropertyOp20
 70
     1
102
RTVSPropertyOp21
 70
     1
102
RTVSPropertyOp22
 70
     1
102
RTVSPropertyOp23
 70
     1
102
RTVSPropertyOp24
 70
     1
102
RTVSPropertyOp25
 70
     1
102
RTVSPropertyOp26
 70
     1
102
RTVSPropertyOp27
 70
     1
102
RTVSPropertyOp28
 70
     1
102
RTVSPropertyOp29
 70
     1
102
RTVSPropertyOp30
 70
     1
102
RTVSPropertyOp31
 70
     1
102
RTVSPropertyOp32
 70
     1
102
RTVSPropertyOp33
 70
     1
102
RTVSPropertyOp34
 70
     1
102
RTVSPropertyOp35
 70
     1
102
RTVSPropertyOp36
 70
     1
102
RTVSPropertyOp37
 70
     1
102
RTVSPropertyOp38
 70
     1
102
RTVSPropertyOp39
 70
     1
102
RTVSPropertyOp40
 70
     1
102
RTVSPropertyOp41
 70
     1
102
RTVSPropertyOp42
 70
     1
102
RTVSPropertyOp43
 70
     1
102
RTVSPropertyOp44
 70
     1
102
RTVSPropertyOp45
 70
     1
102
RTVSPropertyOp46
 70
     1
102
RTVSPropertyOp47
 70
     1
102
RTVSPropertyOp48
 70
     1
102
RTVSPropertyOp49
 70
     1
102
RTVSPropertyOp50
 70
     1
102
RTVSPropertyOp51
 70
     0
102
RTVSPropertyOp52
 70
     0
102
RTVSPropertyOp53
 70
     1
102
RTVSPropertyOp54
 70
     1
102
RTVSPropertyOp55
 70
     1
102
RTVSPropertyOp56
 70
     1
102
RTVSPropertyOp57
 70
     1
102
RTVSPost2010Prop28
280
     0
102
RTVSPost2010PropOp28
 70
     1
102
RTVSPost2010Prop29
280
     1
102
RTVSPost2010PropOp29
 70
     1
102
RTVSPost2010Prop30
280
     1
102
RTVSPost2010PropOp30
 70
     1
102
RTVSPost2010Prop31
280
     0
102
RTVSPost2010PropOp31
 70
     1
102
RTVSPost2010Prop32
280
     0
102
RTVSPost2010PropOp32
 70
     1
102
RTVSPost2010Prop33
280
     0
102
RTVSPost2010PropOp33
 70
     1
102
RTVSPost2010Prop34
280
     0
102
RTVSPost2010PropOp34
 70
     1
102
RTVSPost2010Prop35
280
     0
102
RTVSPost2010PropOp35
 70
     1
102
RTVSPost2010Prop36
280
     0
102
RTVSPost2010PropOp36
 70
     1
102
RTVSPost2010Prop37
 90
       50
102
RTVSPost2010PropOp37
 70
     1
102
RTVSPost2010Prop38
140
0.0
102
RTVSPost2010PropOp38
 70
     1
102
RTVSPost2010Prop39
140
1.0
102
RTVSPost2010PropOp39
 70
     1
102
RTVSPost2010Prop40
 90
        0
102
RTVSPost2010PropOp40
 70
     1
102
RTVSPost2010Prop41ColorIndex
 90
       18
102
RTVSPost2010Prop41ColorRGB
 90
        0
102
RTVSPost2010PropOp41
 70
     1
102
RTVSPost2010Prop42
 90
       50
102
RTVSPost2010PropOp42
 70
     1
102
RTVSPost2010Prop43
 90
        3
102
RTVSPost2010PropOp43
 70
     1
102
RTVSPost2010Prop44ColorIndex
 90
        5
102
RTVSPost2010Prop44ColorRGB
 90
      255
102
RTVSPost2010PropOp44
 70
     1
102
RTVSPost2010Prop45
280
     0
102
RTVSPost2010PropOp45
 70
     1
102
RTVSPost2010Prop46
 90
       50
102
RTVSPost2010PropOp46
 70
     1
102
RTVSPost2010Prop47
 90
       50
102
RTVSPost2010PropOp47
 70
     1
102
RTVSPost2010Prop48
 90
       50
102
RTVSPost2010PropOp48
 70
     1
102
RTVSPost2010Prop49
280
     0
102
RTVSPost2010PropOp49
 70
     1
102
RTVSPost2010Prop50
 90
       50
102
RTVSPost2010PropOp50
 70
     1
102
RTVSPost2010Prop51ColorIndex
 90
      256
102
RTVSPost2010Prop51ColorRGB
 90
-16777216
102
RTVSPost2010PropOp51
 70
     0
102
RTVSPost2010Prop52
140
1.0
102
RTVSPost2010PropOp52
 70
     0
102
RTVSPost2010Prop53
 90
        2
102
RTVSPost2010PropOp53
 70
     1
102
RTVSPost2010Prop54
  1
strokes_ogs.tif
102
RTVSPost2010PropOp54
 70
     1
102
RTVSPost2010Prop55
280
     0
102
RTVSPost2010PropOp55
 70
     1
102
RTVSPost2010Prop56
140
1.0
102
RTVSPost2010PropOp56
 70
     1
102
RTVSPost2010Prop57
140
1.0
102
RTVSPost2010PropOp57
 70
     1
  0
XRECORD
  5
369
102
{ACAD_REACTORS
330
368
102
}
330
368
100
AcDbXrecord
280
     1
102
RTVSPropertyOp0
 70
     1
102
RTVSPropertyOp1
 70
     1
102
RTVSPropertyOp2
 70
     1
102
RTVSPropertyOp3
 70
     1
102
RTVSPropertyOp4
 70
     1
102
RTVSPropertyOp5
 70
     1
102
RTVSPropertyOp6
 70
     1
102
RTVSPropertyOp7
 70
     1
102
RTVSPropertyOp8
 70
     1
102
RTVSPropertyOp9
 70
     1
102
RTVSPropertyOp10
 70
     1
102
RTVSPropertyOp11
 70
     1
102
RTVSPropertyOp12
 70
     1
102
RTVSPropertyOp13
 70
     1
102
RTVSPropertyOp14
 70
     1
102
RTVSPropertyOp15
 70
     1
102
RTVSPropertyOp16
 70
     1
102
RTVSPropertyOp17
 70
     1
102
RTVSPropertyOp18
 70
     1
102
RTVSPropertyOp19
 70
     1
102
RTVSPropertyOp20
 70
     1
102
RTVSPropertyOp21
 70
     1
102
RTVSPropertyOp22
 70
     1
102
RTVSPropertyOp23
 70
     1
102
RTVSPropertyOp24
 70
     1
102
RTVSPropertyOp25
 70
     1
102
RTVSPropertyOp26
 70
     1
102
RTVSPropertyOp27
 70
     1
102
RTVSPropertyOp28
 70
     1
102
RTVSPropertyOp29
 70
     1
102
RTVSPropertyOp30
 70
     1
102
RTVSPropertyOp31
 70
     1
102
RTVSPropertyOp32
 70
     1
102
RTVSPropertyOp33
 70
     1
102
RTVSPropertyOp34
 70
     1
102
RTVSPropertyOp35
 70
     1
102
RTVSPropertyOp36
 70
     1
102
RTVSPropertyOp37
 70
     1
102
RTVSPropertyOp38
 70
     1
102
RTVSPropertyOp39
 70
     1
102
RTVSPropertyOp40
 70
     1
102
RTVSPropertyOp41
 70
     1
102
RTVSPropertyOp42
 70
     1
102
RTVSPropertyOp43
 70
     1
102
RTVSPropertyOp44
 70
     1
102
RTVSPropertyOp45
 70
     1
102
RTVSPropertyOp46
 70
     1
102
RTVSPropertyOp47
 70
     1
102
RTVSPropertyOp48
 70
     1
102
RTVSPropertyOp49
 70
     1
102
RTVSPropertyOp50
 70
     1
102
RTVSPropertyOp51
 70
     0
102
RTVSPropertyOp52
 70
     0
102
RTVSPropertyOp53
 70
     1
102
RTVSPropertyOp54
 70
     1
102
RTVSPropertyOp55
 70
     1
102
RTVSPropertyOp56
 70
     1
102
RTVSPropertyOp57
 70
     1
102
RTVSPost2010Prop28
280
     0
102
RTVSPost2010PropOp28
 70
     1
102
RTVSPost2010Prop29
280
     1
102
RTVSPost2010PropOp29
 70
     1
102
RTVSPost2010Prop30
280
     1
102
RTVSPost2010PropOp30
 70
     1
102
RTVSPost2010Prop31
280
     0
102
RTVSPost2010PropOp31
 70
     1
102
RTVSPost2010Prop32
280
     0
102
RTVSPost2010PropOp32
 70
     1
102
RTVSPost2010Prop33
280
     0
102
RTVSPost2010PropOp33
 70
     1
102
RTVSPost2010Prop34
280
     0
102
RTVSPost2010PropOp34
 70
     1
102
RTVSPost2010Prop35
280
     0
102
RTVSPost2010PropOp35
 70
     1
102
RTVSPost2010Prop36
280
     0
102
RTVSPost2010PropOp36
 70
     1
102
RTVSPost2010Prop37
 90
       50
102
RTVSPost2010PropOp37
 70
     1
102
RTVSPost2010Prop38
140
0.0
102
RTVSPost2010PropOp38
 70
     1
102
RTVSPost2010Prop39
140
1.0
102
RTVSPost2010PropOp39
 70
     1
102
RTVSPost2010Prop40
 90
        0
102
RTVSPost2010PropOp40
 70
     1
102
RTVSPost2010Prop41ColorIndex
 90
       18
102
RTVSPost2010Prop41ColorRGB
 90
        0
102
RTVSPost2010PropOp41
 70
     1
102
RTVSPost2010Prop42
 90
       50
102
RTVSPost2010PropOp42
 70
     1
102
RTVSPost2010Prop43
 90
        3
102
RTVSPost2010PropOp43
 70
     1
102
RTVSPost2010Prop44ColorIndex
 90
        5
102
RTVSPost2010Prop44ColorRGB
 90
      255
102
RTVSPost2010PropOp44
 70
     1
102
RTVSPost2010Prop45
280
     0
102
RTVSPost2010PropOp45
 70
     1
102
RTVSPost2010Prop46
 90
       50
102
RTVSPost2010PropOp46
 70
     1
102
RTVSPost2010Prop47
 90
       50
102
RTVSPost2010PropOp47
 70
     1
102
RTVSPost2010Prop48
 90
       50
102
RTVSPost2010PropOp48
 70
     1
102
RTVSPost2010Prop49
280
     0
102
RTVSPost2010PropOp49
 70
     1
102
RTVSPost2010Prop50
 90
       50
102
RTVSPost2010PropOp50
 70
     1
102
RTVSPost2010Prop51ColorIndex
 90
      256
102
RTVSPost2010Prop51ColorRGB
 90
-16777216
102
RTVSPost2010PropOp51
 70
     0
102
RTVSPost2010Prop52
140
1.0
102
RTVSPost2010PropOp52
 70
     0
102
RTVSPost2010Prop53
 90
        2
102
RTVSPost2010PropOp53
 70
     1
102
RTVSPost2010Prop54
  1
strokes_ogs.tif
102
RTVSPost2010PropOp54
 70
     1
102
RTVSPost2010Prop55
280
     0
102
RTVSPost2010PropOp55
 70
     1
102
RTVSPost2010Prop56
140
1.0
102
RTVSPost2010PropOp56
 70
     1
102
RTVSPost2010Prop57
140
1.0
102
RTVSPost2010PropOp57
 70
     1
  0
XRECORD
  5
389
102
{ACAD_REACTORS
330
388
102
}
330
388
100
AcDbXrecord
280
     1
102
RTVSPropertyOp0
 70
     1
102
RTVSPropertyOp1
 70
     1
102
RTVSPropertyOp2
 70
     1
102
RTVSPropertyOp3
 70
     1
102
RTVSPropertyOp4
 70
     1
102
RTVSPropertyOp5
 70
     1
102
RTVSPropertyOp6
 70
     1
102
RTVSPropertyOp7
 70
     1
102
RTVSPropertyOp8
 70
     1
102
RTVSPropertyOp9
 70
     1
102
RTVSPropertyOp10
 70
     1
102
RTVSPropertyOp11
 70
     1
102
RTVSPropertyOp12
 70
     1
102
RTVSPropertyOp13
 70
     1
102
RTVSPropertyOp14
 70
     1
102
RTVSPropertyOp15
 70
     1
102
RTVSPropertyOp16
 70
     1
102
RTVSPropertyOp17
 70
     1
102
RTVSPropertyOp18
 70
     1
102
RTVSPropertyOp19
 70
     1
102
RTVSPropertyOp20
 70
     1
102
RTVSPropertyOp21
 70
     1
102
RTVSPropertyOp22
 70
     1
102
RTVSPropertyOp23
 70
     1
102
RTVSPropertyOp24
 70
     1
102
RTVSPropertyOp25
 70
     1
102
RTVSPropertyOp26
 70
     1
102
RTVSPropertyOp27
 70
     1
102
RTVSPropertyOp28
 70
     1
102
RTVSPropertyOp29
 70
     1
102
RTVSPropertyOp30
 70
     1
102
RTVSPropertyOp31
 70
     1
102
RTVSPropertyOp32
 70
     1
102
RTVSPropertyOp33
 70
     1
102
RTVSPropertyOp34
 70
     1
102
RTVSPropertyOp35
 70
     1
102
RTVSPropertyOp36
 70
     1
102
RTVSPropertyOp37
 70
     1
102
RTVSPropertyOp38
 70
     1
102
RTVSPropertyOp39
 70
     1
102
RTVSPropertyOp40
 70
     1
102
RTVSPropertyOp41
 70
     1
102
RTVSPropertyOp42
 70
     1
102
RTVSPropertyOp43
 70
     1
102
RTVSPropertyOp44
 70
     1
102
RTVSPropertyOp45
 70
     1
102
RTVSPropertyOp46
 70
     1
102
RTVSPropertyOp47
 70
     1
102
RTVSPropertyOp48
 70
     1
102
RTVSPropertyOp49
 70
     1
102
RTVSPropertyOp50
 70
     1
102
RTVSPropertyOp51
 70
     0
102
RTVSPropertyOp52
 70
     0
102
RTVSPropertyOp53
 70
     1
102
RTVSPropertyOp54
 70
     1
102
RTVSPropertyOp55
 70
     1
102
RTVSPropertyOp56
 70
     1
102
RTVSPropertyOp57
 70
     1
102
RTVSPost2010Prop28
280
     0
102
RTVSPost2010PropOp28
 70
     1
102
RTVSPost2010Prop29
280
     1
102
RTVSPost2010PropOp29
 70
     1
102
RTVSPost2010Prop30
280
     1
102
RTVSPost2010PropOp30
 70
     1
102
RTVSPost2010Prop31
280
     0
102
RTVSPost2010PropOp31
 70
     1
102
RTVSPost2010Prop32
280
     0
102
RTVSPost2010PropOp32
 70
     1
102
RTVSPost2010Prop33
280
     0
102
RTVSPost2010PropOp33
 70
     1
102
RTVSPost2010Prop34
280
     0
102
RTVSPost2010PropOp34
 70
     1
102
RTVSPost2010Prop35
280
     0
102
RTVSPost2010PropOp35
 70
     1
102
RTVSPost2010Prop36
280
     0
102
RTVSPost2010PropOp36
 70
     1
102
RTVSPost2010Prop37
 90
       50
102
RTVSPost2010PropOp37
 70
     1
102
RTVSPost2010Prop38
140
0.0
102
RTVSPost2010PropOp38
 70
     1
102
RTVSPost2010Prop39
140
1.0
102
RTVSPost2010PropOp39
 70
     1
102
RTVSPost2010Prop40
 90
        0
102
RTVSPost2010PropOp40
 70
     1
102
RTVSPost2010Prop41ColorIndex
 90
       18
102
RTVSPost2010Prop41ColorRGB
 90
        0
102
RTVSPost2010PropOp41
 70
     1
102
RTVSPost2010Prop42
 90
       50
102
RTVSPost2010PropOp42
 70
     1
102
RTVSPost2010Prop43
 90
        3
102
RTVSPost2010PropOp43
 70
     1
102
RTVSPost2010Prop44ColorIndex
 90
        5
102
RTVSPost2010Prop44ColorRGB
 90
      255
102
RTVSPost2010PropOp44
 70
     1
102
RTVSPost2010Prop45
280
     0
102
RTVSPost2010PropOp45
 70
     1
102
RTVSPost2010Prop46
 90
       50
102
RTVSPost2010PropOp46
 70
     1
102
RTVSPost2010Prop47
 90
       50
102
RTVSPost2010PropOp47
 70
     1
102
RTVSPost2010Prop48
 90
       50
102
RTVSPost2010PropOp48
 70
     1
102
RTVSPost2010Prop49
280
     0
102
RTVSPost2010PropOp49
 70
     1
102
RTVSPost2010Prop50
 90
       50
102
RTVSPost2010PropOp50
 70
     1
102
RTVSPost2010Prop51ColorIndex
 90
      256
102
RTVSPost2010Prop51ColorRGB
 90
-16777216
102
RTVSPost2010PropOp51
 70
     0
102
RTVSPost2010Prop52
140
1.0
102
RTVSPost2010PropOp52
 70
     0
102
RTVSPost2010Prop53
 90
        2
102
RTVSPost2010PropOp53
 70
     1
102
RTVSPost2010Prop54
  1
strokes_ogs.tif
102
RTVSPost2010PropOp54
 70
     1
102
RTVSPost2010Prop55
280
     0
102
RTVSPost2010PropOp55
 70
     1
102
RTVSPost2010Prop56
140
1.0
102
RTVSPost2010PropOp56
 70
     1
102
RTVSPost2010Prop57
140
1.0
102
RTVSPost2010PropOp57
 70
     1
  0
ENDSEC
  0
EOF
