  0
SECTION
  2
HEADER
  9
$ACADVER
  1
AC1015
  9
$ACADMAINTVER
 70
     6
  9
$DWGCODEPAGE
  3
ANSI_932
  9
$INSBASE
 10
0.0
 20
0.0
 30
0.0
  9
$EXTMIN
 10
-83.4612141186916
 20
-30.1443355089935
 30
0.0
  9
$EXTMAX
 10
100.535553025324
 20
103.346619547345
 30
0.0
  9
$LIMMIN
 10
0.0
 20
0.0
  9
$LIMMAX
 10
12.0
 20
9.0
  9
$ORTHOMODE
 70
     0
  9
$REGENMODE
 70
     1
  9
$FILLMODE
 70
     1
  9
$QTEXTMODE
 70
     0
  9
$MIRRTEXT
 70
     1
  9
$LTSCALE
 40
1.0
  9
$ATTMODE
 70
     1
  9
$TEXTSIZE
 40
0.2
  9
$TRACEWID
 40
0.05
  9
$TEXTSTYLE
  7
Standard
  9
$CLAYER
  8
0
  9
$CELTYPE
  6
ByLayer
  9
$CECOLOR
 62
   256
  9
$CELTSCALE
 40
1.0
  9
$DISPSILH
 70
     0
  9
$DIMSCALE
 40
1.0
  9
$DIMASZ
 40
0.18
  9
$DIMEXO
 40
0.0625
  9
$DIMDLI
 40
0.38
  9
$DIMRND
 40
0.0
  9
$DIMDLE
 40
0.0
  9
$DIMEXE
 40
0.18
  9
$DIMTP
 40
0.0
  9
$DIMTM
 40
0.0
  9
$DIMTXT
 40
0.18
  9
$DIMCEN
 40
0.09
  9
$DIMTSZ
 40
0.0
  9
$DIMTOL
 70
     0
  9
$DIMLIM
 70
     0
  9
$DIMTIH
 70
     1
  9
$DIMTOH
 70
     1
  9
$DIMSE1
 70
     0
  9
$DIMSE2
 70
     0
  9
$DIMTAD
 70
     0
  9
$DIMZIN
 70
     0
  9
$DIMBLK
  1

  9
$DIMASO
 70
     1
  9
$DIMSHO
 70
     1
  9
$DIMPOST
  1

  9
$DIMAPOST
  1

  9
$DIMALT
 70
     0
  9
$DIMALTD
 70
     2
  9
$DIMALTF
 40
25.4
  9
$DIMLFAC
 40
1.0
  9
$DIMTOFL
 70
     0
  9
$DIMTVP
 40
0.0
  9
$DIMTIX
 70
     0
  9
$DIMSOXD
 70
     0
  9
$DIMSAH
 70
     0
  9
$DIMBLK1
  1

  9
$DIMBLK2
  1

  9
$DIMSTYLE
  2
Standard
  9
$DIMCLRD
 70
     0
  9
$DIMCLRE
 70
     0
  9
$DIMCLRT
 70
     0
  9
$DIMTFAC
 40
1.0
  9
$DIMGAP
 40
0.09
  9
$DIMJUST
 70
     0
  9
$DIMSD1
 70
     0
  9
$DIMSD2
 70
     0
  9
$DIMTOLJ
 70
     1
  9
$DIMTZIN
 70
     0
  9
$DIMALTZ
 70
     0
  9
$DIMALTTZ
 70
     0
  9
$DIMUPT
 70
     0
  9
$DIMDEC
 70
     4
  9
$DIMTDEC
 70
     4
  9
$DIMALTU
 70
     2
  9
$DIMALTTD
 70
     2
  9
$DIMTXSTY
  7
Standard
  9
$DIMAUNIT
 70
     0
  9
$DIMADEC
 70
     0
  9
$DIMALTRND
 40
0.0
  9
$DIMAZIN
 70
     0
  9
$DIMDSEP
 70
    46
  9
$DIMATFIT
 70
     3
  9
$DIMFRAC
 70
     0
  9
$DIMLDRBLK
  1

  9
$DIMLUNIT
 70
     2
  9
$DIMLWD
 70
    -2
  9
$DIMLWE
 70
    -2
  9
$DIMTMOVE
 70
     0
  9
$LUNITS
 70
     2
  9
$LUPREC
 70
     4
  9
$SKETCHINC
 40
0.1
  9
$FILLETRAD
 40
0.5
  9
$AUNITS
 70
     0
  9
$AUPREC
 70
     0
  9
$MENU
  1
.
  9
$ELEVATION
 40
0.0
  9
$PELEVATION
 40
0.0
  9
$THICKNESS
 40
0.0
  9
$LIMCHECK
 70
     0
  9
$CHAMFERA
 40
0.0
  9
$CHAMFERB
 40
0.0
  9
$CHAMFERC
 40
0.0
  9
$CHAMFERD
 40
0.0
  9
$SKPOLY
 70
     0
  9
$TDCREATE
 40
2458080.446520451
  9
$TDUCREATE
 40
2458080.071520451
  9
$TDUPDATE
 40
2458080.446521725
  9
$TDUUPDATE
 40
2458080.071521725
  9
$TDINDWG
 40
0.0000000116
  9
$TDUSRTIMER
 40
0.0000000116
  9
$USRTIMER
 70
     1
  9
$ANGBASE
 50
0.0
  9
$ANGDIR
 70
     0
  9
$PDMODE
 70
     0
  9
$PDSIZE
 40
0.0
  9
$PLINEWID
 40
0.0
  9
$SPLFRAME
 70
     0
  9
$SPLINETYPE
 70
     6
  9
$SPLINESEGS
 70
     8
  9
$HANDSEED
  5
394
  9
$SURFTAB1
 70
     6
  9
$SURFTAB2
 70
     6
  9
$SURFTYPE
 70
     6
  9
$SURFU
 70
     6
  9
$SURFV
 70
     6
  9
$UCSBASE
  2

  9
$UCSNAME
  2

  9
$UCSORG
 10
0.0
 20
0.0
 30
0.0
  9
$UCSXDIR
 10
1.0
 20
0.0
 30
0.0
  9
$UCSYDIR
 10
0.0
 20
1.0
 30
0.0
  9
$UCSORTHOREF
  2

  9
$UCSORTHOVIEW
 70
     0
  9
$UCSORGTOP
 10
0.0
 20
0.0
 30
0.0
  9
$UCSORGBOTTOM
 10
0.0
 20
0.0
 30
0.0
  9
$UCSORGLEFT
 10
0.0
 20
0.0
 30
0.0
  9
$UCSORGRIGHT
 10
0.0
 20
0.0
 30
0.0
  9
$UCSORGFRONT
 10
0.0
 20
0.0
 30
0.0
  9
$UCSORGBACK
 10
0.0
 20
0.0
 30
0.0
  9
$PUCSBASE
  2

  9
$PUCSNAME
  2

  9
$PUCSORG
 10
0.0
 20
0.0
 30
0.0
  9
$PUCSXDIR
 10
1.0
 20
0.0
 30
0.0
  9
$PUCSYDIR
 10
0.0
 20
1.0
 30
0.0
  9
$PUCSORTHOREF
  2

  9
$PUCSORTHOVIEW
 70
     0
  9
$PUCSORGTOP
 10
0.0
 20
0.0
 30
0.0
  9
$PUCSORGBOTTOM
 10
0.0
 20
0.0
 30
0.0
  9
$PUCSORGLEFT
 10
0.0
 20
0.0
 30
0.0
  9
$PUCSORGRIGHT
 10
0.0
 20
0.0
 30
0.0
  9
$PUCSORGFRONT
 10
0.0
 20
0.0
 30
0.0
  9
$PUCSORGBACK
 10
0.0
 20
0.0
 30
0.0
  9
$USERI1
 70
     0
  9
$USERI2
 70
     0
  9
$USERI3
 70
     0
  9
$USERI4
 70
     0
  9
$USERI5
 70
     0
  9
$USERR1
 40
19.0
  9
$USERR2
 40
0.0
  9
$USERR3
 40
0.0
  9
$USERR4
 40
0.0
  9
$USERR5
 40
0.0
  9
$WORLDVIEW
 70
     1
  9
$SHADEDGE
 70
     3
  9
$SHADEDIF
 70
    70
  9
$TILEMODE
 70
     1
  9
$MAXACTVP
 70
    64
  9
$PINSBASE
 10
0.0
 20
0.0
 30
0.0
  9
$PLIMCHECK
 70
     0
  9
$PEXTMIN
 10
1.00000000000000E+20
 20
1.00000000000000E+20
 30
1.00000000000000E+20
  9
$PEXTMAX
 10
-1.00000000000000E+20
 20
-1.00000000000000E+20
 30
-1.00000000000000E+20
  9
$PLIMMIN
 10
0.0
 20
0.0
  9
$PLIMMAX
 10
12.0
 20
9.0
  9
$UNITMODE
 70
     0
  9
$VISRETAIN
 70
     1
  9
$PLINEGEN
 70
     0
  9
$PSLTSCALE
 70
     1
  9
$TREEDEPTH
 70
  3020
  9
$CMLSTYLE
  2
Standard
  9
$CMLJUST
 70
     0
  9
$CMLSCALE
 40
1.0
  9
$PROXYGRAPHICS
 70
     1
  9
$MEASUREMENT
 70
     1
  9
$CELWEIGHT
370
    -1
  9
$ENDCAPS
280
     0
  9
$JOINSTYLE
280
     0
  9
$LWDISPLAY
290
     0
  9
$INSUNITS
 70
     4
  9
$HYPERLINKBASE
  1

  9
$STYLESHEET
  1

  9
$XEDIT
290
     1
  9
$CEPSNTYPE
380
     0
  9
$PSTYLEMODE
290
     1
  9
$FINGERPRINTGUID
  2
{BB5F25C2-7940-4F6A-A282-975DEFAB44B4}
  9
$VERSIONGUID
  2
{FAEB1C32-E019-11D5-929B-00C0DF256EC4}
  9
$EXTNAMES
290
     1
  9
$PSVPSCALE
 40
0.0
  9
$OLESTARTUP
290
     0
  0
ENDSEC
  0
SECTION
  2
CLASSES
  0
CLASS
  1
ACDBDICTIONARYWDFLT
  2
AcDbDictionaryWithDefault
  3
ObjectDBX Classes
 90
        0
280
     0
281
     0
  0
CLASS
  1
VISUALSTYLE
  2
AcDbVisualStyle
  3
ObjectDBX Classes
 90
     4095
280
     0
281
     0
  0
CLASS
  1
MATERIAL
  2
AcDbMaterial
  3
ObjectDBX Classes
 90
     1153
280
     0
281
     0
  0
CLASS
  1
SCALE
  2
AcDbScale
  3
ObjectDBX Classes
 90
     1153
280
     0
281
     0
  0
CLASS
  1
SUN
  2
AcDbSun
  3
SCENEOE
 90
     1153
280
     0
281
     0
  0
CLASS
  1
DICTIONARYVAR
  2
AcDbDictionaryVar
  3
ObjectDBX Classes
 90
        0
280
     0
281
     0
  0
CLASS
  1
ACDBPLACEHOLDER
  2
AcDbPlaceHolder
  3
ObjectDBX Classes
 90
        0
280
     0
281
     0
  0
CLASS
  1
LAYOUT
  2
AcDbLayout
  3
ObjectDBX Classes
 90
        0
280
     0
281
     0
  0
ENDSEC
  0
SECTION
  2
TABLES
  0
TABLE
  2
VPORT
  5
8
330
0
100
AcDbSymbolTable
 70
     1
  0
VPORT
  5
29
330
8
100
AcDbSymbolTableRecord
100
AcDbViewportTableRecord
  2
*Active
 70
     0
 10
0.0
 20
0.0
 11
1.0
 21
1.0
 12
8.5371694533162
 22
36.60114201917575
 13
0.0
 23
0.0
 14
0.5
 24
0.5
 15
0.5
 25
0.5
 16
0.0
 26
0.0
 36
1.0
 17
0.0
 27
0.0
 37
0.0
 40
146.8400505619724
 41
1.60267857142857
 42
50.0
 43
0.0
 44
0.0
 50
0.0
 51
0.0
 71
     0
 72
   100
 73
     1
 74
     3
 75
     0
 76
     0
 77
     0
 78
     0
281
     0
 65
     1
110
0.0
120
0.0
130
0.0
111
1.0
121
0.0
131
0.0
112
0.0
122
1.0
132
0.0
 79
     0
146
0.0
  0
ENDTAB
  0
TABLE
  2
LTYPE
  5
5
330
0
100
AcDbSymbolTable
 70
     8
  0
LTYPE
  5
14
330
5
100
AcDbSymbolTableRecord
100
AcDbLinetypeTableRecord
  2
ByBlock
 70
     0
  3

 72
    65
 73
     0
 40
0.0
  0
LTYPE
  5
15
330
5
100
AcDbSymbolTableRecord
100
AcDbLinetypeTableRecord
  2
ByLayer
 70
     0
  3

 72
    65
 73
     0
 40
0.0
  0
LTYPE
  5
16
330
5
100
AcDbSymbolTableRecord
100
AcDbLinetypeTableRecord
  2
Continuous
 70
     0
  3
Solid line
 72
    65
 73
     0
 40
0.0
  0
LTYPE
  5
6A
330
5
100
AcDbSymbolTableRecord
100
AcDbLinetypeTableRecord
  2
DASHED
 70
     0
  3
Dashed
 72
    65
 73
     2
 40
15.0
 49
7.0
 74
     0
 49
-8.0
 74
     0
  0
LTYPE
  5
6B
330
5
100
AcDbSymbolTableRecord
100
AcDbLinetypeTableRecord
  2
DOTTED
 70
     0
  3
Dotted
 72
    65
 73
     2
 40
1.0
 49
0.0
 74
     0
 49
-1.0
 74
     0
  0
LTYPE
  5
6C
330
5
100
AcDbSymbolTableRecord
100
AcDbLinetypeTableRecord
  2
DOT_CENTER
 70
     0
  3
Dot_Center
 72
    65
 73
     4
 40
14.0
 49
12.0
 74
     0
 49
-1.0
 74
     0
 49
0.0
 74
     0
 49
-1.0
 74
     0
  0
LTYPE
  5
6D
330
5
100
AcDbSymbolTableRecord
100
AcDbLinetypeTableRecord
  2
LONG_DASHED
 70
     0
  3
Long_Dashed
 72
    65
 73
     2
 40
15.0
 49
10.0
 74
     0
 49
-5.0
 74
     0
  0
LTYPE
  5
6E
330
5
100
AcDbSymbolTableRecord
100
AcDbLinetypeTableRecord
  2
DASH_CENTER
 70
     0
  3
Dash_Center
 72
    65
 73
     4
 40
14.0
 49
11.0
 74
     0
 49
-1.0
 74
     0
 49
1.0
 74
     0
 49
-1.0
 74
     0
  0
LTYPE
  5
6F
330
5
100
AcDbSymbolTableRecord
100
AcDbLinetypeTableRecord
  2
PHANTOM
 70
     0
  3
Phantom
 72
    65
 73
     6
 40
13.0
 49
10.0
 74
     0
 49
-1.0
 74
     0
 49
0.0
 74
     0
 49
-1.0
 74
     0
 49
0.0
 74
     0
 49
-1.0
 74
     0
  0
LTYPE
  5
70
330
5
100
AcDbSymbolTableRecord
100
AcDbLinetypeTableRecord
  2
CENTER_DASH_DASH
 70
     0
  3
Center_Dash_Dash
 72
    65
 73
     6
 40
14.0
 49
9.0
 74
     0
 49
-1.0
 74
     0
 49
1.0
 74
     0
 49
-1.0
 74
     0
 49
1.0
 74
     0
 49
-1.0
 74
     0
  0
ENDTAB
  0
TABLE
  2
LAYER
  5
2
330
0
100
AcDbSymbolTable
 70
     2
  0
LAYER
  5
10
330
2
100
AcDbSymbolTableRecord
100
AcDbLayerTableRecord
  2
0
 70
     0
 62
     7
  6
Continuous
370
    -3
390
F
  0
LAYER
  5
71
330
2
100
AcDbSymbolTableRecord
100
AcDbLayerTableRecord
  2
1
 70
     0
 62
     7
  6
Continuous
370
    -3
390
F
  0
ENDTAB
  0
TABLE
  2
STYLE
  5
3
330
0
100
AcDbSymbolTable
 70
     1
  0
STYLE
  5
11
330
3
100
AcDbSymbolTableRecord
100
AcDbTextStyleTableRecord
  2
Standard
 70
     0
 40
0.0
 41
1.0
 50
0.0
 71
     0
 42
0.2
  3
txt
  4

  0
ENDTAB
  0
TABLE
  2
VIEW
  5
6
330
0
100
AcDbSymbolTable
 70
     0
  0
ENDTAB
  0
TABLE
  2
UCS
  5
7
330
0
100
AcDbSymbolTable
 70
     0
  0
ENDTAB
  0
TABLE
  2
APPID
  5
9
330
0
100
AcDbSymbolTable
 70
     1
  0
APPID
  5
12
330
9
100
AcDbSymbolTableRecord
100
AcDbRegAppTableRecord
  2
ACAD
 70
     0
  0
ENDTAB
  0
TABLE
  2
DIMSTYLE
  5
A
330
0
100
AcDbSymbolTable
 70
     1
100
AcDbDimStyleTable
  0
DIMSTYLE
105
27
330
A
100
AcDbSymbolTableRecord
100
AcDbDimStyleTableRecord
  2
Standard
 70
     0
178
     0
340
11
  0
ENDTAB
  0
TABLE
  2
BLOCK_RECORD
  5
1
330
0
100
AcDbSymbolTable
 70
     1
  0
BLOCK_RECORD
  5
1F
330
1
100
AcDbSymbolTableRecord
100
AcDbBlockTableRecord
  2
*Model_Space
340
22
  0
BLOCK_RECORD
  5
1B
330
1
100
AcDbSymbolTableRecord
100
AcDbBlockTableRecord
  2
*Paper_Space
340
1E
  0
BLOCK_RECORD
  5
23
330
1
100
AcDbSymbolTableRecord
100
AcDbBlockTableRecord
  2
*Paper_Space0
340
26
  0
ENDTAB
  0
ENDSEC
  0
SECTION
  2
BLOCKS
  0
BLOCK
  5
20
330
1F
100
AcDbEntity
  8
0
100
AcDbBlockBegin
  2
*Model_Space
 70
     0
 10
0.0
 20
0.0
 30
0.0
  3
*Model_Space
  1
*Model_Space
  0
ENDBLK
  5
21
330
1F
100
AcDbEntity
  8
0
100
AcDbBlockEnd
  0
BLOCK
  5
1C
330
1B
100
AcDbEntity
 67
     1
  8
0
100
AcDbBlockBegin
  2
*Paper_Space
 70
     0
 10
0.0
 20
0.0
 30
0.0
  3
*Paper_Space
  1
*Paper_Space
  0
ENDBLK
  5
1D
330
1B
100
AcDbEntity
 67
     1
  8
0
100
AcDbBlockEnd
  0
BLOCK
  5
24
330
23
100
AcDbEntity
  8
0
100
AcDbBlockBegin
  2
*Paper_Space0
 70
     0
 10
0.0
 20
0.0
 30
0.0
  3
*Paper_Space0
  1
*Paper_Space0
  0
ENDBLK
  5
25
330
23
100
AcDbEntity
  8
0
100
AcDbBlockEnd
  0
ENDSEC
  0
SECTION
  2
ENTITIES
  0
POINT
  5
72
330
1F
100
AcDbEntity
  8
1
 62
     3
 60
     1
100
AcDbPoint
 10
29.56817133240979
 20
63.8248863250233
 30
0.0
  0
POINT
  5
73
330
1F
100
AcDbEntity
  8
1
 62
     3
 60
     1
100
AcDbPoint
 10
-28.56817133240969
 20
63.8248863250233
 30
0.0
  0
POINT
  5
74
330
1F
100
AcDbEntity
  8
1
 62
     3
 60
     1
100
AcDbPoint
 10
29.56817133240972
 20
100.7848863250233
 30
0.0
  0
POINT
  5
75
330
1F
100
AcDbEntity
  8
1
 62
     3
 60
     1
100
AcDbPoint
 10
-28.56817133240952
 20
100.7848863250233
 30
0.0
  0
LINE
  5
76
330
1F
100
AcDbEntity
  8
1
  6
Continuous
 62
     3
100
AcDbLine
 10
29.7381603686007
 20
16.0
 30
0.0
 11
-28.7691900880497
 21
16.0
 31
0.0
  0
LINE
  5
77
330
1F
100
AcDbEntity
  8
1
  6
Continuous
 62
     3
100
AcDbLine
 10
29.56817133240979
 20
63.8248863250233
 30
0.0
 11
31.0
 21
66.3048863250233
 31
0.0
  0
LINE
  5
78
330
1F
100
AcDbEntity
  8
1
  6
Continuous
 62
     3
100
AcDbLine
 10
-28.56817133240969
 20
63.8248863250233
 30
0.0
 11
29.56817133240979
 21
63.8248863250233
 31
0.0
  0
LINE
  5
79
330
1F
100
AcDbEntity
  8
1
  6
Continuous
 62
     3
100
AcDbLine
 10
-28.56817133240952
 20
100.7848863250233
 30
0.0
 11
-30.0
 21
98.3048863250233
 31
0.0
  0
LINE
  5
7A
330
1F
100
AcDbEntity
  8
1
  6
Continuous
 62
     3
100
AcDbLine
 10
-28.56817133240952
 20
100.7848863250233
 30
0.0
 11
-30.0
 21
98.3048863250233
 31
0.0
  0
LINE
  5
7B
330
1F
100
AcDbEntity
  8
1
  6
Continuous
 62
     3
100
AcDbLine
 10
-28.56817133240952
 20
100.7848863250233
 30
0.0
 11
29.56817133240972
 21
100.7848863250233
 31
0.0
  0
LINE
  5
7C
330
1F
100
AcDbEntity
  8
1
  6
Continuous
 62
     3
100
AcDbLine
 10
-71.5851034973893
 20
33.107717419331
 30
0.0
 11
-71.5851034973893
 21
21.4180704710327
 31
0.0
  0
LINE
  5
7D
330
1F
100
AcDbEntity
  8
1
  6
Continuous
 62
     3
100
AcDbLine
 10
-53.5851034973893
 20
33.107717419331
 30
0.0
 11
-53.5851034973893
 21
19.6
 31
0.0
  0
LINE
  5
7E
330
1F
100
AcDbEntity
  8
1
  6
Continuous
 62
     3
100
AcDbLine
 10
-17.8898015640196
 20
95.2477877233696
 30
0.0
 11
-12.9039512046221
 21
90.2590900613396
 31
0.0
  0
LINE
  5
7F
330
1F
100
AcDbEntity
  8
1
  6
Continuous
 62
     3
100
AcDbLine
 10
-12.9400540957137
 20
100.197535191675
 30
0.0
 11
-7.95420373631635
 21
95.2088375296454
 31
0.0
  0
LINE
  5
80
330
1F
100
AcDbEntity
  8
1
  6
Continuous
 62
     3
100
AcDbLine
 10
97.7600746316346
 20
46.00675832854381
 30
0.0
 11
97.76047193776859
 21
46.0067932873935
 31
0.0
  0
LINE
  5
81
330
1F
100
AcDbEntity
  8
1
  6
Continuous
 62
     3
100
AcDbLine
 10
29.9921657461651
 20
32.1390355936692
 30
0.0
 11
30.8129800188538
 21
33.1650534345299
 31
0.0
  0
LINE
  5
82
330
1F
100
AcDbEntity
  8
1
  6
Continuous
 62
     3
100
AcDbLine
 10
27.7040554310487
 20
37.2828029965648
 30
0.0
 11
28.6075583153032
 21
38.4121816018829
 31
0.0
  0
LINE
  5
83
330
1F
100
AcDbEntity
  8
1
  6
Continuous
 62
     3
100
AcDbLine
 10
27.4849242404918
 20
34.607717419331
 30
0.0
 11
16.0792382289397
 21
20.3506099048913
 31
0.0
  0
LINE
  5
84
330
1F
100
AcDbEntity
  8
1
  6
Continuous
 62
     3
100
AcDbLine
 10
68.95507575950799
 20
67.8648863250233
 30
0.0
 11
36.44
 21
70.8648863250233
 31
0.0
  0
LINE
  5
85
102
{ACAD_REACTORS
330
33E
102
}
330
1F
100
AcDbEntity
  8
1
  6
Continuous
 62
     3
100
AcDbLine
 10
43.9267007566166
 20
76.995291455915
 30
0.0
 11
43.6598972141452
 21
74.8740277228607
 31
0.0
  0
LINE
  5
86
102
{ACAD_REACTORS
330
33E
102
}
330
1F
100
AcDbEntity
  8
1
  6
Continuous
 62
     3
100
AcDbLine
 10
43.6598972141452
 20
86.6691543800748
 30
0.0
 11
43.9116876534141
 21
84.5443160986387
 31
0.0
  0
LINE
  5
87
102
{ACAD_REACTORS
330
33D
102
}
330
1F
100
AcDbEntity
  8
1
  6
Continuous
 62
     3
100
AcDbLine
 10
42.0366162511067
 20
75.2216249489193
 30
0.0
 11
42.9849028637204
 21
75.2216249489193
 31
0.0
  0
LINE
  5
88
102
{ACAD_REACTORS
330
33D
102
}
330
1F
100
AcDbEntity
  8
1
  6
Continuous
 62
     3
100
AcDbLine
 10
42.0366162511067
 20
75.5153731547974
 30
0.0
 11
42.0366162511067
 21
75.2216249489193
 31
0.0
  0
LINE
  5
89
102
{ACAD_REACTORS
330
33D
102
}
330
1F
100
AcDbEntity
  8
1
  6
Continuous
 62
     3
100
AcDbLine
 10
40.7725029017557
 20
76.7216157874459
 30
0.0
 11
40.7725029017557
 21
76.427867581568
 31
0.0
  0
LINE
  5
8A
102
{ACAD_REACTORS
330
33D
102
}
330
1F
100
AcDbEntity
  8
1
  6
Continuous
 62
     3
100
AcDbLine
 10
41.5376840816817
 20
76.6184357481508
 30
0.0
 11
40.8827159425132
 21
75.6013565208767
 31
0.0
  0
LINE
  5
8B
102
{ACAD_REACTORS
330
33D
102
}
330
1F
100
AcDbEntity
  8
1
  6
Continuous
 62
     3
100
AcDbLine
 10
41.728291023771
 20
76.7216157874459
 30
0.0
 11
41.7268522967432
 21
76.7216157874459
 31
0.0
  0
LINE
  5
8C
102
{ACAD_REACTORS
330
33D
102
}
330
1F
100
AcDbEntity
  8
1
  6
Continuous
 62
     3
100
AcDbLine
 10
40.8648791822319
 20
75.2216249489193
 30
0.0
 11
39.8849217974321
 21
75.2216249489193
 31
0.0
  0
LINE
  5
8D
102
{ACAD_REACTORS
330
33D
102
}
330
1F
100
AcDbEntity
  8
1
  6
Continuous
 62
     3
100
AcDbLine
 10
40.7250757632952
 20
75.5153731547974
 30
0.0
 11
40.1536701560016
 21
75.5153731547974
 31
0.0
  0
LINE
  5
8E
102
{ACAD_REACTORS
330
33D
102
}
330
1F
100
AcDbEntity
  8
1
  6
Continuous
 62
     3
100
AcDbLine
 10
41.8655243743948
 20
76.427867581568
 30
0.0
 11
42.7161545051511
 21
76.4278675815676
 31
0.0
  0
LINE
  5
8F
102
{ACAD_REACTORS
330
33D
102
}
330
1F
100
AcDbEntity
  8
1
  6
Continuous
 62
     3
100
AcDbLine
 10
41.7078043735659
 20
76.3417601558564
 30
0.0
 11
41.0541431832265
 21
75.3249538597734
 31
0.0
  0
LINE
  5
90
102
{ACAD_REACTORS
330
33D
102
}
330
1F
100
AcDbEntity
  8
1
  6
Continuous
 62
     3
100
AcDbLine
 10
39.7786724463699
 20
76.052869871936
 30
0.0
 11
39.7786724463699
 21
75.890370864429
 31
0.0
  0
LINE
  5
91
102
{ACAD_REACTORS
330
33D
102
}
330
1F
100
AcDbEntity
  8
1
  6
Continuous
 62
     3
100
AcDbLine
 10
43.0911522147827
 20
76.052869871936
 30
0.0
 11
43.0911522147827
 21
75.890370864429
 31
0.0
  0
LINE
  5
92
102
{ACAD_REACTORS
330
33D
102
}
330
1F
100
AcDbEntity
  8
1
  6
Continuous
 62
     3
100
AcDbLine
 10
42.7161545051511
 20
75.5153731547974
 30
0.0
 11
42.0366162511067
 21
75.5153731547974
 31
0.0
  0
LINE
  5
93
102
{ACAD_REACTORS
330
33D
102
}
330
1F
100
AcDbEntity
  8
1
  6
Continuous
 62
     3
100
AcDbLine
 10
40.1536701560016
 20
76.4278675815676
 30
0.0
 11
40.7725029017557
 21
76.427867581568
 31
0.0
  0
LINE
  5
94
102
{ACAD_REACTORS
330
33C
102
}
330
1F
100
AcDbEntity
  8
1
  6
Continuous
 62
     3
100
AcDbLine
 10
39.7786724463699
 20
85.6528112385062
 30
0.0
 11
39.7786724463699
 21
85.4903122309993
 31
0.0
  0
LINE
  5
95
102
{ACAD_REACTORS
330
33C
102
}
330
1F
100
AcDbEntity
  8
1
  6
Continuous
 62
     3
100
AcDbLine
 10
43.0911522147827
 20
85.6528112385062
 30
0.0
 11
43.0911522147827
 21
85.4903122309993
 31
0.0
  0
LINE
  5
96
102
{ACAD_REACTORS
330
33C
102
}
330
1F
100
AcDbEntity
  8
1
  6
Continuous
 62
     3
100
AcDbLine
 10
40.1536701560016
 20
85.1153145213676
 30
0.0
 11
42.7161545051511
 21
85.1153145213676
 31
0.0
  0
LINE
  5
97
102
{ACAD_REACTORS
330
33C
102
}
330
1F
100
AcDbEntity
  8
1
  6
Continuous
 62
     3
100
AcDbLine
 10
40.1536701560016
 20
86.0278089481382
 30
0.0
 11
42.7161545051511
 21
86.0278089481382
 31
0.0
  0
LINE
  5
98
102
{ACAD_REACTORS
330
33E
102
}
330
1F
100
AcDbEntity
  8
1
  6
Continuous
 62
     3
100
AcDbLine
 10
44.4710758894252
 20
76.8656783290559
 30
0.0
 11
43.9267007566166
 21
76.995291455915
 31
0.0
  0
LINE
  5
99
102
{ACAD_REACTORS
330
33D
102
}
330
1F
100
AcDbEntity
  8
1
  6
Continuous
 62
     3
100
AcDbLine
 10
41.728291023771
 20
76.7216157874459
 30
0.0
 11
42.9849028637204
 21
76.7216157874458
 31
0.0
  0
LINE
  5
9A
102
{ACAD_REACTORS
330
33D
102
}
330
1F
100
AcDbEntity
  8
1
  6
Continuous
 62
     3
100
AcDbLine
 10
43.384900420661
 20
76.3216182305056
 30
0.0
 11
43.384900420661
 21
75.6216225058596
 31
0.0
  0
LINE
  5
9B
102
{ACAD_REACTORS
330
33D
102
}
330
1F
100
AcDbEntity
  8
1
  6
Continuous
 62
     3
100
AcDbLine
 10
39.4849242404918
 20
76.3216182305056
 30
0.0
 11
39.4849242404918
 21
75.6216225058596
 31
0.0
  0
LINE
  5
9C
102
{ACAD_REACTORS
330
33D
102
}
330
1F
100
AcDbEntity
  8
1
  6
Continuous
 62
     3
100
AcDbLine
 10
39.8849217974321
 20
76.7216157874458
 30
0.0
 11
40.7725029017557
 21
76.7216157874459
 31
0.0
  0
LINE
  5
9D
102
{ACAD_REACTORS
330
33C
102
}
330
1F
100
AcDbEntity
  8
1
  6
Continuous
 62
     3
100
AcDbLine
 10
43.384900420661
 20
85.9215595970757
 30
0.0
 11
43.384900420661
 21
85.2215638724299
 31
0.0
  0
LINE
  5
9E
102
{ACAD_REACTORS
330
33C
102
}
330
1F
100
AcDbEntity
  8
1
  6
Continuous
 62
     3
100
AcDbLine
 10
39.8849217974321
 20
84.8215663154897
 30
0.0
 11
42.9849028637204
 21
84.8215663154897
 31
0.0
  0
LINE
  5
9F
102
{ACAD_REACTORS
330
33C
102
}
330
1F
100
AcDbEntity
  8
1
  6
Continuous
 62
     3
100
AcDbLine
 10
39.4849242404918
 20
85.9215595970757
 30
0.0
 11
39.4849242404918
 21
85.2215638724299
 31
0.0
  0
LINE
  5
A0
102
{ACAD_REACTORS
330
33C
102
}
330
1F
100
AcDbEntity
  8
1
  6
Continuous
 62
     3
100
AcDbLine
 10
39.8849217974321
 20
86.3215571540162
 30
0.0
 11
42.9849028637204
 21
86.3215571540162
 31
0.0
  0
LINE
  5
A1
102
{ACAD_REACTORS
330
33E
102
}
330
1F
100
AcDbEntity
  8
1
  6
Continuous
 62
     3
100
AcDbLine
 10
43.9116876534141
 20
84.5443160986387
 30
0.0
 11
44.4710758894252
 21
84.6775037738796
 31
0.0
  0
LINE
  5
A2
102
{ACAD_REACTORS
330
352
102
}
330
1F
100
AcDbEntity
  8
1
  6
Continuous
 62
     3
100
AcDbLine
 10
86.426710764682
 20
85.3228093871641
 30
0.0
 11
87.0314041794305
 21
85.3228093871641
 31
0.0
  0
LINE
  5
A3
102
{ACAD_REACTORS
330
352
102
}
330
1F
100
AcDbEntity
  8
1
  6
Continuous
 62
     3
100
AcDbLine
 10
87.4849242404918
 20
84.8692893261027
 30
0.0
 11
87.4849242404918
 21
81.9214089292036
 31
0.0
  0
LINE
  5
A4
102
{ACAD_REACTORS
330
352
102
}
330
1F
100
AcDbEntity
  8
1
  6
Continuous
 62
     3
100
AcDbLine
 10
87.0314041794305
 20
81.4678888681423
 30
0.0
 11
86.426710764682
 21
81.4678888681423
 31
0.0
  0
LINE
  5
A5
102
{ACAD_REACTORS
330
352
102
}
330
1F
100
AcDbEntity
  8
1
  6
Continuous
 62
     3
100
AcDbLine
 10
85.9731907036205
 20
81.9214089292036
 30
0.0
 11
85.9731907036205
 21
84.8692893261027
 31
0.0
  0
LINE
  5
A6
102
{ACAD_REACTORS
330
352
102
}
330
1F
100
AcDbEntity
  8
1
  6
Continuous
 62
     3
100
AcDbLine
 10
86.6534707952127
 20
84.8692893261027
 30
0.0
 11
86.8046441488999
 21
84.8692893261027
 31
0.0
  0
LINE
  5
A7
102
{ACAD_REACTORS
330
352
102
}
330
1F
100
AcDbEntity
  8
1
  6
Continuous
 62
     3
100
AcDbLine
 10
87.0314041794305
 20
84.6425292955721
 30
0.0
 11
87.0314041794305
 21
82.1481689597342
 31
0.0
  0
LINE
  5
A8
102
{ACAD_REACTORS
330
352
102
}
330
1F
100
AcDbEntity
  8
1
  6
Continuous
 62
     3
100
AcDbLine
 10
86.8046441488999
 20
81.9214089292036
 30
0.0
 11
86.6534707952127
 21
81.9214089292036
 31
0.0
  0
LINE
  5
A9
102
{ACAD_REACTORS
330
352
102
}
330
1F
100
AcDbEntity
  8
1
  6
Continuous
 62
     3
100
AcDbLine
 10
86.426710764682
 20
82.1481689597342
 30
0.0
 11
86.426710764682
 21
84.6425292955721
 31
0.0
  0
LINE
  5
AA
102
{ACAD_REACTORS
330
351
102
}
330
1F
100
AcDbEntity
  8
1
  6
Continuous
 62
     3
100
AcDbLine
 10
84.4614571667491
 20
85.3228093871641
 30
0.0
 11
85.0661505814977
 21
85.3228093871641
 31
0.0
  0
LINE
  5
AB
102
{ACAD_REACTORS
330
351
102
}
330
1F
100
AcDbEntity
  8
1
  6
Continuous
 62
     3
100
AcDbLine
 10
85.5196706425591
 20
84.8692893261027
 30
0.0
 11
85.5196706425591
 21
81.9214089292036
 31
0.0
  0
LINE
  5
AC
102
{ACAD_REACTORS
330
351
102
}
330
1F
100
AcDbEntity
  8
1
  6
Continuous
 62
     3
100
AcDbLine
 10
85.0661505814977
 20
81.4678888681423
 30
0.0
 11
84.4614571667491
 21
81.4678888681423
 31
0.0
  0
LINE
  5
AD
102
{ACAD_REACTORS
330
351
102
}
330
1F
100
AcDbEntity
  8
1
  6
Continuous
 62
     3
100
AcDbLine
 10
84.0079371056877
 20
81.9214089292036
 30
0.0
 11
84.0079371056877
 21
84.8692893261027
 31
0.0
  0
LINE
  5
AE
102
{ACAD_REACTORS
330
351
102
}
330
1F
100
AcDbEntity
  8
1
  6
Continuous
 62
     3
100
AcDbLine
 10
84.6882171972799
 20
84.8692893261027
 30
0.0
 11
84.8393905509672
 21
84.8692893261027
 31
0.0
  0
LINE
  5
AF
102
{ACAD_REACTORS
330
351
102
}
330
1F
100
AcDbEntity
  8
1
  6
Continuous
 62
     3
100
AcDbLine
 10
85.0661505814977
 20
84.6425292955721
 30
0.0
 11
85.0661505814977
 21
82.1481689597342
 31
0.0
  0
LINE
  5
B0
102
{ACAD_REACTORS
330
351
102
}
330
1F
100
AcDbEntity
  8
1
  6
Continuous
 62
     3
100
AcDbLine
 10
84.8393905509672
 20
81.9214089292036
 30
0.0
 11
84.6882171972799
 21
81.9214089292036
 31
0.0
  0
LINE
  5
B1
102
{ACAD_REACTORS
330
351
102
}
330
1F
100
AcDbEntity
  8
1
  6
Continuous
 62
     3
100
AcDbLine
 10
84.4614571667491
 20
82.1481689597342
 30
0.0
 11
84.4614571667491
 21
84.6425292955721
 31
0.0
  0
LINE
  5
B2
102
{ACAD_REACTORS
330
34D
102
}
330
1F
100
AcDbEntity
  8
1
  6
Continuous
 62
     3
100
AcDbLine
 10
80.7160478486367
 20
83.5843158197622
 30
0.0
 11
81.6230879707596
 21
83.5843158197622
 31
0.0
  0
LINE
  5
B3
102
{ACAD_REACTORS
330
34D
102
}
330
1F
100
AcDbEntity
  8
1
  6
Continuous
 62
     3
100
AcDbLine
 10
81.6230879707596
 20
83.5843158197622
 30
0.0
 11
81.6230879707596
 21
83.2063824355441
 31
0.0
  0
LINE
  5
B4
102
{ACAD_REACTORS
330
34D
102
}
330
1F
100
AcDbEntity
  8
1
  6
Continuous
 62
     3
100
AcDbLine
 10
81.6230879707596
 20
83.2063824355441
 30
0.0
 11
80.7160478486367
 21
83.2063824355441
 31
0.0
  0
LINE
  5
B5
102
{ACAD_REACTORS
330
34D
102
}
330
1F
100
AcDbEntity
  8
1
  6
Continuous
 62
     3
100
AcDbLine
 10
80.7160478486367
 20
83.2063824355441
 30
0.0
 11
80.7160478486367
 21
83.5843158197622
 31
0.0
  0
LINE
  5
B6
102
{ACAD_REACTORS
330
349
102
}
330
1F
100
AcDbEntity
  8
1
  6
Continuous
 62
     3
100
AcDbLine
 10
79.7483767093765
 20
83.7575864700284
 30
0.0
 11
79.2938356748304
 21
82.4178865787345
 31
0.0
  0
LINE
  5
B7
102
{ACAD_REACTORS
330
349
102
}
330
1F
100
AcDbEntity
  8
1
  6
Continuous
 62
     3
100
AcDbLine
 10
79.7483767093765
 20
82.4178865787345
 30
0.0
 11
79.2938356748304
 21
82.4178865787345
 31
0.0
  0
LINE
  5
B8
102
{ACAD_REACTORS
330
349
102
}
330
1F
100
AcDbEntity
  8
1
  6
Continuous
 62
     3
100
AcDbLine
 10
79.7483767093765
 20
83.7575864700284
 30
0.0
 11
79.7483767093765
 21
82.4178865787345
 31
0.0
  0
LINE
  5
B9
102
{ACAD_REACTORS
330
349
102
}
330
1F
100
AcDbEntity
  8
1
  6
Continuous
 62
     3
100
AcDbLine
 10
78.9079941192372
 20
82.4058272317661
 30
0.0
 11
78.9079941192372
 21
82.0525028438914
 31
0.0
  0
LINE
  5
BA
102
{ACAD_REACTORS
330
349
102
}
330
1F
100
AcDbEntity
  8
1
  6
Continuous
 62
     3
100
AcDbLine
 10
79.5853955073974
 20
84.414438038575
 30
0.0
 11
78.9118687433382
 21
82.4293065234533
 31
0.0
  0
LINE
  5
BB
102
{ACAD_REACTORS
330
349
102
}
330
1F
100
AcDbEntity
  8
1
  6
Continuous
 62
     3
100
AcDbLine
 10
80.0406836972511
 20
84.4640354938564
 30
0.0
 11
79.654597630265
 21
84.4640354938564
 31
0.0
  0
LINE
  5
BC
102
{ACAD_REACTORS
330
349
102
}
330
1F
100
AcDbEntity
  8
1
  6
Continuous
 62
     3
100
AcDbLine
 10
80.1137604442197
 20
84.3909587468877
 30
0.0
 11
80.1137604442197
 21
82.4178865787345
 31
0.0
  0
LINE
  5
BD
102
{ACAD_REACTORS
330
349
102
}
330
1F
100
AcDbEntity
  8
1
  6
Continuous
 62
     3
100
AcDbLine
 10
80.2964523116414
 20
82.4178865787345
 30
0.0
 11
80.2964523116414
 21
82.0525028438914
 31
0.0
  0
LINE
  5
BE
102
{ACAD_REACTORS
330
349
102
}
330
1F
100
AcDbEntity
  8
1
  6
Continuous
 62
     3
100
AcDbLine
 10
80.2964523116414
 20
82.4178865787345
 30
0.0
 11
80.1137604442197
 21
82.4178865787345
 31
0.0
  0
LINE
  5
BF
102
{ACAD_REACTORS
330
349
102
}
330
1F
100
AcDbEntity
  8
1
  6
Continuous
 62
     3
100
AcDbLine
 10
79.7483767093765
 20
82.0525028438914
 30
0.0
 11
79.7483767093765
 21
81.4678888681423
 31
0.0
  0
LINE
  5
C0
102
{ACAD_REACTORS
330
349
102
}
330
1F
100
AcDbEntity
  8
1
  6
Continuous
 62
     3
100
AcDbLine
 10
78.9079941192372
 20
82.0525028438914
 30
0.0
 11
79.7483767093765
 21
82.0525028438914
 31
0.0
  0
LINE
  5
C1
102
{ACAD_REACTORS
330
349
102
}
330
1F
100
AcDbEntity
  8
1
  6
Continuous
 62
     3
100
AcDbLine
 10
80.1137604442197
 20
81.4678888681423
 30
0.0
 11
79.7483767093765
 21
81.4678888681423
 31
0.0
  0
LINE
  5
C2
102
{ACAD_REACTORS
330
349
102
}
330
1F
100
AcDbEntity
  8
1
  6
Continuous
 62
     3
100
AcDbLine
 10
80.1137604442197
 20
82.0525028438914
 30
0.0
 11
80.1137604442197
 21
81.4678888681423
 31
0.0
  0
LINE
  5
C3
102
{ACAD_REACTORS
330
349
102
}
330
1F
100
AcDbEntity
  8
1
  6
Continuous
 62
     3
100
AcDbLine
 10
80.2964523116414
 20
82.0525028438914
 30
0.0
 11
80.1137604442197
 21
82.0525028438914
 31
0.0
  0
LINE
  5
C4
102
{ACAD_REACTORS
330
354
102
}
330
1F
100
AcDbEntity
  8
1
  6
Continuous
 62
     3
100
AcDbLine
 10
77.3003056859272
 20
81.4678888681423
 30
0.0
 11
76.9349219510841
 21
81.4678888681423
 31
0.0
  0
LINE
  5
C5
102
{ACAD_REACTORS
330
354
102
}
330
1F
100
AcDbEntity
  8
1
  6
Continuous
 62
     3
100
AcDbLine
 10
79.4926080949863
 20
85.1948029635428
 30
0.0
 11
77.3003056859272
 21
81.4678888681423
 31
0.0
  0
LINE
  5
C6
102
{ACAD_REACTORS
330
354
102
}
330
1F
100
AcDbEntity
  8
1
  6
Continuous
 62
     3
100
AcDbLine
 10
79.1272243601431
 20
85.1948029635428
 30
0.0
 11
79.4926080949863
 21
85.1948029635428
 31
0.0
  0
LINE
  5
C7
102
{ACAD_REACTORS
330
354
102
}
330
1F
100
AcDbEntity
  8
1
  6
Continuous
 62
     3
100
AcDbLine
 10
79.1272243601431
 20
85.1948029635428
 30
0.0
 11
76.9349219510841
 21
81.4678888681423
 31
0.0
  0
LINE
  5
C8
102
{ACAD_REACTORS
330
348
102
}
330
1F
100
AcDbEntity
  8
1
  6
Continuous
 62
     3
100
AcDbLine
 10
76.3503079753349
 20
85.2678797105114
 30
0.0
 11
76.7156917101781
 21
85.2678797105114
 31
0.0
  0
LINE
  5
C9
102
{ACAD_REACTORS
330
348
102
}
330
1F
100
AcDbEntity
  8
1
  6
Continuous
 62
     3
100
AcDbLine
 10
77.0810754450213
 20
84.9024959756682
 30
0.0
 11
77.0810754450213
 21
84.0621133855288
 31
0.0
  0
LINE
  5
CA
102
{ACAD_REACTORS
330
348
102
}
330
1F
100
AcDbEntity
  8
1
  6
Continuous
 62
     3
100
AcDbLine
 10
76.7156917101781
 20
82.3448098317659
 30
0.0
 11
76.3503079753349
 21
82.3448098317659
 31
0.0
  0
LINE
  5
CB
102
{ACAD_REACTORS
330
348
102
}
330
1F
100
AcDbEntity
  8
1
  6
Continuous
 62
     3
100
AcDbLine
 10
75.9849242404918
 20
82.7101935666091
 30
0.0
 11
75.9849242404918
 21
83.4409610362954
 31
0.0
  0
LINE
  5
CC
102
{ACAD_REACTORS
330
348
102
}
330
1F
100
AcDbEntity
  8
1
  6
Continuous
 62
     3
100
AcDbLine
 10
75.9849242404918
 20
84.3909587468877
 30
0.0
 11
76.3503079753349
 21
84.3909587468877
 31
0.0
  0
LINE
  5
CD
102
{ACAD_REACTORS
330
348
102
}
330
1F
100
AcDbEntity
  8
1
  6
Continuous
 62
     3
100
AcDbLine
 10
75.9849242404918
 20
84.3909587468877
 30
0.0
 11
75.9849242404918
 21
84.9024959756682
 31
0.0
  0
LINE
  5
CE
102
{ACAD_REACTORS
330
348
102
}
330
1F
100
AcDbEntity
  8
1
  6
Continuous
 62
     3
100
AcDbLine
 10
76.3503079753349
 20
84.3909587468877
 30
0.0
 11
76.3503079753349
 21
84.7198041082466
 31
0.0
  0
LINE
  5
CF
102
{ACAD_REACTORS
330
348
102
}
330
1F
100
AcDbEntity
  8
1
  6
Continuous
 62
     3
100
AcDbLine
 10
76.7156917101781
 20
84.7198041082466
 30
0.0
 11
76.7156917101781
 21
84.2813436264348
 31
0.0
  0
LINE
  5
D0
102
{ACAD_REACTORS
330
348
102
}
330
1F
100
AcDbEntity
  8
1
  6
Continuous
 62
     3
100
AcDbLine
 10
75.9849242404918
 20
83.4409610362954
 30
0.0
 11
76.3503079753349
 21
83.4409610362954
 31
0.0
  0
LINE
  5
D1
102
{ACAD_REACTORS
330
348
102
}
330
1F
100
AcDbEntity
  8
1
  6
Continuous
 62
     3
100
AcDbLine
 10
76.3503079753349
 20
83.4409610362954
 30
0.0
 11
76.3503079753349
 21
82.8928854340307
 31
0.0
  0
LINE
  5
D2
102
{ACAD_REACTORS
330
348
102
}
330
1F
100
AcDbEntity
  8
1
  6
Continuous
 62
     3
100
AcDbLine
 10
76.7156917101781
 20
82.8928854340307
 30
0.0
 11
76.7156917101781
 21
83.5505761567484
 31
0.0
  0
LINE
  5
D3
102
{ACAD_REACTORS
330
348
102
}
330
1F
100
AcDbEntity
  8
1
  6
Continuous
 62
     3
100
AcDbLine
 10
76.3503079753349
 20
84.0986517590133
 30
0.0
 11
76.3503079753349
 21
83.73326802417
 31
0.0
  0
LINE
  5
D4
102
{ACAD_REACTORS
330
348
102
}
330
1F
100
AcDbEntity
  8
1
  6
Continuous
 62
     3
100
AcDbLine
 10
76.5329998427566
 20
84.0986517590133
 30
0.0
 11
76.3503079753349
 21
84.0986517590133
 31
0.0
  0
LINE
  5
D5
102
{ACAD_REACTORS
330
348
102
}
330
1F
100
AcDbEntity
  8
1
  6
Continuous
 62
     3
100
AcDbLine
 10
76.3503079753349
 20
83.73326802417
 30
0.0
 11
76.5329998427566
 21
83.73326802417
 31
0.0
  0
LINE
  5
D6
102
{ACAD_REACTORS
330
348
102
}
330
1F
100
AcDbEntity
  8
1
  6
Continuous
 62
     3
100
AcDbLine
 10
77.0810754450213
 20
83.7698063976543
 30
0.0
 11
77.0810754450213
 21
82.7101935666091
 31
0.0
  0
LINE
  5
D7
102
{ACAD_REACTORS
330
341
102
}
330
1F
100
AcDbEntity
  8
1
  6
Continuous
 62
     3
100
AcDbLine
 10
54.4849242404918
 20
82.8228093871641
 30
0.0
 11
54.4849242404918
 21
78.8228093871641
 31
0.0
  0
LINE
  5
D8
102
{ACAD_REACTORS
330
341
102
}
330
1F
100
AcDbEntity
  8
1
  6
Continuous
 62
     3
100
AcDbLine
 10
52.9849242404918
 20
82.8228093871641
 30
0.0
 11
52.9849242404918
 21
78.8228093871641
 31
0.0
  0
LINE
  5
D9
102
{ACAD_REACTORS
330
340
102
}
330
1F
100
AcDbEntity
  8
1
  6
Continuous
 62
     3
100
AcDbLine
 10
52.2349242404918
 20
82.8228093871641
 30
0.0
 11
52.2349242404918
 21
78.8228093871641
 31
0.0
  0
LINE
  5
DA
102
{ACAD_REACTORS
330
340
102
}
330
1F
100
AcDbEntity
  8
1
  6
Continuous
 62
     3
100
AcDbLine
 10
50.7349242404918
 20
82.8228093871641
 30
0.0
 11
50.7349242404918
 21
78.8228093871641
 31
0.0
  0
LINE
  5
DB
102
{ACAD_REACTORS
330
33F
102
}
330
1F
100
AcDbEntity
  8
1
  6
Continuous
 62
     3
100
AcDbLine
 10
49.9849242404918
 20
82.8228093871641
 30
0.0
 11
49.9849242404918
 21
78.8228093871641
 31
0.0
  0
LINE
  5
DC
102
{ACAD_REACTORS
330
33F
102
}
330
1F
100
AcDbEntity
  8
1
  6
Continuous
 62
     3
100
AcDbLine
 10
48.4849242404918
 20
82.8228093871641
 30
0.0
 11
48.4849242404918
 21
78.8228093871641
 31
0.0
  0
LINE
  5
DD
102
{ACAD_REACTORS
330
33F
102
}
330
1F
100
AcDbEntity
  8
1
  6
Continuous
 62
     3
100
AcDbLine
 10
48.4849242404918
 20
82.8228093871641
 30
0.0
 11
49.9849242404918
 21
82.8228093871641
 31
0.0
  0
LINE
  5
DE
102
{ACAD_REACTORS
330
340
102
}
330
1F
100
AcDbEntity
  8
1
  6
Continuous
 62
     3
100
AcDbLine
 10
50.7349242404918
 20
82.8228093871641
 30
0.0
 11
52.2349242404918
 21
82.8228093871641
 31
0.0
  0
LINE
  5
DF
102
{ACAD_REACTORS
330
341
102
}
330
1F
100
AcDbEntity
  8
1
  6
Continuous
 62
     3
100
AcDbLine
 10
52.9849242404918
 20
82.8228093871641
 30
0.0
 11
54.4849242404918
 21
82.8228093871641
 31
0.0
  0
LINE
  5
E0
102
{ACAD_REACTORS
330
33F
102
}
330
1F
100
AcDbEntity
  8
1
  6
Continuous
 62
     3
100
AcDbLine
 10
48.4849242404918
 20
78.8228093871641
 30
0.0
 11
49.9849242404918
 21
78.8228093871641
 31
0.0
  0
LINE
  5
E1
102
{ACAD_REACTORS
330
340
102
}
330
1F
100
AcDbEntity
  8
1
  6
Continuous
 62
     3
100
AcDbLine
 10
50.7349242404918
 20
78.8228093871641
 30
0.0
 11
52.2349242404918
 21
78.8228093871641
 31
0.0
  0
LINE
  5
E2
102
{ACAD_REACTORS
330
341
102
}
330
1F
100
AcDbEntity
  8
1
  6
Continuous
 62
     3
100
AcDbLine
 10
52.9849242404918
 20
78.8228093871641
 30
0.0
 11
54.4849242404918
 21
78.8228093871641
 31
0.0
  0
LINE
  5
E3
102
{ACAD_REACTORS
330
342
102
}
330
1F
100
AcDbEntity
  8
1
  6
Continuous
 62
     3
100
AcDbLine
 10
55.2349242404918
 20
81.9059353521315
 30
0.0
 11
55.2349242404918
 21
79.7396834221967
 31
0.0
  0
LINE
  5
E4
102
{ACAD_REACTORS
330
342
102
}
330
1F
100
AcDbEntity
  8
1
  6
Continuous
 62
     3
100
AcDbLine
 10
56.3180502054591
 20
79.7396834221967
 30
0.0
 11
56.3180502054591
 21
80.5520278959223
 31
0.0
  0
LINE
  5
E5
102
{ACAD_REACTORS
330
342
102
}
330
1F
100
AcDbEntity
  8
1
  6
Continuous
 62
     3
100
AcDbLine
 10
56.3180502054591
 20
81.093590878406
 30
0.0
 11
56.3180502054591
 21
81.9059353521315
 31
0.0
  0
LINE
  5
E6
102
{ACAD_REACTORS
330
342
102
}
330
1F
100
AcDbEntity
  8
1
  6
Continuous
 62
     3
100
AcDbLine
 10
57.5094887669233
 20
81.9059353521315
 30
0.0
 11
57.5094887669233
 21
81.093590878406
 31
0.0
  0
LINE
  5
E7
102
{ACAD_REACTORS
330
342
102
}
330
1F
100
AcDbEntity
  8
1
  6
Continuous
 62
     3
100
AcDbLine
 10
57.5094887669233
 20
80.5520278959223
 30
0.0
 11
57.5094887669233
 21
79.7396834221967
 31
0.0
  0
LINE
  5
E8
102
{ACAD_REACTORS
330
342
102
}
330
1F
100
AcDbEntity
  8
1
  6
Continuous
 62
     3
100
AcDbLine
 10
58.5926147318906
 20
81.9059353521315
 30
0.0
 11
58.5926147318906
 21
79.7396834221967
 31
0.0
  0
LINE
  5
E9
102
{ACAD_REACTORS
330
342
102
}
330
1F
100
AcDbEntity
  8
1
  6
Continuous
 62
     3
100
AcDbLine
 10
55.2349242404918
 20
81.9059353521315
 30
0.0
 11
56.3180502054591
 21
81.9059353521315
 31
0.0
  0
LINE
  5
EA
102
{ACAD_REACTORS
330
342
102
}
330
1F
100
AcDbEntity
  8
1
  6
Continuous
 62
     3
100
AcDbLine
 10
56.3180502054591
 20
81.093590878406
 30
0.0
 11
57.5094887669233
 21
81.093590878406
 31
0.0
  0
LINE
  5
EB
102
{ACAD_REACTORS
330
342
102
}
330
1F
100
AcDbEntity
  8
1
  6
Continuous
 62
     3
100
AcDbLine
 10
57.5094887669233
 20
81.9059353521315
 30
0.0
 11
58.5926147318906
 21
81.9059353521315
 31
0.0
  0
LINE
  5
EC
102
{ACAD_REACTORS
330
342
102
}
330
1F
100
AcDbEntity
  8
1
  6
Continuous
 62
     3
100
AcDbLine
 10
55.2349242404918
 20
79.7396834221967
 30
0.0
 11
56.3180502054591
 21
79.7396834221967
 31
0.0
  0
LINE
  5
ED
102
{ACAD_REACTORS
330
342
102
}
330
1F
100
AcDbEntity
  8
1
  6
Continuous
 62
     3
100
AcDbLine
 10
56.3180502054591
 20
80.5520278959223
 30
0.0
 11
57.5094887669233
 21
80.5520278959223
 31
0.0
  0
LINE
  5
EE
102
{ACAD_REACTORS
330
342
102
}
330
1F
100
AcDbEntity
  8
1
  6
Continuous
 62
     3
100
AcDbLine
 10
57.5094887669233
 20
79.7396834221967
 30
0.0
 11
58.5926147318906
 21
79.7396834221967
 31
0.0
  0
LINE
  5
EF
102
{ACAD_REACTORS
330
343
102
}
330
1F
100
AcDbEntity
  8
1
  6
Continuous
 62
     3
100
AcDbLine
 10
58.9717088196293
 20
79.7396834221967
 30
0.0
 11
60.3797725740868
 21
81.9059353521315
 31
0.0
  0
LINE
  5
F0
102
{ACAD_REACTORS
330
343
102
}
330
1F
100
AcDbEntity
  8
1
  6
Continuous
 62
     3
100
AcDbLine
 10
60.3797725740868
 20
81.9059353521315
 30
0.0
 11
61.6795237320476
 21
81.9059353521315
 31
0.0
  0
LINE
  5
F1
102
{ACAD_REACTORS
330
343
102
}
330
1F
100
AcDbEntity
  8
1
  6
Continuous
 62
     3
100
AcDbLine
 10
61.6795237320476
 20
81.9059353521315
 30
0.0
 11
62.9792748900086
 21
79.7396834221967
 31
0.0
  0
LINE
  5
F2
102
{ACAD_REACTORS
330
343
102
}
330
1F
100
AcDbEntity
  8
1
  6
Continuous
 62
     3
100
AcDbLine
 10
58.9717088196293
 20
79.7396834221967
 30
0.0
 11
59.8382095916031
 21
79.7396834221967
 31
0.0
  0
LINE
  5
F3
102
{ACAD_REACTORS
330
343
102
}
330
1F
100
AcDbEntity
  8
1
  6
Continuous
 62
     3
100
AcDbLine
 10
59.8382095916031
 20
79.7396834221967
 30
0.0
 11
60.1198223424948
 21
80.1729338081836
 31
0.0
  0
LINE
  5
F4
102
{ACAD_REACTORS
330
343
102
}
330
1F
100
AcDbEntity
  8
1
  6
Continuous
 62
     3
100
AcDbLine
 10
60.1198223424948
 20
80.1729338081836
 30
0.0
 11
61.4195735004556
 21
80.1729338081836
 31
0.0
  0
LINE
  5
F5
102
{ACAD_REACTORS
330
343
102
}
330
1F
100
AcDbEntity
  8
1
  6
Continuous
 62
     3
100
AcDbLine
 10
61.4195735004556
 20
80.1729338081836
 30
0.0
 11
61.6795237320476
 21
79.7396834221967
 31
0.0
  0
LINE
  5
F6
102
{ACAD_REACTORS
330
343
102
}
330
1F
100
AcDbEntity
  8
1
  6
Continuous
 62
     3
100
AcDbLine
 10
61.6795237320476
 20
79.7396834221967
 30
0.0
 11
62.9792748900086
 21
79.7396834221967
 31
0.0
  0
LINE
  5
F7
102
{ACAD_REACTORS
330
343
102
}
330
1F
100
AcDbEntity
  8
1
  6
Continuous
 62
     3
100
AcDbLine
 10
60.7956929446344
 20
81.2127347345523
 30
0.0
 11
61.1271294899144
 21
80.660340492419
 31
0.0
  0
LINE
  5
F8
102
{ACAD_REACTORS
330
343
102
}
330
1F
100
AcDbEntity
  8
1
  6
Continuous
 62
     3
100
AcDbLine
 10
61.1271294899144
 20
80.660340492419
 30
0.0
 11
60.4366366872476
 21
80.660340492419
 31
0.0
  0
LINE
  5
F9
102
{ACAD_REACTORS
330
343
102
}
330
1F
100
AcDbEntity
  8
1
  6
Continuous
 62
     3
100
AcDbLine
 10
60.4366366872476
 20
80.660340492419
 30
0.0
 11
60.7956929446344
 21
81.2127347345523
 31
0.0
  0
LINE
  5
FA
102
{ACAD_REACTORS
330
344
102
}
330
1F
100
AcDbEntity
  8
1
  6
Continuous
 62
     3
100
AcDbLine
 10
63.3042126794989
 20
81.9059353521315
 30
0.0
 11
63.3042126794989
 21
79.7396834221967
 31
0.0
  0
LINE
  5
FB
102
{ACAD_REACTORS
330
344
102
}
330
1F
100
AcDbEntity
  8
1
  6
Continuous
 62
     3
100
AcDbLine
 10
67.4742476446232
 20
81.9059353521315
 30
0.0
 11
67.4742476446232
 21
79.7396834221967
 31
0.0
  0
LINE
  5
FC
102
{ACAD_REACTORS
330
344
102
}
330
1F
100
AcDbEntity
  8
1
  6
Continuous
 62
     3
100
AcDbLine
 10
63.3042126794989
 20
79.7396834221967
 30
0.0
 11
64.062400854976
 21
79.7396834221967
 31
0.0
  0
LINE
  5
FD
102
{ACAD_REACTORS
330
344
102
}
330
1F
100
AcDbEntity
  8
1
  6
Continuous
 62
     3
100
AcDbLine
 10
64.6581201357081
 20
79.7396834221967
 30
0.0
 11
65.8495586971723
 21
79.7396834221967
 31
0.0
  0
LINE
  5
FE
102
{ACAD_REACTORS
330
344
102
}
330
1F
100
AcDbEntity
  8
1
  6
Continuous
 62
     3
100
AcDbLine
 10
66.3911216796558
 20
79.7396834221967
 30
0.0
 11
67.4742476446232
 21
79.7396834221967
 31
0.0
  0
LINE
  5
FF
102
{ACAD_REACTORS
330
344
102
}
330
1F
100
AcDbEntity
  8
1
  6
Continuous
 62
     3
100
AcDbLine
 10
64.062400854976
 20
79.7396834221967
 30
0.0
 11
64.062400854976
 21
81.3102160713994
 31
0.0
  0
LINE
  5
100
102
{ACAD_REACTORS
330
344
102
}
330
1F
100
AcDbEntity
  8
1
  6
Continuous
 62
     3
100
AcDbLine
 10
64.062400854976
 20
81.3102160713994
 30
0.0
 11
64.6581201357081
 21
79.7396834221967
 31
0.0
  0
LINE
  5
101
102
{ACAD_REACTORS
330
344
102
}
330
1F
100
AcDbEntity
  8
1
  6
Continuous
 62
     3
100
AcDbLine
 10
65.8495586971723
 20
79.7396834221967
 30
0.0
 11
66.3911216796558
 21
81.3102160713994
 31
0.0
  0
LINE
  5
102
102
{ACAD_REACTORS
330
344
102
}
330
1F
100
AcDbEntity
  8
1
  6
Continuous
 62
     3
100
AcDbLine
 10
66.3911216796558
 20
81.3102160713994
 30
0.0
 11
66.3911216796558
 21
79.7396834221967
 31
0.0
  0
LINE
  5
103
102
{ACAD_REACTORS
330
344
102
}
330
1F
100
AcDbEntity
  8
1
  6
Continuous
 62
     3
100
AcDbLine
 10
63.3042126794989
 20
81.9059353521315
 30
0.0
 11
64.9830579251983
 21
81.9059353521315
 31
0.0
  0
LINE
  5
104
102
{ACAD_REACTORS
330
344
102
}
330
1F
100
AcDbEntity
  8
1
  6
Continuous
 62
     3
100
AcDbLine
 10
65.7954023989238
 20
81.9059353521315
 30
0.0
 11
67.4742476446232
 21
81.9059353521315
 31
0.0
  0
LINE
  5
105
102
{ACAD_REACTORS
330
344
102
}
330
1F
100
AcDbEntity
  8
1
  6
Continuous
 62
     3
100
AcDbLine
 10
65.7954023989238
 20
81.9059353521315
 30
0.0
 11
65.3892301620612
 21
80.6061841941706
 31
0.0
  0
LINE
  5
106
102
{ACAD_REACTORS
330
344
102
}
330
1F
100
AcDbEntity
  8
1
  6
Continuous
 62
     3
100
AcDbLine
 10
65.3892301620612
 20
80.6061841941706
 30
0.0
 11
64.9830579251983
 21
81.9059353521315
 31
0.0
  0
LINE
  5
107
102
{ACAD_REACTORS
330
347
102
}
330
1F
100
AcDbEntity
  8
1
  6
Continuous
 62
     3
100
AcDbLine
 10
69.3182695999802
 20
80.660340492419
 30
0.0
 11
69.677325857367
 21
81.2127347345523
 31
0.0
  0
LINE
  5
108
102
{ACAD_REACTORS
330
347
102
}
330
1F
100
AcDbEntity
  8
1
  6
Continuous
 62
     3
100
AcDbLine
 10
70.008762402647
 20
80.660340492419
 30
0.0
 11
69.3182695999802
 21
80.660340492419
 31
0.0
  0
LINE
  5
109
102
{ACAD_REACTORS
330
347
102
}
330
1F
100
AcDbEntity
  8
1
  6
Continuous
 62
     3
100
AcDbLine
 10
69.677325857367
 20
81.2127347345523
 30
0.0
 11
70.008762402647
 21
80.660340492419
 31
0.0
  0
LINE
  5
10A
102
{ACAD_REACTORS
330
347
102
}
330
1F
100
AcDbEntity
  8
1
  6
Continuous
 62
     3
100
AcDbLine
 10
70.5611566447805
 20
79.7396834221967
 30
0.0
 11
71.8609078027413
 21
79.7396834221967
 31
0.0
  0
LINE
  5
10B
102
{ACAD_REACTORS
330
347
102
}
330
1F
100
AcDbEntity
  8
1
  6
Continuous
 62
     3
100
AcDbLine
 10
70.3012064131882
 20
80.1729338081836
 30
0.0
 11
70.5611566447805
 21
79.7396834221967
 31
0.0
  0
LINE
  5
10C
102
{ACAD_REACTORS
330
347
102
}
330
1F
100
AcDbEntity
  8
1
  6
Continuous
 62
     3
100
AcDbLine
 10
69.0014552552274
 20
80.1729338081836
 30
0.0
 11
70.3012064131882
 21
80.1729338081836
 31
0.0
  0
LINE
  5
10D
102
{ACAD_REACTORS
330
347
102
}
330
1F
100
AcDbEntity
  8
1
  6
Continuous
 62
     3
100
AcDbLine
 10
68.7198425043358
 20
79.7396834221967
 30
0.0
 11
69.0014552552274
 21
80.1729338081836
 31
0.0
  0
LINE
  5
10E
102
{ACAD_REACTORS
330
347
102
}
330
1F
100
AcDbEntity
  8
1
  6
Continuous
 62
     3
100
AcDbLine
 10
67.8533417323619
 20
79.7396834221967
 30
0.0
 11
68.7198425043358
 21
79.7396834221967
 31
0.0
  0
LINE
  5
10F
102
{ACAD_REACTORS
330
347
102
}
330
1F
100
AcDbEntity
  8
1
  6
Continuous
 62
     3
100
AcDbLine
 10
70.5611566447805
 20
81.9059353521315
 30
0.0
 11
71.8609078027413
 21
79.7396834221967
 31
0.0
  0
LINE
  5
110
102
{ACAD_REACTORS
330
347
102
}
330
1F
100
AcDbEntity
  8
1
  6
Continuous
 62
     3
100
AcDbLine
 10
69.2614054868195
 20
81.9059353521315
 30
0.0
 11
70.5611566447805
 21
81.9059353521315
 31
0.0
  0
LINE
  5
111
102
{ACAD_REACTORS
330
347
102
}
330
1F
100
AcDbEntity
  8
1
  6
Continuous
 62
     3
100
AcDbLine
 10
67.8533417323619
 20
79.7396834221967
 30
0.0
 11
69.2614054868195
 21
81.9059353521315
 31
0.0
  0
LINE
  5
112
102
{ACAD_REACTORS
330
345
102
}
330
1F
100
AcDbEntity
  8
1
  6
Continuous
 62
     3
100
AcDbLine
 10
72.2122574114254
 20
81.5268412643928
 30
0.0
 11
72.2122574114254
 21
79.7396834221967
 31
0.0
  0
LINE
  5
113
102
{ACAD_REACTORS
330
345
102
}
330
1F
100
AcDbEntity
  8
1
  6
Continuous
 62
     3
100
AcDbLine
 10
73.2953833763928
 20
81.5268412643928
 30
0.0
 11
73.2953833763928
 21
79.7396834221967
 31
0.0
  0
LINE
  5
114
102
{ACAD_REACTORS
330
345
102
}
330
1F
100
AcDbEntity
  8
1
  6
Continuous
 62
     3
100
AcDbLine
 10
72.2122574114254
 20
81.5268412643928
 30
0.0
 11
73.2953833763928
 21
81.5268412643928
 31
0.0
  0
LINE
  5
115
102
{ACAD_REACTORS
330
345
102
}
330
1F
100
AcDbEntity
  8
1
  6
Continuous
 62
     3
100
AcDbLine
 10
72.2122574114254
 20
79.7396834221967
 30
0.0
 11
73.2953833763928
 21
79.7396834221967
 31
0.0
  0
LINE
  5
116
102
{ACAD_REACTORS
330
34A
102
}
330
1F
100
AcDbEntity
  8
1
  6
Continuous
 62
     3
100
AcDbLine
 10
79.4539576921345
 20
80.1515828566204
 30
0.0
 11
79.4539576921345
 21
76.7757505636345
 31
0.0
  0
LINE
  5
117
102
{ACAD_REACTORS
330
34A
102
}
330
1F
100
AcDbEntity
  8
1
  6
Continuous
 62
     3
100
AcDbLine
 10
79.0010165156637
 20
80.1515828566204
 30
0.0
 11
79.4539576921345
 21
80.1515828566204
 31
0.0
  0
LINE
  5
118
102
{ACAD_REACTORS
330
34A
102
}
330
1F
100
AcDbEntity
  8
1
  6
Continuous
 62
     3
100
AcDbLine
 10
79.0010165156637
 20
76.3228093871641
 30
0.0
 11
78.3970949470363
 21
76.3228093871641
 31
0.0
  0
LINE
  5
119
102
{ACAD_REACTORS
330
34A
102
}
330
1F
100
AcDbEntity
  8
1
  6
Continuous
 62
     3
100
AcDbLine
 10
79.0010165156637
 20
80.1515828566204
 30
0.0
 11
79.0010165156637
 21
77.0022211518698
 31
0.0
  0
LINE
  5
11A
102
{ACAD_REACTORS
330
34A
102
}
330
1F
100
AcDbEntity
  8
1
  6
Continuous
 62
     3
100
AcDbLine
 10
77.9441537705656
 20
80.1728093871641
 30
0.0
 11
78.3970949470362
 21
80.1728093871641
 31
0.0
  0
LINE
  5
11B
102
{ACAD_REACTORS
330
34A
102
}
330
1F
100
AcDbEntity
  8
1
  6
Continuous
 62
     3
100
AcDbLine
 10
78.3970949470363
 20
77.0022211518698
 30
0.0
 11
78.3970949470362
 21
80.1728093871641
 31
0.0
  0
LINE
  5
11C
102
{ACAD_REACTORS
330
34A
102
}
330
1F
100
AcDbEntity
  8
1
  6
Continuous
 62
     3
100
AcDbLine
 10
78.7745459274286
 20
76.7757505636345
 30
0.0
 11
78.6235655352717
 21
76.7757505636345
 31
0.0
  0
LINE
  5
11D
102
{ACAD_REACTORS
330
34A
102
}
330
1F
100
AcDbEntity
  8
1
  6
Continuous
 62
     3
100
AcDbLine
 10
77.9441537705656
 20
76.7757505636345
 30
0.0
 11
77.9441537705656
 21
80.1728093871641
 31
0.0
  0
LINE
  5
11E
102
{ACAD_REACTORS
330
34B
102
}
330
1F
100
AcDbEntity
  8
1
  6
Continuous
 62
     3
100
AcDbLine
 10
76.2641746335436
 20
78.4551689208002
 30
0.0
 11
76.9558637877279
 21
77.9755288306561
 31
0.0
  0
LINE
  5
11F
102
{ACAD_REACTORS
330
34B
102
}
330
1F
100
AcDbEntity
  8
1
  6
Continuous
 62
     3
100
AcDbLine
 10
76.5237886148245
 20
78.8220507279856
 30
0.0
 11
77.2154777690088
 21
78.3424106378415
 31
0.0
  0
LINE
  5
120
102
{ACAD_REACTORS
330
34B
102
}
330
1F
100
AcDbEntity
  8
1
  6
Continuous
 62
     3
100
AcDbLine
 10
77.4947281620606
 20
77.8089489673231
 30
0.0
 11
77.4947281620606
 21
76.7757505636345
 31
0.0
  0
LINE
  5
121
102
{ACAD_REACTORS
330
34B
102
}
330
1F
100
AcDbEntity
  8
1
  6
Continuous
 62
     3
100
AcDbLine
 10
77.0417869855899
 20
77.811386778189
 30
0.0
 11
77.0417869855899
 21
77.0022211518698
 31
0.0
  0
LINE
  5
122
102
{ACAD_REACTORS
330
34B
102
}
330
1F
100
AcDbEntity
  8
1
  6
Continuous
 62
     3
100
AcDbLine
 10
77.0417869855899
 20
79.4933976224582
 30
0.0
 11
77.0417869855899
 21
78.964966249909
 31
0.0
  0
LINE
  5
123
102
{ACAD_REACTORS
330
34B
102
}
330
1F
100
AcDbEntity
  8
1
  6
Continuous
 62
     3
100
AcDbLine
 10
77.4947281620606
 20
79.7198682106936
 30
0.0
 11
77.4947281620606
 21
78.964966249909
 31
0.0
  0
LINE
  5
124
102
{ACAD_REACTORS
330
34B
102
}
330
1F
100
AcDbEntity
  8
1
  6
Continuous
 62
     3
100
AcDbLine
 10
77.0417869855899
 20
78.964966249909
 30
0.0
 11
77.4947281620606
 21
78.964966249909
 31
0.0
  0
LINE
  5
125
102
{ACAD_REACTORS
330
34B
102
}
330
1F
100
AcDbEntity
  8
1
  6
Continuous
 62
     3
100
AcDbLine
 10
75.9849242404918
 20
77.8326133087327
 30
0.0
 11
76.4378654169624
 21
77.8326133087327
 31
0.0
  0
LINE
  5
126
102
{ACAD_REACTORS
330
34B
102
}
330
1F
100
AcDbEntity
  8
1
  6
Continuous
 62
     3
100
AcDbLine
 10
76.4378654169624
 20
77.0022211518698
 30
0.0
 11
76.4378654169624
 21
77.8326133087327
 31
0.0
  0
LINE
  5
127
102
{ACAD_REACTORS
330
34B
102
}
330
1F
100
AcDbEntity
  8
1
  6
Continuous
 62
     3
100
AcDbLine
 10
76.8153163973548
 20
76.7757505636345
 30
0.0
 11
76.6643360051979
 21
76.7757505636345
 31
0.0
  0
LINE
  5
128
102
{ACAD_REACTORS
330
34B
102
}
330
1F
100
AcDbEntity
  8
1
  6
Continuous
 62
     3
100
AcDbLine
 10
76.4378654169624
 20
78.9861927804527
 30
0.0
 11
76.4378654169624
 21
79.4933976224582
 31
0.0
  0
LINE
  5
129
102
{ACAD_REACTORS
330
34B
102
}
330
1F
100
AcDbEntity
  8
1
  6
Continuous
 62
     3
100
AcDbLine
 10
76.6643360051979
 20
79.7198682106936
 30
0.0
 11
76.8153163973548
 21
79.7198682106936
 31
0.0
  0
LINE
  5
12A
102
{ACAD_REACTORS
330
34B
102
}
330
1F
100
AcDbEntity
  8
1
  6
Continuous
 62
     3
100
AcDbLine
 10
75.9849242404918
 20
76.7757505636345
 30
0.0
 11
75.9849242404918
 21
77.8326133087327
 31
0.0
  0
LINE
  5
12B
102
{ACAD_REACTORS
330
34B
102
}
330
1F
100
AcDbEntity
  8
1
  6
Continuous
 62
     3
100
AcDbLine
 10
77.0417869855899
 20
76.3228093871641
 30
0.0
 11
76.4378654169624
 21
76.3228093871641
 31
0.0
  0
LINE
  5
12C
102
{ACAD_REACTORS
330
34B
102
}
330
1F
100
AcDbEntity
  8
1
  6
Continuous
 62
     3
100
AcDbLine
 10
75.9849242404918
 20
78.9886305913186
 30
0.0
 11
75.9849242404918
 21
79.7198682106936
 31
0.0
  0
LINE
  5
12D
102
{ACAD_REACTORS
330
34B
102
}
330
1F
100
AcDbEntity
  8
1
  6
Continuous
 62
     3
100
AcDbLine
 10
76.4378654169624
 20
80.1728093871641
 30
0.0
 11
77.0417869855899
 21
80.1728093871641
 31
0.0
  0
LINE
  5
12E
102
{ACAD_REACTORS
330
34C
102
}
330
1F
100
AcDbEntity
  8
1
  6
Continuous
 62
     3
100
AcDbLine
 10
80.1826336936912
 20
78.4551689208002
 30
0.0
 11
80.8743228478754
 21
77.9755288306561
 31
0.0
  0
LINE
  5
12F
102
{ACAD_REACTORS
330
34C
102
}
330
1F
100
AcDbEntity
  8
1
  6
Continuous
 62
     3
100
AcDbLine
 10
80.4422476749722
 20
78.8220507279856
 30
0.0
 11
81.1339368291564
 21
78.3424106378415
 31
0.0
  0
LINE
  5
130
102
{ACAD_REACTORS
330
34C
102
}
330
1F
100
AcDbEntity
  8
1
  6
Continuous
 62
     3
100
AcDbLine
 10
81.4131872222081
 20
77.8089489673231
 30
0.0
 11
81.4131872222081
 21
76.7757505636345
 31
0.0
  0
LINE
  5
131
102
{ACAD_REACTORS
330
34C
102
}
330
1F
100
AcDbEntity
  8
1
  6
Continuous
 62
     3
100
AcDbLine
 10
80.9602460457376
 20
77.811386778189
 30
0.0
 11
80.9602460457376
 21
77.0022211518698
 31
0.0
  0
LINE
  5
132
102
{ACAD_REACTORS
330
34C
102
}
330
1F
100
AcDbEntity
  8
1
  6
Continuous
 62
     3
100
AcDbLine
 10
80.9602460457376
 20
79.4933976224582
 30
0.0
 11
80.9602460457376
 21
78.964966249909
 31
0.0
  0
LINE
  5
133
102
{ACAD_REACTORS
330
34C
102
}
330
1F
100
AcDbEntity
  8
1
  6
Continuous
 62
     3
100
AcDbLine
 10
81.4131872222081
 20
79.7198682106936
 30
0.0
 11
81.4131872222081
 21
78.964966249909
 31
0.0
  0
LINE
  5
134
102
{ACAD_REACTORS
330
34C
102
}
330
1F
100
AcDbEntity
  8
1
  6
Continuous
 62
     3
100
AcDbLine
 10
80.9602460457376
 20
78.964966249909
 30
0.0
 11
81.4131872222081
 21
78.964966249909
 31
0.0
  0
LINE
  5
135
102
{ACAD_REACTORS
330
34C
102
}
330
1F
100
AcDbEntity
  8
1
  6
Continuous
 62
     3
100
AcDbLine
 10
79.9033833006395
 20
77.8326133087327
 30
0.0
 11
80.3563244771101
 21
77.8326133087327
 31
0.0
  0
LINE
  5
136
102
{ACAD_REACTORS
330
34C
102
}
330
1F
100
AcDbEntity
  8
1
  6
Continuous
 62
     3
100
AcDbLine
 10
80.3563244771101
 20
77.0022211518698
 30
0.0
 11
80.3563244771101
 21
77.8326133087327
 31
0.0
  0
LINE
  5
137
102
{ACAD_REACTORS
330
34C
102
}
330
1F
100
AcDbEntity
  8
1
  6
Continuous
 62
     3
100
AcDbLine
 10
80.7337754575025
 20
76.7757505636345
 30
0.0
 11
80.5827950653454
 21
76.7757505636345
 31
0.0
  0
LINE
  5
138
102
{ACAD_REACTORS
330
34C
102
}
330
1F
100
AcDbEntity
  8
1
  6
Continuous
 62
     3
100
AcDbLine
 10
80.3563244771101
 20
78.9861927804527
 30
0.0
 11
80.3563244771101
 21
79.4933976224582
 31
0.0
  0
LINE
  5
139
102
{ACAD_REACTORS
330
34C
102
}
330
1F
100
AcDbEntity
  8
1
  6
Continuous
 62
     3
100
AcDbLine
 10
80.5827950653454
 20
79.7198682106936
 30
0.0
 11
80.7337754575025
 21
79.7198682106936
 31
0.0
  0
LINE
  5
13A
102
{ACAD_REACTORS
330
34C
102
}
330
1F
100
AcDbEntity
  8
1
  6
Continuous
 62
     3
100
AcDbLine
 10
79.9033833006395
 20
76.7757505636345
 30
0.0
 11
79.9033833006395
 21
77.8326133087327
 31
0.0
  0
LINE
  5
13B
102
{ACAD_REACTORS
330
34C
102
}
330
1F
100
AcDbEntity
  8
1
  6
Continuous
 62
     3
100
AcDbLine
 10
80.9602460457376
 20
76.3228093871641
 30
0.0
 11
80.3563244771101
 21
76.3228093871641
 31
0.0
  0
LINE
  5
13C
102
{ACAD_REACTORS
330
34C
102
}
330
1F
100
AcDbEntity
  8
1
  6
Continuous
 62
     3
100
AcDbLine
 10
79.9033833006395
 20
78.9886305913186
 30
0.0
 11
79.9033833006395
 21
79.7198682106936
 31
0.0
  0
LINE
  5
13D
102
{ACAD_REACTORS
330
34C
102
}
330
1F
100
AcDbEntity
  8
1
  6
Continuous
 62
     3
100
AcDbLine
 10
80.3563244771101
 20
80.1728093871641
 30
0.0
 11
80.9602460457376
 21
80.1728093871641
 31
0.0
  0
LINE
  5
13E
102
{ACAD_REACTORS
330
350
102
}
330
1F
100
AcDbEntity
  8
1
  6
Continuous
 62
     3
100
AcDbLine
 10
84.7666647938318
 20
76.3228093871641
 30
0.0
 11
85.2196059703024
 21
76.3228093871641
 31
0.0
  0
LINE
  5
13F
102
{ACAD_REACTORS
330
350
102
}
330
1F
100
AcDbEntity
  8
1
  6
Continuous
 62
     3
100
AcDbLine
 10
84.3137236173613
 20
79.1057496057645
 30
0.0
 11
84.3137236173613
 21
79.6392794964643
 31
0.0
  0
LINE
  5
140
102
{ACAD_REACTORS
330
350
102
}
330
1F
100
AcDbEntity
  8
1
  6
Continuous
 62
     3
100
AcDbLine
 10
84.3137236173613
 20
79.1057496057645
 30
0.0
 11
84.7666647938318
 21
79.1057496057645
 31
0.0
  0
LINE
  5
141
102
{ACAD_REACTORS
330
350
102
}
330
1F
100
AcDbEntity
  8
1
  6
Continuous
 62
     3
100
AcDbLine
 10
85.2196059703024
 20
80.1728093871641
 30
0.0
 11
84.7666647938318
 21
80.1728093871641
 31
0.0
  0
LINE
  5
142
102
{ACAD_REACTORS
330
350
102
}
330
1F
100
AcDbEntity
  8
1
  6
Continuous
 62
     3
100
AcDbLine
 10
85.2196059703024
 20
76.3228093871641
 30
0.0
 11
85.2196059703024
 21
80.1728093871641
 31
0.0
  0
LINE
  5
143
102
{ACAD_REACTORS
330
350
102
}
330
1F
100
AcDbEntity
  8
1
  6
Continuous
 62
     3
100
AcDbLine
 10
84.7666647938318
 20
76.3228093871641
 30
0.0
 11
84.7666647938318
 21
79.1057496057645
 31
0.0
  0
LINE
  5
144
102
{ACAD_REACTORS
330
353
102
}
330
1F
100
AcDbEntity
  8
1
  6
Continuous
 62
     3
100
AcDbLine
 10
86.4280614953938
 20
78.512464042222
 30
0.0
 11
86.4280614953938
 21
79.4933976224582
 31
0.0
  0
LINE
  5
145
102
{ACAD_REACTORS
330
353
102
}
330
1F
100
AcDbEntity
  8
1
  6
Continuous
 62
     3
100
AcDbLine
 10
86.6545320836291
 20
78.0213387989287
 30
0.0
 11
86.805512475786
 21
78.0213387989287
 31
0.0
  0
LINE
  5
146
102
{ACAD_REACTORS
330
353
102
}
330
1F
100
AcDbEntity
  8
1
  6
Continuous
 62
     3
100
AcDbLine
 10
87.0319830640213
 20
77.7948682106935
 30
0.0
 11
87.0319830640213
 21
77.285309387164
 31
0.0
  0
LINE
  5
147
102
{ACAD_REACTORS
330
353
102
}
330
1F
100
AcDbEntity
  8
1
  6
Continuous
 62
     3
100
AcDbLine
 10
87.4849242404918
 20
78.0213387989287
 30
0.0
 11
87.4849242404918
 21
77.285309387164
 31
0.0
  0
LINE
  5
148
102
{ACAD_REACTORS
330
353
102
}
330
1F
100
AcDbEntity
  8
1
  6
Continuous
 62
     3
100
AcDbLine
 10
87.0319830640213
 20
77.285309387164
 30
0.0
 11
87.0319830640213
 21
77.0022211518698
 31
0.0
  0
LINE
  5
149
102
{ACAD_REACTORS
330
353
102
}
330
1F
100
AcDbEntity
  8
1
  6
Continuous
 62
     3
100
AcDbLine
 10
87.4849242404918
 20
77.285309387164
 30
0.0
 11
87.4849242404918
 21
76.7757505636345
 31
0.0
  0
LINE
  5
14A
102
{ACAD_REACTORS
330
353
102
}
330
1F
100
AcDbEntity
  8
1
  6
Continuous
 62
     3
100
AcDbLine
 10
87.0319830640213
 20
79.2465329616198
 30
0.0
 11
87.4849242404918
 21
79.2465329616198
 31
0.0
  0
LINE
  5
14B
102
{ACAD_REACTORS
330
353
102
}
330
1F
100
AcDbEntity
  8
1
  6
Continuous
 62
     3
100
AcDbLine
 10
86.4280614953938
 20
77.0022211518698
 30
0.0
 11
86.4280614953938
 21
77.7948682106935
 31
0.0
  0
LINE
  5
14C
102
{ACAD_REACTORS
330
353
102
}
330
1F
100
AcDbEntity
  8
1
  6
Continuous
 62
     3
100
AcDbLine
 10
86.805512475786
 20
76.7757505636345
 30
0.0
 11
86.6545320836291
 21
76.7757505636345
 31
0.0
  0
LINE
  5
14D
102
{ACAD_REACTORS
330
353
102
}
330
1F
100
AcDbEntity
  8
1
  6
Continuous
 62
     3
100
AcDbLine
 10
87.0319830640213
 20
79.4933976224582
 30
0.0
 11
87.0319830640213
 21
79.2465329616198
 31
0.0
  0
LINE
  5
14E
102
{ACAD_REACTORS
330
353
102
}
330
1F
100
AcDbEntity
  8
1
  6
Continuous
 62
     3
100
AcDbLine
 10
86.6545320836291
 20
79.7198682106936
 30
0.0
 11
86.805512475786
 21
79.7198682106936
 31
0.0
  0
LINE
  5
14F
102
{ACAD_REACTORS
330
353
102
}
330
1F
100
AcDbEntity
  8
1
  6
Continuous
 62
     3
100
AcDbLine
 10
85.9751203189232
 20
76.7757505636345
 30
0.0
 11
85.9751203189232
 21
79.7198682106936
 31
0.0
  0
LINE
  5
150
102
{ACAD_REACTORS
330
353
102
}
330
1F
100
AcDbEntity
  8
1
  6
Continuous
 62
     3
100
AcDbLine
 10
87.0319830640213
 20
76.3228093871641
 30
0.0
 11
86.4280614953938
 21
76.3228093871641
 31
0.0
  0
LINE
  5
151
102
{ACAD_REACTORS
330
353
102
}
330
1F
100
AcDbEntity
  8
1
  6
Continuous
 62
     3
100
AcDbLine
 10
87.4849242404918
 20
79.7198682106936
 30
0.0
 11
87.4849242404918
 21
79.2465329616198
 31
0.0
  0
LINE
  5
152
102
{ACAD_REACTORS
330
353
102
}
330
1F
100
AcDbEntity
  8
1
  6
Continuous
 62
     3
100
AcDbLine
 10
86.4280614953938
 20
80.1728093871641
 30
0.0
 11
87.0319830640213
 21
80.1728093871641
 31
0.0
  0
LINE
  5
153
102
{ACAD_REACTORS
330
34F
102
}
330
1F
100
AcDbEntity
  8
1
  6
Continuous
 62
     3
100
AcDbLine
 10
83.5594340444133
 20
77.9835937008894
 30
0.0
 11
83.5594340444133
 21
76.7757505636345
 31
0.0
  0
LINE
  5
154
102
{ACAD_REACTORS
330
34F
102
}
330
1F
100
AcDbEntity
  8
1
  6
Continuous
 62
     3
100
AcDbLine
 10
83.1064928679425
 20
77.9835937008894
 30
0.0
 11
83.1064928679425
 21
77.0022211518698
 31
0.0
  0
LINE
  5
155
102
{ACAD_REACTORS
330
34F
102
}
330
1F
100
AcDbEntity
  8
1
  6
Continuous
 62
     3
100
AcDbLine
 10
82.5780614953936
 20
78.2100642891247
 30
0.0
 11
82.8800222797074
 21
78.2100642891247
 31
0.0
  0
LINE
  5
156
102
{ACAD_REACTORS
330
34F
102
}
330
1F
100
AcDbEntity
  8
1
  6
Continuous
 62
     3
100
AcDbLine
 10
82.5780614953936
 20
78.6630054655955
 30
0.0
 11
82.5780614953936
 21
78.2100642891247
 31
0.0
  0
LINE
  5
157
102
{ACAD_REACTORS
330
34F
102
}
330
1F
100
AcDbEntity
  8
1
  6
Continuous
 62
     3
100
AcDbLine
 10
82.8800222797074
 20
78.6630054655955
 30
0.0
 11
82.5780614953936
 21
78.6630054655955
 31
0.0
  0
LINE
  5
158
102
{ACAD_REACTORS
330
34F
102
}
330
1F
100
AcDbEntity
  8
1
  6
Continuous
 62
     3
100
AcDbLine
 10
82.5025712993152
 20
78.964966249909
 30
0.0
 11
82.5025712993152
 21
79.4933976224582
 31
0.0
  0
LINE
  5
159
102
{ACAD_REACTORS
330
34F
102
}
330
1F
100
AcDbEntity
  8
1
  6
Continuous
 62
     3
100
AcDbLine
 10
82.0496301228445
 20
78.964966249909
 30
0.0
 11
82.0496301228445
 21
79.7198682106936
 31
0.0
  0
LINE
  5
15A
102
{ACAD_REACTORS
330
34F
102
}
330
1F
100
AcDbEntity
  8
1
  6
Continuous
 62
     3
100
AcDbLine
 10
82.0496301228445
 20
78.964966249909
 30
0.0
 11
82.5025712993152
 21
78.964966249909
 31
0.0
  0
LINE
  5
15B
102
{ACAD_REACTORS
330
34F
102
}
330
1F
100
AcDbEntity
  8
1
  6
Continuous
 62
     3
100
AcDbLine
 10
82.0496301228445
 20
77.8326133087327
 30
0.0
 11
82.5025712993152
 21
77.8326133087327
 31
0.0
  0
LINE
  5
15C
102
{ACAD_REACTORS
330
34F
102
}
330
1F
100
AcDbEntity
  8
1
  6
Continuous
 62
     3
100
AcDbLine
 10
82.5025712993152
 20
77.0022211518698
 30
0.0
 11
82.5025712993152
 21
77.8326133087327
 31
0.0
  0
LINE
  5
15D
102
{ACAD_REACTORS
330
34F
102
}
330
1F
100
AcDbEntity
  8
1
  6
Continuous
 62
     3
100
AcDbLine
 10
82.8800222797074
 20
76.7757505636345
 30
0.0
 11
82.7290418875506
 21
76.7757505636345
 31
0.0
  0
LINE
  5
15E
102
{ACAD_REACTORS
330
34F
102
}
330
1F
100
AcDbEntity
  8
1
  6
Continuous
 62
     3
100
AcDbLine
 10
83.1064928679425
 20
79.4933976224582
 30
0.0
 11
83.1064928679425
 21
78.8894760538307
 31
0.0
  0
LINE
  5
15F
102
{ACAD_REACTORS
330
34F
102
}
330
1F
100
AcDbEntity
  8
1
  6
Continuous
 62
     3
100
AcDbLine
 10
82.7290418875506
 20
79.7198682106936
 30
0.0
 11
82.8800222797074
 21
79.7198682106936
 31
0.0
  0
LINE
  5
160
102
{ACAD_REACTORS
330
34F
102
}
330
1F
100
AcDbEntity
  8
1
  6
Continuous
 62
     3
100
AcDbLine
 10
82.0496301228445
 20
76.7757505636345
 30
0.0
 11
82.0496301228445
 21
77.8326133087327
 31
0.0
  0
LINE
  5
161
102
{ACAD_REACTORS
330
34F
102
}
330
1F
100
AcDbEntity
  8
1
  6
Continuous
 62
     3
100
AcDbLine
 10
83.1064928679425
 20
76.3228093871641
 30
0.0
 11
82.5025712993152
 21
76.3228093871641
 31
0.0
  0
LINE
  5
162
102
{ACAD_REACTORS
330
34F
102
}
330
1F
100
AcDbEntity
  8
1
  6
Continuous
 62
     3
100
AcDbLine
 10
83.5594340444133
 20
79.7198682106936
 30
0.0
 11
83.5594340444133
 21
78.8894760538307
 31
0.0
  0
LINE
  5
163
102
{ACAD_REACTORS
330
34F
102
}
330
1F
100
AcDbEntity
  8
1
  6
Continuous
 62
     3
100
AcDbLine
 10
82.5025712993152
 20
80.1728093871641
 30
0.0
 11
83.1064928679425
 21
80.1728093871641
 31
0.0
  0
LINE
  5
164
102
{ACAD_REACTORS
330
34E
102
}
330
1F
100
AcDbEntity
  8
1
  6
Continuous
 62
     3
100
AcDbLine
 10
82.4962035688163
 20
83.6575435232002
 30
0.0
 11
82.4962035688163
 21
84.6384771034366
 31
0.0
  0
LINE
  5
165
102
{ACAD_REACTORS
330
34E
102
}
330
1F
100
AcDbEntity
  8
1
  6
Continuous
 62
     3
100
AcDbLine
 10
82.7226741570516
 20
83.1664182799069
 30
0.0
 11
82.8736545492087
 21
83.1664182799069
 31
0.0
  0
LINE
  5
166
102
{ACAD_REACTORS
330
34E
102
}
330
1F
100
AcDbEntity
  8
1
  6
Continuous
 62
     3
100
AcDbLine
 10
83.1001251374439
 20
82.9399476916717
 30
0.0
 11
83.1001251374439
 21
82.4303888681422
 31
0.0
  0
LINE
  5
167
102
{ACAD_REACTORS
330
34E
102
}
330
1F
100
AcDbEntity
  8
1
  6
Continuous
 62
     3
100
AcDbLine
 10
83.5530663139143
 20
83.1664182799069
 30
0.0
 11
83.5530663139143
 21
82.4303888681422
 31
0.0
  0
LINE
  5
168
102
{ACAD_REACTORS
330
34E
102
}
330
1F
100
AcDbEntity
  8
1
  6
Continuous
 62
     3
100
AcDbLine
 10
83.1001251374439
 20
82.4303888681422
 30
0.0
 11
83.1001251374439
 21
82.147300632848
 31
0.0
  0
LINE
  5
169
102
{ACAD_REACTORS
330
34E
102
}
330
1F
100
AcDbEntity
  8
1
  6
Continuous
 62
     3
100
AcDbLine
 10
83.5530663139143
 20
82.4303888681422
 30
0.0
 11
83.5530663139143
 21
81.9208300446127
 31
0.0
  0
LINE
  5
16A
102
{ACAD_REACTORS
330
34E
102
}
330
1F
100
AcDbEntity
  8
1
  6
Continuous
 62
     3
100
AcDbLine
 10
83.1001251374439
 20
84.391612442598
 30
0.0
 11
83.5530663139143
 21
84.391612442598
 31
0.0
  0
LINE
  5
16B
102
{ACAD_REACTORS
330
34E
102
}
330
1F
100
AcDbEntity
  8
1
  6
Continuous
 62
     3
100
AcDbLine
 10
82.4962035688163
 20
82.147300632848
 30
0.0
 11
82.4962035688163
 21
82.9399476916717
 31
0.0
  0
LINE
  5
16C
102
{ACAD_REACTORS
330
34E
102
}
330
1F
100
AcDbEntity
  8
1
  6
Continuous
 62
     3
100
AcDbLine
 10
82.8736545492087
 20
81.9208300446127
 30
0.0
 11
82.7226741570517
 21
81.9208300446127
 31
0.0
  0
LINE
  5
16D
102
{ACAD_REACTORS
330
34E
102
}
330
1F
100
AcDbEntity
  8
1
  6
Continuous
 62
     3
100
AcDbLine
 10
83.1001251374439
 20
84.6384771034366
 30
0.0
 11
83.1001251374439
 21
84.391612442598
 31
0.0
  0
LINE
  5
16E
102
{ACAD_REACTORS
330
34E
102
}
330
1F
100
AcDbEntity
  8
1
  6
Continuous
 62
     3
100
AcDbLine
 10
82.7226741570517
 20
84.8649476916718
 30
0.0
 11
82.8736545492087
 21
84.8649476916718
 31
0.0
  0
LINE
  5
16F
102
{ACAD_REACTORS
330
34E
102
}
330
1F
100
AcDbEntity
  8
1
  6
Continuous
 62
     3
100
AcDbLine
 10
82.0432623923458
 20
81.9208300446127
 30
0.0
 11
82.0432623923458
 21
84.8649476916718
 31
0.0
  0
LINE
  5
170
102
{ACAD_REACTORS
330
34E
102
}
330
1F
100
AcDbEntity
  8
1
  6
Continuous
 62
     3
100
AcDbLine
 10
83.1001251374439
 20
81.4678888681423
 30
0.0
 11
82.4962035688163
 21
81.4678888681423
 31
0.0
  0
LINE
  5
171
102
{ACAD_REACTORS
330
34E
102
}
330
1F
100
AcDbEntity
  8
1
  6
Continuous
 62
     3
100
AcDbLine
 10
83.5530663139143
 20
84.8649476916718
 30
0.0
 11
83.5530663139143
 21
84.391612442598
 31
0.0
  0
LINE
  5
172
102
{ACAD_REACTORS
330
34E
102
}
330
1F
100
AcDbEntity
  8
1
  6
Continuous
 62
     3
100
AcDbLine
 10
82.4962035688163
 20
85.3178888681423
 30
0.0
 11
83.1001251374439
 21
85.3178888681423
 31
0.0
  0
LINE
  5
173
330
1F
100
AcDbEntity
  8
1
  6
Continuous
 62
     3
100
AcDbLine
 10
14.5175006100537
 20
19.6
 30
0.0
 11
-14.8838477631085
 21
19.6
 31
0.0
  0
LINE
  5
174
330
1F
100
AcDbEntity
  8
1
  6
Continuous
 62
     3
100
AcDbLine
 10
-7.0
 20
16.0
 30
0.0
 11
-7.0
 21
17.0
 31
0.0
  0
LINE
  5
175
330
1F
100
AcDbEntity
  8
1
  6
Continuous
 62
     3
100
AcDbLine
 10
7.0
 20
17.0
 30
0.0
 11
7.0
 21
16.0
 31
0.0
  0
LINE
  5
176
330
1F
100
AcDbEntity
  8
1
  6
Continuous
 62
     3
100
AcDbLine
 10
0.0
 20
29.0
 30
0.0
 11
1.65831239517774
 21
29.0
 31
0.0
  0
LINE
  5
177
330
1F
100
AcDbEntity
  8
1
  6
Continuous
 62
     3
100
AcDbLine
 10
4.0
 20
28.0
 30
0.0
 11
3.32349999999997
 21
28.6765000000002
 31
0.0
  0
LINE
  5
178
330
1F
100
AcDbEntity
  8
1
  6
Continuous
 62
     3
100
AcDbLine
 10
4.0
 20
28.0
 30
0.0
 11
3.12249899919925
 21
28.0
 31
0.0
  0
LINE
  5
179
330
1F
100
AcDbEntity
  8
1
  6
Continuous
 62
     3
100
AcDbLine
 10
3.12249899919925
 20
28.0
 30
0.0
 11
3.12249899919925
 21
26.6
 31
0.0
  0
LINE
  5
17A
330
1F
100
AcDbEntity
  8
1
  6
Continuous
 62
     3
100
AcDbLine
 10
3.32349999999997
 20
28.6765000000002
 30
0.0
 11
3.32349999999997
 21
26.6
 31
0.0
  0
LINE
  5
17B
330
1F
100
AcDbEntity
  8
1
  6
Continuous
 62
     3
100
AcDbLine
 10
3.32349999999997
 20
28.6765000000002
 30
0.0
 11
3.0
 21
29.0
 31
0.0
  0
LINE
  5
17C
330
1F
100
AcDbEntity
  8
1
  6
Continuous
 62
     3
100
AcDbLine
 10
4.0
 20
28.0
 30
0.0
 11
4.0
 21
26.6
 31
0.0
  0
LINE
  5
17D
330
1F
100
AcDbEntity
  8
1
  6
Continuous
 62
     3
100
AcDbLine
 10
-4.0
 20
28.0
 30
0.0
 11
-4.0
 21
26.6
 31
0.0
  0
LINE
  5
17E
330
1F
100
AcDbEntity
  8
1
  6
Continuous
 62
     3
100
AcDbLine
 10
-3.0
 20
29.0
 30
0.0
 11
-3.32349999999997
 21
28.6765000000002
 31
0.0
  0
LINE
  5
17F
330
1F
100
AcDbEntity
  8
1
  6
Continuous
 62
     3
100
AcDbLine
 10
-3.12249899919925
 20
28.0
 30
0.0
 11
-4.0
 21
28.0
 31
0.0
  0
LINE
  5
180
330
1F
100
AcDbEntity
  8
1
  6
Continuous
 62
     3
100
AcDbLine
 10
-3.32349999999997
 20
28.6765000000002
 30
0.0
 11
-4.0
 21
28.0
 31
0.0
  0
LINE
  5
181
330
1F
100
AcDbEntity
  8
1
  6
Continuous
 62
     3
100
AcDbLine
 10
-3.0
 20
29.0
 30
0.0
 11
-1.65831239517774
 21
29.0
 31
0.0
  0
LINE
  5
182
330
1F
100
AcDbEntity
  8
1
  6
Continuous
 62
     3
100
AcDbLine
 10
1.65831239517774
 20
29.0
 30
0.0
 11
3.0
 21
29.0
 31
0.0
  0
LINE
  5
183
330
1F
100
AcDbEntity
  8
1
  6
Continuous
 62
     3
100
AcDbLine
 10
-1.65831239517774
 20
29.0
 30
0.0
 11
0.0
 21
29.0
 31
0.0
  0
LINE
  5
184
330
1F
100
AcDbEntity
  8
1
  6
Continuous
 62
     3
100
AcDbLine
 10
3.12249899919925
 20
28.0
 30
0.0
 11
2.348782433026
 21
26.6
 31
0.0
  0
LINE
  5
185
330
1F
100
AcDbEntity
  8
1
  6
Continuous
 62
     3
100
AcDbLine
 10
-3.12249899919925
 20
28.0
 30
0.0
 11
-2.348782433026
 21
26.6
 31
0.0
  0
LINE
  5
186
330
1F
100
AcDbEntity
  8
1
  6
DOT_CENTER
 62
     4
100
AcDbLine
 10
-63.9993170597623
 20
29.6307437384332
 30
0.0
 11
-63.9993170597623
 21
-18.0
 31
0.0
  0
LINE
  5
187
330
1F
100
AcDbEntity
  8
1
  6
DOT_CENTER
 62
     4
100
AcDbLine
 10
-83.4612141186916
 20
0.0
 30
0.0
 11
-43.99931705976232
 21
0.0
 31
0.0
  0
LINE
  5
188
330
1F
100
AcDbEntity
  8
1
  6
Continuous
 62
     3
100
AcDbLine
 10
-70.9993170597623
 20
17.0
 30
0.0
 11
-70.9993170597623
 21
16.0
 31
0.0
  0
LINE
  5
189
330
1F
100
AcDbEntity
  8
1
  6
Continuous
 62
     3
100
AcDbLine
 10
-73.2369213667964
 20
16.0
 30
0.0
 11
-54.7617127527283
 21
16.0
 31
0.0
  0
LINE
  5
18A
330
1F
100
AcDbEntity
  8
1
  6
Continuous
 62
     3
100
AcDbLine
 10
-71.9993170597623
 20
17.0
 30
0.0
 11
-55.9993170597623
 21
17.0
 31
0.0
  0
LINE
  5
18B
330
1F
100
AcDbEntity
  8
1
  6
Continuous
 62
     3
100
AcDbLine
 10
-56.9993170597623
 20
16.0
 30
0.0
 11
-56.9993170597623
 21
17.0
 31
0.0
  0
LINE
  5
18C
330
1F
100
AcDbEntity
  8
1
  6
Continuous
 62
     3
100
AcDbLine
 10
-55.9993170597623
 20
17.0
 30
0.0
 11
-55.9993170597623
 21
17.6
 31
0.0
  0
LINE
  5
18D
330
1F
100
AcDbEntity
  8
1
  6
Continuous
 62
     3
100
AcDbLine
 10
-71.9993170597623
 20
17.6
 30
0.0
 11
-71.9993170597623
 21
17.0
 31
0.0
  0
LINE
  5
18E
330
1F
100
AcDbEntity
  8
1
  6
Continuous
 62
     3
100
AcDbLine
 10
-77.010081833595
 20
12.0
 30
0.0
 11
-81.9598293019008
 21
12.0
 31
0.0
  0
LINE
  5
18F
330
1F
100
AcDbEntity
  8
1
  6
Continuous
 62
     3
100
AcDbLine
 10
-77.010081833595
 20
16.6
 30
0.0
 11
-77.010081833595
 21
12.0
 31
0.0
  0
LINE
  5
190
330
1F
100
AcDbEntity
  8
1
  6
Continuous
 62
     3
100
AcDbLine
 10
-75.5958682712219
 20
12.0
 30
0.0
 11
-77.010081833595
 21
12.0
 31
0.0
  0
LINE
  5
191
330
1F
100
AcDbEntity
  8
1
  6
Continuous
 62
     3
100
AcDbLine
 10
-75.5958682712217
 20
17.0999999999999
 30
0.0
 11
-75.5958682712219
 21
12.0
 31
0.0
  0
LINE
  5
192
330
1F
100
AcDbEntity
  8
1
  6
Continuous
 62
     3
100
AcDbLine
 10
-81.9598293019009
 20
16.6
 30
0.0
 11
-81.9598293019008
 21
12.0
 31
0.0
  0
LINE
  5
193
330
1F
100
AcDbEntity
  8
1
  6
Continuous
 62
     3
100
AcDbLine
 10
-49.0845442097741
 20
17.6
 30
0.0
 11
-75.0958682712217
 21
17.5999999999999
 31
0.0
  0
LINE
  5
194
330
1F
100
AcDbEntity
  8
1
  6
Continuous
 62
     3
100
AcDbLine
 10
-49.0845442097741
 20
19.6
 30
0.0
 11
-49.0845442097741
 21
17.6
 31
0.0
  0
LINE
  5
195
330
1F
100
AcDbEntity
  8
1
  6
Continuous
 62
     3
100
AcDbLine
 10
-78.9598293019009
 20
19.6
 30
0.0
 11
-74.010081833595
 21
19.6
 31
0.0
  0
LINE
  5
196
330
1F
100
AcDbEntity
  8
1
  6
Continuous
 62
     3
100
AcDbLine
 10
-45.5241084456944
 20
0.0
 30
0.0
 11
-54.7617127527283
 21
16.0
 31
0.0
  0
LINE
  5
197
330
1F
100
AcDbEntity
  8
1
  6
Continuous
 62
     3
100
AcDbLine
 10
-54.7617127527283
 20
-16.0
 30
0.0
 11
-45.5241084456944
 21
0.0
 31
0.0
  0
LINE
  5
198
330
1F
100
AcDbEntity
  8
1
  6
Continuous
 62
     3
100
AcDbLine
 10
-73.2369213667964
 20
-16.0
 30
0.0
 11
-54.7617127527283
 21
-16.0
 31
0.0
  0
LINE
  5
199
330
1F
100
AcDbEntity
  8
1
  6
Continuous
 62
     3
100
AcDbLine
 10
-82.4745256738303
 20
0.0
 30
0.0
 11
-73.2369213667964
 21
-16.0
 31
0.0
  0
LINE
  5
19A
330
1F
100
AcDbEntity
  8
1
  6
Continuous
 62
     3
100
AcDbLine
 10
-73.2369213667964
 20
16.0
 30
0.0
 11
-82.4745256738303
 21
0.0
 31
0.0
  0
LINE
  5
19B
330
1F
100
AcDbEntity
  8
1
  6
Continuous
 62
     3
100
AcDbLine
 10
31.0
 20
-16.0
 30
0.0
 11
29.7381603686007
 21
-16.0
 31
0.0
  0
LINE
  5
19C
330
1F
100
AcDbEntity
  8
1
  6
Continuous
 62
     3
100
AcDbLine
 10
8.0
 20
17.6
 30
0.0
 11
8.0
 21
17.0
 31
0.0
  0
LINE
  5
19D
330
1F
100
AcDbEntity
  8
1
  6
Continuous
 62
     3
100
AcDbLine
 10
-8.0
 20
17.0
 30
0.0
 11
-8.0
 21
17.6
 31
0.0
  0
LINE
  5
19E
330
1F
100
AcDbEntity
  8
1
  6
Continuous
 62
     3
100
AcDbLine
 10
7.70000000000005
 20
21.6
 30
0.0
 11
7.70000000000005
 21
19.6
 31
0.0
  0
LINE
  5
19F
330
1F
100
AcDbEntity
  8
1
  6
Continuous
 62
     3
100
AcDbLine
 10
-7.70000000000005
 20
19.6
 30
0.0
 11
-7.70000000000005
 21
21.6
 31
0.0
  0
LINE
  5
1A0
330
1F
100
AcDbEntity
  8
1
  6
Continuous
 62
     3
100
AcDbLine
 10
7.5
 20
26.0226497308104
 30
0.0
 11
7.5
 21
22.1773502691897
 31
0.0
  0
LINE
  5
1A1
330
1F
100
AcDbEntity
  8
1
  6
Continuous
 62
     3
100
AcDbLine
 10
4.0
 20
26.6
 30
0.0
 11
6.5
 21
26.6
 31
0.0
  0
LINE
  5
1A2
330
1F
100
AcDbEntity
  8
1
  6
Continuous
 62
     3
100
AcDbLine
 10
6.5
 20
26.6
 30
0.0
 11
7.5
 21
26.0226497308104
 31
0.0
  0
LINE
  5
1A3
330
1F
100
AcDbEntity
  8
1
  6
Continuous
 62
     3
100
AcDbLine
 10
7.5
 20
22.1773502691897
 30
0.0
 11
6.5
 21
21.6
 31
0.0
  0
LINE
  5
1A4
330
1F
100
AcDbEntity
  8
1
  6
Continuous
 62
     3
100
AcDbLine
 10
-6.5
 20
21.6
 30
0.0
 11
-7.5
 21
22.1773502691897
 31
0.0
  0
LINE
  5
1A5
330
1F
100
AcDbEntity
  8
1
  6
Continuous
 62
     3
100
AcDbLine
 10
-7.5
 20
26.0226497308104
 30
0.0
 11
-6.5
 21
26.6
 31
0.0
  0
LINE
  5
1A6
330
1F
100
AcDbEntity
  8
1
  6
Continuous
 62
     3
100
AcDbLine
 10
-6.5
 20
26.6
 30
0.0
 11
-4.0
 21
26.6
 31
0.0
  0
LINE
  5
1A7
330
1F
100
AcDbEntity
  8
1
  6
Continuous
 62
     3
100
AcDbLine
 10
-7.5
 20
22.1773502691897
 30
0.0
 11
-7.5
 21
26.0226497308104
 31
0.0
  0
LINE
  5
1A8
330
1F
100
AcDbEntity
  8
1
  6
DOT_CENTER
 62
     4
100
AcDbLine
 10
-30.8256021348145
 20
0.0
 30
0.0
 11
-28.7691900880497
 21
0.0
 31
0.0
  0
LINE
  5
1A9
330
1F
100
AcDbEntity
  8
1
  6
Continuous
 62
     3
100
AcDbLine
 10
-4.0
 20
26.6
 30
0.0
 11
4.0
 21
26.6
 31
0.0
  0
LINE
  5
1AA
330
1F
100
AcDbEntity
  8
1
  6
Continuous
 62
     3
100
AcDbLine
 10
-7.70000000000005
 20
21.6
 30
0.0
 11
1.79472802664438
 21
21.6
 31
0.0
  0
LINE
  5
1AB
330
1F
100
AcDbEntity
  8
1
  6
Continuous
 62
     3
100
AcDbLine
 10
-3.12249899919925
 20
26.6
 30
0.0
 11
-3.12249899919925
 21
28.0
 31
0.0
  0
LINE
  5
1AC
330
1F
100
AcDbEntity
  8
1
  6
Continuous
 62
     3
100
AcDbLine
 10
-3.32349999999997
 20
26.6
 30
0.0
 11
-3.32349999999997
 21
28.6765000000002
 31
0.0
  0
LINE
  5
1AD
330
1F
100
AcDbEntity
  8
1
  6
Continuous
 62
     3
100
AcDbLine
 10
-8.0
 20
17.0
 30
0.0
 11
8.0
 21
17.0
 31
0.0
  0
LINE
  5
1AE
330
1F
100
AcDbEntity
  8
1
  6
Continuous
 62
     3
100
AcDbLine
 10
1.79472802664438
 20
21.6
 30
0.0
 11
7.70000000000005
 21
21.6
 31
0.0
  0
LINE
  5
1AF
330
1F
100
AcDbEntity
  8
1
  6
Continuous
 62
     3
100
AcDbLine
 10
3.75277674973259
 20
26.0226497308104
 30
0.0
 11
3.75277674973259
 21
22.1773502691897
 31
0.0
  0
LINE
  5
1B0
330
1F
100
AcDbEntity
  8
1
  6
Continuous
 62
     3
100
AcDbLine
 10
-3.75277674973253
 20
26.0226497308104
 30
0.0
 11
-3.75277674973253
 21
22.1773502691897
 31
0.0
  0
LINE
  5
1B1
330
1F
100
AcDbEntity
  8
1
  6
DOT_CENTER
 62
     4
100
AcDbLine
 10
0.0
 20
30.2747960482731
 30
0.0
 11
0.0
 21
-18.4648555466949
 31
0.0
  0
LINE
  5
1B2
330
1F
100
AcDbEntity
  8
1
  6
DOT_CENTER
 62
     4
100
AcDbLine
 10
29.7381603686007
 20
0.0
 30
0.0
 11
32.5511294719654
 21
0.0
 31
0.0
  0
LINE
  5
1B3
330
1F
100
AcDbEntity
  8
1
  6
Continuous
 62
     3
100
AcDbLine
 10
-28.7691900880497
 20
0.0
 30
0.0
 11
29.7381603686007
 21
0.0
 31
0.0
  0
LINE
  5
1B4
330
1F
100
AcDbEntity
  8
1
  6
Continuous
 62
     3
100
AcDbLine
 10
-30.0
 20
16.0
 30
0.0
 11
-28.7691900880497
 21
16.0
 31
0.0
  0
LINE
  5
1B5
330
1F
100
AcDbEntity
  8
1
  6
Continuous
 62
     3
100
AcDbLine
 10
29.7381603686007
 20
-16.0
 30
0.0
 11
-28.7691900880497
 21
-16.0
 31
0.0
  0
LINE
  5
1B6
330
1F
100
AcDbEntity
  8
1
  6
Continuous
 62
     3
100
AcDbLine
 10
29.7381603686007
 20
16.0
 30
0.0
 11
31.0
 21
16.0
 31
0.0
  0
LINE
  5
1B7
330
1F
100
AcDbEntity
  8
1
  6
Continuous
 62
     3
100
AcDbLine
 10
-28.7691900880497
 20
-16.0
 30
0.0
 11
-30.0
 21
-16.0
 31
0.0
  0
LINE
  5
1B8
330
1F
100
AcDbEntity
  8
1
  6
Continuous
 62
     3
100
AcDbLine
 10
-71.6993170597623
 20
20.1
 30
0.0
 11
-71.6993170597623
 21
21.1
 31
0.0
  0
LINE
  5
1B9
330
1F
100
AcDbEntity
  8
1
  6
Continuous
 62
     3
100
AcDbLine
 10
-71.5851034973893
 20
19.7819295289672
 30
0.0
 11
-71.5851034973893
 21
19.6
 31
0.0
  0
LINE
  5
1BA
330
1F
100
AcDbEntity
  8
1
  6
Continuous
 62
     3
100
AcDbLine
 10
-57.7493170597623
 20
21.6
 30
0.0
 11
-56.7993170597623
 21
21.6
 31
0.0
  0
LINE
  5
1BB
330
1F
100
AcDbEntity
  8
1
  6
Continuous
 62
     3
100
AcDbLine
 10
-56.2993170597623
 20
21.1
 30
0.0
 11
-56.2993170597623
 21
20.1
 31
0.0
  0
LINE
  5
1BC
330
1F
100
AcDbEntity
  8
1
  6
Continuous
 62
     3
100
AcDbLine
 10
-53.5851034973893
 20
33.607717419331
 30
0.0
 11
-53.5851034973893
 21
33.107717419331
 31
0.0
  0
LINE
  5
1BD
330
1F
100
AcDbEntity
  8
1
  6
Continuous
 62
     3
100
AcDbLine
 10
-70.2493170597623
 20
21.6
 30
0.0
 11
-57.7493170597623
 21
21.6
 31
0.0
  0
LINE
  5
1BE
330
1F
100
AcDbEntity
  8
1
  6
Continuous
 62
     3
100
AcDbLine
 10
-61.4993170597623
 20
29.0
 30
0.0
 11
-61.4993170597623
 21
26.6
 31
0.0
  0
LINE
  5
1BF
330
1F
100
AcDbEntity
  8
1
  6
Continuous
 62
     3
100
AcDbLine
 10
-66.4993170597623
 20
29.0
 30
0.0
 11
-66.4993170597623
 21
26.6
 31
0.0
  0
LINE
  5
1C0
330
1F
100
AcDbEntity
  8
1
  6
Continuous
 62
     3
100
AcDbLine
 10
-66.4993170597623
 20
29.0
 30
0.0
 11
-61.4993170597623
 21
29.0
 31
0.0
  0
LINE
  5
1C1
330
1F
100
AcDbEntity
  8
1
  6
Continuous
 62
     3
100
AcDbLine
 10
-66.4993170597623
 20
28.0
 30
0.0
 11
-61.4993170597623
 21
28.0
 31
0.0
  0
LINE
  5
1C2
330
1F
100
AcDbEntity
  8
1
  6
Continuous
 62
     3
100
AcDbLine
 10
-73.0851034973893
 20
41.5668840005369
 30
0.0
 11
-73.0851034973893
 21
40.1296230163032
 31
0.0
  0
LINE
  5
1C3
330
1F
100
AcDbEntity
  8
1
  6
Continuous
 62
     3
100
AcDbLine
 10
-52.0851034973893
 20
40.1296230163032
 30
0.0
 11
-52.0851034973893
 21
41.5668840005369
 31
0.0
  0
LINE
  5
1C4
330
1F
100
AcDbEntity
  8
1
  6
Continuous
 62
     3
100
AcDbLine
 10
-57.7493170597623
 20
26.6
 30
0.0
 11
-70.2493170597623
 21
26.6
 31
0.0
  0
LINE
  5
1C5
330
1F
100
AcDbEntity
  8
1
  6
Continuous
 62
     3
100
AcDbLine
 10
-57.7493170597629
 20
25.8751058491018
 30
0.0
 11
-57.7493170597623
 21
21.6
 31
0.0
  0
LINE
  5
1C6
330
1F
100
AcDbEntity
  8
1
  6
Continuous
 62
     3
100
AcDbLine
 10
-63.9993170597623
 20
25.8751058491018
 30
0.0
 11
-63.9993170597623
 21
22.3248941508982
 31
0.0
  0
LINE
  5
1C7
330
1F
100
AcDbEntity
  8
1
  6
Continuous
 62
     3
100
AcDbLine
 10
-70.2493170597623
 20
26.6
 30
0.0
 11
-70.2493170597623
 21
21.6
 31
0.0
  0
LINE
  5
1C8
330
1F
100
AcDbEntity
  8
1
  6
Continuous
 62
     3
100
AcDbLine
 10
-57.7493170597623
 20
26.6
 30
0.0
 11
-57.7493170597629
 21
25.8751058491018
 31
0.0
  0
LINE
  5
1C9
330
1F
100
AcDbEntity
  8
1
  6
Continuous
 62
     3
100
AcDbLine
 10
-71.1993170597622
 20
21.6
 30
0.0
 11
-70.2493170597623
 21
21.6
 31
0.0
  0
LINE
  5
1CA
330
1F
100
AcDbEntity
  8
1
  6
Continuous
 62
     3
100
AcDbLine
 10
-74.2577205677113
 20
46.6513734781345
 30
0.0
 11
-72.2577205677113
 21
44.6513734781345
 31
0.0
  0
LINE
  5
1CB
330
1F
100
AcDbEntity
  8
1
  6
Continuous
 62
     3
100
AcDbLine
 10
-52.9124864270674
 20
44.6513734781345
 30
0.0
 11
-50.9124864270674
 21
46.6513734781345
 31
0.0
  0
LINE
  5
1CC
330
1F
100
AcDbEntity
  8
1
  6
Continuous
 62
     3
100
AcDbLine
 10
-52.0851034973893
 20
32.76814826284959
 30
0.0
 11
-52.0851034973893
 21
40.1296230163032
 31
0.0
  0
LINE
  5
1CD
330
1F
100
AcDbEntity
  8
1
  6
Continuous
 62
     3
100
AcDbLine
 10
-71.0851034973893
 20
42.9070789576608
 30
0.0
 11
-54.0851034973893
 21
42.9070789576608
 31
0.0
  0
LINE
  5
1CE
330
1F
100
AcDbEntity
  8
1
  6
Continuous
 62
     3
100
AcDbLine
 10
-73.0851034973893
 20
40.1296230163032
 30
0.0
 11
-73.0851034973893
 21
32.76814826284959
 31
0.0
  0
LINE
  5
1CF
330
1F
100
AcDbEntity
  8
1
  6
Continuous
 62
     3
100
AcDbLine
 10
-70.5851034973893
 20
34.607717419331
 30
0.0
 11
-54.5851034973893
 21
34.607717419331
 31
0.0
  0
LINE
  5
1D0
330
1F
100
AcDbEntity
  8
1
  6
Continuous
 62
     3
100
AcDbLine
 10
-71.5851034973893
 20
33.607717419331
 30
0.0
 11
-71.5851034973893
 21
33.107717419331
 31
0.0
  0
LINE
  5
1D1
330
1F
100
AcDbEntity
  8
1
  6
Continuous
 62
     3
100
AcDbLine
 10
-74.010081833595
 20
19.6
 30
0.0
 11
-49.0845442097741
 21
19.6
 31
0.0
  0
LINE
  5
1D2
330
1F
100
AcDbEntity
  8
1
  6
Continuous
 62
     3
100
AcDbLine
 10
14.5175006100537
 20
17.6
 30
0.0
 11
-11.3162063326052
 21
17.6
 31
0.0
  0
LINE
  5
1D3
330
1F
100
AcDbEntity
  8
1
  6
Continuous
 62
     3
100
AcDbLine
 10
3.88425809043292
 20
88.5675350194496
 30
0.0
 11
3.96755475761302
 21
88.4232609597925
 31
0.0
  0
LINE
  5
1D4
330
1F
100
AcDbEntity
  8
1
  6
Continuous
 62
     3
100
AcDbLine
 10
3.88425809043292
 20
88.5675350194496
 30
0.0
 11
3.96755475761302
 21
88.4232609597925
 31
0.0
  0
LINE
  5
1D5
330
1F
100
AcDbEntity
  8
1
  6
Continuous
 62
     3
100
AcDbLine
 10
3.74722325026755
 20
88.8048863250233
 30
0.0
 11
3.88425809043292
 21
88.5675350194496
 31
0.0
  0
LINE
  5
1D6
330
1F
100
AcDbEntity
  8
1
  6
Continuous
 62
     3
100
AcDbLine
 10
3.12249899919925
 20
84.8048863250233
 30
0.0
 11
-3.12249899919914
 21
84.8048863250233
 31
0.0
  0
LINE
  5
1D7
330
1F
100
AcDbEntity
  8
1
  6
Continuous
 62
     3
100
AcDbLine
 10
-3.12249899919914
 20
79.8048863250233
 30
0.0
 11
3.12249899919925
 21
79.8048863250233
 31
0.0
  0
LINE
  5
1D8
330
1F
100
AcDbEntity
  8
1
  6
Continuous
 62
     3
100
AcDbLine
 10
-3.74722325026744
 20
75.8048863250233
 30
0.0
 11
3.74722325026755
 21
75.8048863250233
 31
0.0
  0
LINE
  5
1D9
330
1F
100
AcDbEntity
  8
1
  6
Continuous
 62
     3
100
AcDbLine
 10
-3.74722325026744
 20
75.8048863250233
 30
0.0
 11
-7.5
 21
82.3048863250233
 31
0.0
  0
LINE
  5
1DA
330
1F
100
AcDbEntity
  8
1
  6
Continuous
 62
     3
100
AcDbLine
 10
-7.5
 20
82.3048863250233
 30
0.0
 11
-3.74722325026744
 21
88.8048863250233
 31
0.0
  0
LINE
  5
1DB
330
1F
100
AcDbEntity
  8
1
  6
Continuous
 62
     3
100
AcDbLine
 10
3.74722325026755
 20
88.8048863250233
 30
0.0
 11
-3.74722325026744
 21
88.8048863250233
 31
0.0
  0
LINE
  5
1DC
330
1F
100
AcDbEntity
  8
1
  6
Continuous
 62
     3
100
AcDbLine
 10
3.74722325026755
 20
88.8048863250233
 30
0.0
 11
7.5
 21
82.3048863250233
 31
0.0
  0
LINE
  5
1DD
330
1F
100
AcDbEntity
  8
1
  6
Continuous
 62
     3
100
AcDbLine
 10
7.5
 20
82.3048863250233
 30
0.0
 11
3.74722325026755
 21
75.8048863250233
 31
0.0
  0
LINE
  5
1DE
330
1F
100
AcDbEntity
  8
1
  6
Continuous
 62
     3
100
AcDbLine
 10
36.44
 20
90.8648863250233
 30
0.0
 11
68.95507575950798
 21
93.8648863250233
 31
0.0
  0
LINE
  5
1DF
330
1F
100
AcDbEntity
  8
1
  6
Continuous
 62
     3
100
AcDbLine
 10
36.44
 20
90.8648863250233
 30
0.0
 11
27.7869414296314
 21
90.8648863250233
 31
0.0
  0
LINE
  5
1E0
330
1F
100
AcDbEntity
  8
1
  6
Continuous
 62
     3
100
AcDbLine
 10
27.4849242404918
 20
88.8648863250233
 30
0.0
 11
27.4849242404918
 21
72.8648863250233
 31
0.0
  0
LINE
  5
1E1
330
1F
100
AcDbEntity
  8
1
  6
Continuous
 62
     3
100
AcDbLine
 10
14.8564078649988
 20
89.8648863250233
 30
0.0
 11
26.4849242404918
 21
89.8648863250233
 31
0.0
  0
LINE
  5
1E2
330
1F
100
AcDbEntity
  8
1
  6
Continuous
 62
     3
100
AcDbLine
 10
36.44
 20
88.5764058067757
 30
0.0
 11
36.44
 21
73.0741198922576
 31
0.0
  0
LINE
  5
1E3
330
1F
100
AcDbEntity
  8
1
  6
Continuous
 62
     3
100
AcDbLine
 10
16.44
 20
88.3786745380128
 30
0.0
 11
16.44
 21
73.2738831341234
 31
0.0
  0
LINE
  5
1E4
330
1F
100
AcDbEntity
  8
1
  6
LONG_DASHED
 62
     4
100
AcDbLine
 10
-16.4755880016466
 20
93.8335741609965
 30
0.0
 11
-11.5258405333406
 21
98.7833216293024
 31
0.0
  0
LINE
  5
1E5
330
1F
100
AcDbEntity
  8
1
  6
Continuous
 62
     3
100
AcDbLine
 10
14.8564078649988
 20
71.8648863250233
 30
0.0
 11
26.4849242404918
 21
71.8648863250233
 31
0.0
  0
LINE
  5
1E6
330
1F
100
AcDbEntity
  8
1
  6
Continuous
 62
     3
100
AcDbLine
 10
-12.9400540957137
 20
100.197535191675
 30
0.0
 11
-17.8898015640196
 21
95.2477877233696
 31
0.0
  0
LINE
  5
1E7
330
1F
100
AcDbEntity
  8
1
  6
Continuous
 62
     3
100
AcDbLine
 10
27.7869414296314
 20
70.8648863250233
 30
0.0
 11
36.44
 21
70.8648863250233
 31
0.0
  0
LINE
  5
1E8
330
1F
100
AcDbEntity
  8
1
  6
Continuous
 62
     3
100
AcDbLine
 10
29.5566243270259
 20
91.5548863250233
 30
0.0
 11
11.9625424684341
 21
91.5548863250233
 31
0.0
  0
LINE
  5
1E9
330
1F
100
AcDbEntity
  8
1
  6
Continuous
 62
     3
100
AcDbLine
 10
31.0
 20
90.8648863250233
 30
0.0
 11
30.9999999999999
 21
98.3048863250233
 31
0.0
  0
LINE
  5
1EA
330
1F
100
AcDbEntity
  8
1
  6
DOT_CENTER
 62
     4
100
AcDbLine
 10
0.0
 20
103.346619547345
 30
0.0
 11
0.0
 21
61.2688477079663
 31
0.0
  0
LINE
  5
1EB
330
1F
100
AcDbEntity
  8
1
  6
Continuous
 62
     3
100
AcDbLine
 10
-14.1768446844537
 20
91.5548863250233
 30
0.0
 11
-28.5566243270259
 21
91.5548863250233
 31
0.0
  0
LINE
  5
1EC
330
1F
100
AcDbEntity
  8
1
  6
DOT_CENTER
 62
     4
100
AcDbLine
 10
-32.6584579818241
 20
82.3048863250233
 30
0.0
 11
39.01744530201
 21
82.3048863250233
 31
0.0
  0
LINE
  5
1ED
330
1F
100
AcDbEntity
  8
1
  6
Continuous
 62
     3
100
AcDbLine
 10
30.9999999999999
 20
98.3048863250233
 30
0.0
 11
29.56817133240972
 21
100.7848863250233
 31
0.0
  0
LINE
  5
1EE
330
1F
100
AcDbEntity
  8
1
  6
Continuous
 62
     3
100
AcDbLine
 10
-30.0
 20
98.3048863250233
 30
0.0
 11
-30.0
 21
66.3048863250233
 31
0.0
  0
LINE
  5
1EF
330
1F
100
AcDbEntity
  8
1
  6
Continuous
 62
     3
100
AcDbLine
 10
-28.5566243270259
 20
73.0548863250233
 30
0.0
 11
-11.3664007433783
 21
73.0548863250233
 31
0.0
  0
LINE
  5
1F0
330
1F
100
AcDbEntity
  8
1
  6
Continuous
 62
     3
100
AcDbLine
 10
31.0
 20
66.3048863250233
 30
0.0
 11
31.0
 21
70.8648863250233
 31
0.0
  0
LINE
  5
1F1
330
1F
100
AcDbEntity
  8
1
  6
Continuous
 62
     3
100
AcDbLine
 10
-30.0
 20
66.3048863250233
 30
0.0
 11
-28.56817133240969
 21
63.8248863250233
 31
0.0
  0
LINE
  5
1F2
330
1F
100
AcDbEntity
  8
1
  6
Continuous
 62
     3
100
AcDbLine
 10
-17.8898015640196
 20
16.0
 30
0.0
 11
-17.8898015640196
 21
17.6
 31
0.0
  0
LINE
  5
1F3
330
1F
100
AcDbEntity
  8
1
  6
Continuous
 62
     3
100
AcDbLine
 10
-16.4755880016466
 20
16.0
 30
0.0
 11
-16.4755880016466
 21
16.6
 31
0.0
  0
LINE
  5
1F4
330
1F
100
AcDbEntity
  8
1
  6
Continuous
 62
     3
100
AcDbLine
 10
-13.5599409842605
 20
19.3000000000001
 30
0.0
 11
-13.5599409842605
 21
17.6
 31
0.0
  0
LINE
  5
1F5
330
1F
100
AcDbEntity
  8
1
  6
Continuous
 62
     3
100
AcDbLine
 10
-14.8838477631085
 20
19.6
 30
0.0
 11
-15.8898015640197
 21
19.6
 31
0.0
  0
LINE
  5
1F6
330
1F
100
AcDbEntity
  8
1
  6
Continuous
 62
     3
100
AcDbLine
 10
-15.1838477631085
 20
17.6
 30
0.0
 11
-15.4755880016466
 21
17.6
 31
0.0
  0
LINE
  5
1F7
330
1F
100
AcDbEntity
  8
1
  6
Continuous
 62
     3
100
AcDbLine
 10
-11.5258405333406
 20
17.6
 30
0.0
 11
-11.5258405333406
 21
16.0
 31
0.0
  0
LINE
  5
1F8
330
1F
100
AcDbEntity
  8
1
  6
Continuous
 62
     3
100
AcDbLine
 10
-11.3162063326052
 20
17.6
 30
0.0
 11
-15.1838477631085
 21
17.6
 31
0.0
  0
LINE
  5
1F9
330
1F
100
AcDbEntity
  8
1
  6
Continuous
 62
     3
100
AcDbLine
 10
17.6409758478258
 20
19.1012198097823
 30
0.0
 11
27.4849242404918
 21
31.4061553006147
 31
0.0
  0
LINE
  5
1FA
330
1F
100
AcDbEntity
  8
1
  6
Continuous
 62
     3
100
AcDbLine
 10
27.4849242404918
 20
36.6581079490104
 30
0.0
 11
27.4849242404918
 21
34.607717419331
 31
0.0
  0
LINE
  5
1FB
330
1F
100
AcDbEntity
  8
1
  6
Continuous
 62
     3
100
AcDbLine
 10
27.4849242404918
 20
34.607717419331
 30
0.0
 11
27.4849242404918
 21
31.4061553006147
 31
0.0
  0
LINE
  5
1FC
330
1F
100
AcDbEntity
  8
1
  6
Continuous
 62
     3
100
AcDbLine
 10
30.8129800188538
 20
33.1650534345299
 30
0.0
 11
36.9429062452276
 21
40.8274612174971
 31
0.0
  0
LINE
  5
1FD
330
1F
100
AcDbEntity
  8
1
  6
Continuous
 62
     3
100
AcDbLine
 10
28.6075583153032
 20
38.4121816018829
 30
0.0
 11
34.1070263312873
 21
45.2865166218629
 31
0.0
  0
LINE
  5
1FE
330
1F
100
AcDbEntity
  8
1
  6
Continuous
 62
     3
100
AcDbLine
 10
37.636619311923
 20
41.1989608680344
 30
0.0
 11
97.7600746316346
 21
46.00675832854381
 31
0.0
  0
LINE
  5
1FF
330
1F
100
AcDbEntity
  8
1
  6
Continuous
 62
     3
100
AcDbLine
 10
35.4944190613581
 20
46.0295130002436
 30
0.0
 11
97.46535801526079
 21
51.0
 31
0.0
  0
LINE
  5
200
330
1F
100
AcDbEntity
  8
1
  6
Continuous
 62
     3
100
AcDbLine
 10
10.02
 20
-30.1443355089935
 30
0.0
 11
10.02
 21
-26.4443355089935
 31
0.0
  0
LINE
  5
201
330
1F
100
AcDbEntity
  8
1
  6
Continuous
 62
     3
100
AcDbLine
 10
10.02
 20
-26.4443355089935
 30
0.0
 11
11.22
 21
-26.4443355089935
 31
0.0
  0
LINE
  5
202
330
1F
100
AcDbEntity
  8
1
  6
Continuous
 62
     3
100
AcDbLine
 10
11.22
 20
-26.4443355089935
 30
0.0
 11
11.62
 21
-26.6443355089935
 31
0.0
  0
LINE
  5
203
330
1F
100
AcDbEntity
  8
1
  6
Continuous
 62
     3
100
AcDbLine
 10
11.62
 20
-26.6443355089935
 30
0.0
 11
11.78
 21
-27.3443355089935
 31
0.0
  0
LINE
  5
204
330
1F
100
AcDbEntity
  8
1
  6
Continuous
 62
     3
100
AcDbLine
 10
11.78
 20
-27.3443355089935
 30
0.0
 11
11.62
 21
-27.8443355089935
 31
0.0
  0
LINE
  5
205
330
1F
100
AcDbEntity
  8
1
  6
Continuous
 62
     3
100
AcDbLine
 10
11.62
 20
-27.8443355089935
 30
0.0
 11
11.22
 21
-28.2443355089935
 31
0.0
  0
LINE
  5
206
330
1F
100
AcDbEntity
  8
1
  6
Continuous
 62
     3
100
AcDbLine
 10
11.22
 20
-28.2443355089935
 30
0.0
 11
10.02
 21
-28.2443355089935
 31
0.0
  0
LINE
  5
207
330
1F
100
AcDbEntity
  8
1
  6
Continuous
 62
     3
100
AcDbLine
 10
10.02
 20
-28.2443355089935
 30
0.0
 11
11.22
 21
-28.2443355089935
 31
0.0
  0
LINE
  5
208
330
1F
100
AcDbEntity
  8
1
  6
Continuous
 62
     3
100
AcDbLine
 10
11.22
 20
-28.2443355089935
 30
0.0
 11
11.78
 21
-28.5443355089935
 31
0.0
  0
LINE
  5
209
330
1F
100
AcDbEntity
  8
1
  6
Continuous
 62
     3
100
AcDbLine
 10
11.78
 20
-28.5443355089935
 30
0.0
 11
11.94
 21
-29.2443355089935
 31
0.0
  0
LINE
  5
20A
330
1F
100
AcDbEntity
  8
1
  6
Continuous
 62
     3
100
AcDbLine
 10
11.94
 20
-29.2443355089935
 30
0.0
 11
11.78
 21
-29.8443355089935
 31
0.0
  0
LINE
  5
20B
330
1F
100
AcDbEntity
  8
1
  6
Continuous
 62
     3
100
AcDbLine
 10
11.78
 20
-29.8443355089935
 30
0.0
 11
11.22
 21
-30.1443355089935
 31
0.0
  0
LINE
  5
20C
330
1F
100
AcDbEntity
  8
1
  6
Continuous
 62
     3
100
AcDbLine
 10
11.22
 20
-30.1443355089935
 30
0.0
 11
10.02
 21
-30.1443355089935
 31
0.0
  0
LINE
  5
20D
330
1F
100
AcDbEntity
  8
1
  6
Continuous
 62
     3
100
AcDbLine
 10
15.54
 20
-26.9443355089935
 30
0.0
 11
15.3
 21
-26.5443355089935
 31
0.0
  0
LINE
  5
20E
330
1F
100
AcDbEntity
  8
1
  6
Continuous
 62
     3
100
AcDbLine
 10
15.3
 20
-26.5443355089935
 30
0.0
 11
14.98
 21
-26.2443355089935
 31
0.0
  0
LINE
  5
20F
330
1F
100
AcDbEntity
  8
1
  6
Continuous
 62
     3
100
AcDbLine
 10
14.98
 20
-26.2443355089935
 30
0.0
 11
14.58
 21
-26.2443355089935
 31
0.0
  0
LINE
  5
210
330
1F
100
AcDbEntity
  8
1
  6
Continuous
 62
     3
100
AcDbLine
 10
14.58
 20
-26.2443355089935
 30
0.0
 11
14.26
 21
-26.2443355089935
 31
0.0
  0
LINE
  5
211
330
1F
100
AcDbEntity
  8
1
  6
Continuous
 62
     3
100
AcDbLine
 10
14.26
 20
-26.2443355089935
 30
0.0
 11
14.1
 21
-26.4443355089935
 31
0.0
  0
LINE
  5
212
330
1F
100
AcDbEntity
  8
1
  6
Continuous
 62
     3
100
AcDbLine
 10
14.1
 20
-26.4443355089935
 30
0.0
 11
13.78
 21
-26.6443355089935
 31
0.0
  0
LINE
  5
213
330
1F
100
AcDbEntity
  8
1
  6
Continuous
 62
     3
100
AcDbLine
 10
13.78
 20
-26.6443355089935
 30
0.0
 11
13.7
 21
-27.0443355089935
 31
0.0
  0
LINE
  5
214
330
1F
100
AcDbEntity
  8
1
  6
Continuous
 62
     3
100
AcDbLine
 10
13.7
 20
-27.0443355089935
 30
0.0
 11
13.78
 21
-27.6443355089935
 31
0.0
  0
LINE
  5
215
330
1F
100
AcDbEntity
  8
1
  6
Continuous
 62
     3
100
AcDbLine
 10
13.78
 20
-27.6443355089935
 30
0.0
 11
14.02
 21
-27.8443355089935
 31
0.0
  0
LINE
  5
216
330
1F
100
AcDbEntity
  8
1
  6
Continuous
 62
     3
100
AcDbLine
 10
14.02
 20
-27.8443355089935
 30
0.0
 11
14.18
 21
-28.0443355089935
 31
0.0
  0
LINE
  5
217
330
1F
100
AcDbEntity
  8
1
  6
Continuous
 62
     3
100
AcDbLine
 10
14.18
 20
-28.0443355089935
 30
0.0
 11
14.58
 21
-28.1443355089935
 31
0.0
  0
LINE
  5
218
330
1F
100
AcDbEntity
  8
1
  6
Continuous
 62
     3
100
AcDbLine
 10
14.58
 20
-28.1443355089935
 30
0.0
 11
14.98
 21
-28.1443355089935
 31
0.0
  0
LINE
  5
219
330
1F
100
AcDbEntity
  8
1
  6
Continuous
 62
     3
100
AcDbLine
 10
14.98
 20
-28.1443355089935
 30
0.0
 11
15.22
 21
-28.2443355089935
 31
0.0
  0
LINE
  5
21A
330
1F
100
AcDbEntity
  8
1
  6
Continuous
 62
     3
100
AcDbLine
 10
15.22
 20
-28.2443355089935
 30
0.0
 11
15.54
 21
-28.6443355089935
 31
0.0
  0
LINE
  5
21B
330
1F
100
AcDbEntity
  8
1
  6
Continuous
 62
     3
100
AcDbLine
 10
15.54
 20
-28.6443355089935
 30
0.0
 11
15.62
 21
-29.2443355089935
 31
0.0
  0
LINE
  5
21C
330
1F
100
AcDbEntity
  8
1
  6
Continuous
 62
     3
100
AcDbLine
 10
15.62
 20
-29.2443355089935
 30
0.0
 11
15.54
 21
-29.7443355089935
 31
0.0
  0
LINE
  5
21D
330
1F
100
AcDbEntity
  8
1
  6
Continuous
 62
     3
100
AcDbLine
 10
15.54
 20
-29.7443355089935
 30
0.0
 11
15.22
 21
-30.0443355089935
 31
0.0
  0
LINE
  5
21E
330
1F
100
AcDbEntity
  8
1
  6
Continuous
 62
     3
100
AcDbLine
 10
15.22
 20
-30.0443355089935
 30
0.0
 11
14.98
 21
-30.1443355089935
 31
0.0
  0
LINE
  5
21F
330
1F
100
AcDbEntity
  8
1
  6
Continuous
 62
     3
100
AcDbLine
 10
14.98
 20
-30.1443355089935
 30
0.0
 11
14.58
 21
-30.1443355089935
 31
0.0
  0
LINE
  5
220
330
1F
100
AcDbEntity
  8
1
  6
Continuous
 62
     3
100
AcDbLine
 10
14.58
 20
-30.1443355089935
 30
0.0
 11
14.18
 21
-30.0443355089935
 31
0.0
  0
LINE
  5
221
330
1F
100
AcDbEntity
  8
1
  6
Continuous
 62
     3
100
AcDbLine
 10
14.18
 20
-30.0443355089935
 30
0.0
 11
13.94
 21
-29.7443355089935
 31
0.0
  0
LINE
  5
222
330
1F
100
AcDbEntity
  8
1
  6
Continuous
 62
     3
100
AcDbLine
 10
13.94
 20
-29.7443355089935
 30
0.0
 11
13.7
 21
-29.2443355089935
 31
0.0
  0
LINE
  5
223
330
1F
100
AcDbEntity
  8
1
  6
Continuous
 62
     3
100
AcDbLine
 10
19.3
 20
-26.9443355089935
 30
0.0
 11
19.06
 21
-26.5443355089935
 31
0.0
  0
LINE
  5
224
330
1F
100
AcDbEntity
  8
1
  6
Continuous
 62
     3
100
AcDbLine
 10
19.06
 20
-26.5443355089935
 30
0.0
 11
18.74
 21
-26.2443355089935
 31
0.0
  0
LINE
  5
225
330
1F
100
AcDbEntity
  8
1
  6
Continuous
 62
     3
100
AcDbLine
 10
18.74
 20
-26.2443355089935
 30
0.0
 11
18.34
 21
-26.2443355089935
 31
0.0
  0
LINE
  5
226
330
1F
100
AcDbEntity
  8
1
  6
Continuous
 62
     3
100
AcDbLine
 10
18.34
 20
-26.2443355089935
 30
0.0
 11
18.02
 21
-26.2443355089935
 31
0.0
  0
LINE
  5
227
330
1F
100
AcDbEntity
  8
1
  6
Continuous
 62
     3
100
AcDbLine
 10
18.02
 20
-26.2443355089935
 30
0.0
 11
17.86
 21
-26.4443355089935
 31
0.0
  0
LINE
  5
228
330
1F
100
AcDbEntity
  8
1
  6
Continuous
 62
     3
100
AcDbLine
 10
17.86
 20
-26.4443355089935
 30
0.0
 11
17.54
 21
-26.6443355089935
 31
0.0
  0
LINE
  5
229
330
1F
100
AcDbEntity
  8
1
  6
Continuous
 62
     3
100
AcDbLine
 10
17.54
 20
-26.6443355089935
 30
0.0
 11
17.46
 21
-27.0443355089935
 31
0.0
  0
LINE
  5
22A
330
1F
100
AcDbEntity
  8
1
  6
Continuous
 62
     3
100
AcDbLine
 10
17.46
 20
-27.0443355089935
 30
0.0
 11
17.54
 21
-27.6443355089935
 31
0.0
  0
LINE
  5
22B
330
1F
100
AcDbEntity
  8
1
  6
Continuous
 62
     3
100
AcDbLine
 10
17.54
 20
-27.6443355089935
 30
0.0
 11
17.78
 21
-27.8443355089935
 31
0.0
  0
LINE
  5
22C
330
1F
100
AcDbEntity
  8
1
  6
Continuous
 62
     3
100
AcDbLine
 10
17.78
 20
-27.8443355089935
 30
0.0
 11
17.94
 21
-28.0443355089935
 31
0.0
  0
LINE
  5
22D
330
1F
100
AcDbEntity
  8
1
  6
Continuous
 62
     3
100
AcDbLine
 10
17.94
 20
-28.0443355089935
 30
0.0
 11
18.34
 21
-28.1443355089935
 31
0.0
  0
LINE
  5
22E
330
1F
100
AcDbEntity
  8
1
  6
Continuous
 62
     3
100
AcDbLine
 10
18.34
 20
-28.1443355089935
 30
0.0
 11
18.74
 21
-28.1443355089935
 31
0.0
  0
LINE
  5
22F
330
1F
100
AcDbEntity
  8
1
  6
Continuous
 62
     3
100
AcDbLine
 10
18.74
 20
-28.1443355089935
 30
0.0
 11
18.98
 21
-28.2443355089935
 31
0.0
  0
LINE
  5
230
330
1F
100
AcDbEntity
  8
1
  6
Continuous
 62
     3
100
AcDbLine
 10
18.98
 20
-28.2443355089935
 30
0.0
 11
19.3
 21
-28.6443355089935
 31
0.0
  0
LINE
  5
231
330
1F
100
AcDbEntity
  8
1
  6
Continuous
 62
     3
100
AcDbLine
 10
19.3
 20
-28.6443355089935
 30
0.0
 11
19.38
 21
-29.2443355089935
 31
0.0
  0
LINE
  5
232
330
1F
100
AcDbEntity
  8
1
  6
Continuous
 62
     3
100
AcDbLine
 10
19.38
 20
-29.2443355089935
 30
0.0
 11
19.3
 21
-29.7443355089935
 31
0.0
  0
LINE
  5
233
330
1F
100
AcDbEntity
  8
1
  6
Continuous
 62
     3
100
AcDbLine
 10
19.3
 20
-29.7443355089935
 30
0.0
 11
18.98
 21
-30.0443355089935
 31
0.0
  0
LINE
  5
234
330
1F
100
AcDbEntity
  8
1
  6
Continuous
 62
     3
100
AcDbLine
 10
18.98
 20
-30.0443355089935
 30
0.0
 11
18.74
 21
-30.1443355089935
 31
0.0
  0
LINE
  5
235
330
1F
100
AcDbEntity
  8
1
  6
Continuous
 62
     3
100
AcDbLine
 10
18.74
 20
-30.1443355089935
 30
0.0
 11
18.34
 21
-30.1443355089935
 31
0.0
  0
LINE
  5
236
330
1F
100
AcDbEntity
  8
1
  6
Continuous
 62
     3
100
AcDbLine
 10
18.34
 20
-30.1443355089935
 30
0.0
 11
17.94
 21
-30.0443355089935
 31
0.0
  0
LINE
  5
237
330
1F
100
AcDbEntity
  8
1
  6
Continuous
 62
     3
100
AcDbLine
 10
17.94
 20
-30.0443355089935
 30
0.0
 11
17.7
 21
-29.7443355089935
 31
0.0
  0
LINE
  5
238
330
1F
100
AcDbEntity
  8
1
  6
Continuous
 62
     3
100
AcDbLine
 10
17.7
 20
-29.7443355089935
 30
0.0
 11
17.46
 21
-29.2443355089935
 31
0.0
  0
LINE
  5
239
330
1F
100
AcDbEntity
  8
1
  6
Continuous
 62
     3
100
AcDbLine
 10
21.22
 20
-28.1443355089935
 30
0.0
 11
22.9
 21
-28.1443355089935
 31
0.0
  0
LINE
  5
23A
330
1F
100
AcDbEntity
  8
1
  6
Continuous
 62
     3
100
AcDbLine
 10
25.86
 20
-26.1443355089935
 30
0.0
 11
25.3
 21
-26.4443355089935
 31
0.0
  0
LINE
  5
23B
330
1F
100
AcDbEntity
  8
1
  6
Continuous
 62
     3
100
AcDbLine
 10
25.3
 20
-26.4443355089935
 30
0.0
 11
24.98
 21
-27.0443355089935
 31
0.0
  0
LINE
  5
23C
330
1F
100
AcDbEntity
  8
1
  6
Continuous
 62
     3
100
AcDbLine
 10
24.98
 20
-27.0443355089935
 30
0.0
 11
24.82
 21
-28.1443355089935
 31
0.0
  0
LINE
  5
23D
330
1F
100
AcDbEntity
  8
1
  6
Continuous
 62
     3
100
AcDbLine
 10
24.82
 20
-28.1443355089935
 30
0.0
 11
24.98
 21
-29.2443355089935
 31
0.0
  0
LINE
  5
23E
330
1F
100
AcDbEntity
  8
1
  6
Continuous
 62
     3
100
AcDbLine
 10
24.98
 20
-29.2443355089935
 30
0.0
 11
25.3
 21
-29.8443355089935
 31
0.0
  0
LINE
  5
23F
330
1F
100
AcDbEntity
  8
1
  6
Continuous
 62
     3
100
AcDbLine
 10
25.3
 20
-29.8443355089935
 30
0.0
 11
25.86
 21
-30.1443355089935
 31
0.0
  0
LINE
  5
240
330
1F
100
AcDbEntity
  8
1
  6
Continuous
 62
     3
100
AcDbLine
 10
25.86
 20
-30.1443355089935
 30
0.0
 11
26.42
 21
-29.8443355089935
 31
0.0
  0
LINE
  5
241
330
1F
100
AcDbEntity
  8
1
  6
Continuous
 62
     3
100
AcDbLine
 10
26.42
 20
-29.8443355089935
 30
0.0
 11
26.82
 21
-29.2443355089935
 31
0.0
  0
LINE
  5
242
330
1F
100
AcDbEntity
  8
1
  6
Continuous
 62
     3
100
AcDbLine
 10
26.82
 20
-29.2443355089935
 30
0.0
 11
26.9
 21
-28.1443355089935
 31
0.0
  0
LINE
  5
243
330
1F
100
AcDbEntity
  8
1
  6
Continuous
 62
     3
100
AcDbLine
 10
26.9
 20
-28.1443355089935
 30
0.0
 11
26.82
 21
-27.0443355089935
 31
0.0
  0
LINE
  5
244
330
1F
100
AcDbEntity
  8
1
  6
Continuous
 62
     3
100
AcDbLine
 10
26.82
 20
-27.0443355089935
 30
0.0
 11
26.42
 21
-26.4443355089935
 31
0.0
  0
LINE
  5
245
330
1F
100
AcDbEntity
  8
1
  6
Continuous
 62
     3
100
AcDbLine
 10
26.42
 20
-26.4443355089935
 30
0.0
 11
25.86
 21
-26.1443355089935
 31
0.0
  0
LINE
  5
246
330
1F
100
AcDbEntity
  8
1
  6
Continuous
 62
     3
100
AcDbLine
 10
29.3
 20
-26.5443355089935
 30
0.0
 11
29.78
 21
-26.1443355089935
 31
0.0
  0
LINE
  5
247
330
1F
100
AcDbEntity
  8
1
  6
Continuous
 62
     3
100
AcDbLine
 10
29.78
 20
-26.1443355089935
 30
0.0
 11
29.78
 21
-30.1443355089935
 31
0.0
  0
LINE
  5
248
330
1F
100
AcDbEntity
  8
1
  6
Continuous
 62
     3
100
AcDbLine
 10
32.5
 20
-28.1443355089935
 30
0.0
 11
34.18
 21
-28.1443355089935
 31
0.0
  0
LINE
  5
249
330
1F
100
AcDbEntity
  8
1
  6
Continuous
 62
     3
100
AcDbLine
 10
36.26
 20
-26.9443355089935
 30
0.0
 11
36.66
 21
-26.4443355089935
 31
0.0
  0
LINE
  5
24A
330
1F
100
AcDbEntity
  8
1
  6
Continuous
 62
     3
100
AcDbLine
 10
36.66
 20
-26.4443355089935
 30
0.0
 11
37.22
 21
-26.1443355089935
 31
0.0
  0
LINE
  5
24B
330
1F
100
AcDbEntity
  8
1
  6
Continuous
 62
     3
100
AcDbLine
 10
37.22
 20
-26.1443355089935
 30
0.0
 11
37.78
 21
-26.4443355089935
 31
0.0
  0
LINE
  5
24C
330
1F
100
AcDbEntity
  8
1
  6
Continuous
 62
     3
100
AcDbLine
 10
37.78
 20
-26.4443355089935
 30
0.0
 11
38.18
 21
-26.9443355089935
 31
0.0
  0
LINE
  5
24D
330
1F
100
AcDbEntity
  8
1
  6
Continuous
 62
     3
100
AcDbLine
 10
38.18
 20
-26.9443355089935
 30
0.0
 11
38.1
 21
-27.4443355089935
 31
0.0
  0
LINE
  5
24E
330
1F
100
AcDbEntity
  8
1
  6
Continuous
 62
     3
100
AcDbLine
 10
38.1
 20
-27.4443355089935
 30
0.0
 11
37.78
 21
-28.0443355089935
 31
0.0
  0
LINE
  5
24F
330
1F
100
AcDbEntity
  8
1
  6
Continuous
 62
     3
100
AcDbLine
 10
37.78
 20
-28.0443355089935
 30
0.0
 11
37.3
 21
-28.4443355089935
 31
0.0
  0
LINE
  5
250
330
1F
100
AcDbEntity
  8
1
  6
Continuous
 62
     3
100
AcDbLine
 10
37.3
 20
-28.4443355089935
 30
0.0
 11
36.9
 21
-28.6443355089935
 31
0.0
  0
LINE
  5
251
330
1F
100
AcDbEntity
  8
1
  6
Continuous
 62
     3
100
AcDbLine
 10
36.9
 20
-28.6443355089935
 30
0.0
 11
36.58
 21
-29.0443355089935
 31
0.0
  0
LINE
  5
252
330
1F
100
AcDbEntity
  8
1
  6
Continuous
 62
     3
100
AcDbLine
 10
36.58
 20
-29.0443355089935
 30
0.0
 11
36.34
 21
-29.4443355089935
 31
0.0
  0
LINE
  5
253
330
1F
100
AcDbEntity
  8
1
  6
Continuous
 62
     3
100
AcDbLine
 10
36.34
 20
-29.4443355089935
 30
0.0
 11
36.18
 21
-30.1443355089935
 31
0.0
  0
LINE
  5
254
330
1F
100
AcDbEntity
  8
1
  6
Continuous
 62
     3
100
AcDbLine
 10
36.18
 20
-30.1443355089935
 30
0.0
 11
38.26
 21
-30.1443355089935
 31
0.0
  0
LINE
  5
255
330
1F
100
AcDbEntity
  8
1
  6
Continuous
 62
     3
100
AcDbLine
 10
40.9
 20
-26.1443355089935
 30
0.0
 11
40.34
 21
-26.4443355089935
 31
0.0
  0
LINE
  5
256
330
1F
100
AcDbEntity
  8
1
  6
Continuous
 62
     3
100
AcDbLine
 10
40.34
 20
-26.4443355089935
 30
0.0
 11
40.02
 21
-27.0443355089935
 31
0.0
  0
LINE
  5
257
330
1F
100
AcDbEntity
  8
1
  6
Continuous
 62
     3
100
AcDbLine
 10
40.02
 20
-27.0443355089935
 30
0.0
 11
39.86
 21
-28.1443355089935
 31
0.0
  0
LINE
  5
258
330
1F
100
AcDbEntity
  8
1
  6
Continuous
 62
     3
100
AcDbLine
 10
39.86
 20
-28.1443355089935
 30
0.0
 11
40.02
 21
-29.2443355089935
 31
0.0
  0
LINE
  5
259
330
1F
100
AcDbEntity
  8
1
  6
Continuous
 62
     3
100
AcDbLine
 10
40.02
 20
-29.2443355089935
 30
0.0
 11
40.34
 21
-29.8443355089935
 31
0.0
  0
LINE
  5
25A
330
1F
100
AcDbEntity
  8
1
  6
Continuous
 62
     3
100
AcDbLine
 10
40.34
 20
-29.8443355089935
 30
0.0
 11
40.9
 21
-30.1443355089935
 31
0.0
  0
LINE
  5
25B
330
1F
100
AcDbEntity
  8
1
  6
Continuous
 62
     3
100
AcDbLine
 10
40.9
 20
-30.1443355089935
 30
0.0
 11
41.46
 21
-29.8443355089935
 31
0.0
  0
LINE
  5
25C
330
1F
100
AcDbEntity
  8
1
  6
Continuous
 62
     3
100
AcDbLine
 10
41.46
 20
-29.8443355089935
 30
0.0
 11
41.86
 21
-29.2443355089935
 31
0.0
  0
LINE
  5
25D
330
1F
100
AcDbEntity
  8
1
  6
Continuous
 62
     3
100
AcDbLine
 10
41.86
 20
-29.2443355089935
 30
0.0
 11
41.94
 21
-28.1443355089935
 31
0.0
  0
LINE
  5
25E
330
1F
100
AcDbEntity
  8
1
  6
Continuous
 62
     3
100
AcDbLine
 10
41.94
 20
-28.1443355089935
 30
0.0
 11
41.86
 21
-27.0443355089935
 31
0.0
  0
LINE
  5
25F
330
1F
100
AcDbEntity
  8
1
  6
Continuous
 62
     3
100
AcDbLine
 10
41.86
 20
-27.0443355089935
 30
0.0
 11
41.46
 21
-26.4443355089935
 31
0.0
  0
LINE
  5
260
330
1F
100
AcDbEntity
  8
1
  6
Continuous
 62
     3
100
AcDbLine
 10
41.46
 20
-26.4443355089935
 30
0.0
 11
40.9
 21
-26.1443355089935
 31
0.0
  0
LINE
  5
261
330
1F
100
AcDbEntity
  8
1
  6
Continuous
 62
     3
100
AcDbLine
 10
-30.0
 20
16.0
 30
0.0
 11
-30.0
 21
-16.0
 31
0.0
  0
LINE
  5
262
330
1F
100
AcDbEntity
  8
1
  6
Continuous
 62
     3
100
AcDbLine
 10
31.0
 20
16.0
 30
0.0
 11
31.0
 21
-16.0
 31
0.0
  0
LINE
  5
263
330
1F
100
AcDbEntity
  8
1
  6
DOT_CENTER
 62
     4
100
AcDbLine
 10
89.5578713075651
 20
82.30488632502329
 30
0.0
 11
100.535553025324
 21
82.30488632502329
 31
0.0
  0
ARC
  5
264
102
{ACAD_REACTORS
330
33D
102
}
330
1F
100
AcDbEntity
  8
1
  6
Continuous
 62
     3
100
AcDbCircle
 10
40.8648791822319
 20
75.4466235746983
 30
0.0
 40
0.2249986257789942
100
AcDbArc
 50
270.0
 51
327.2647737279368
  0
ARC
  5
265
102
{ACAD_REACTORS
330
33D
102
}
330
1F
100
AcDbEntity
  8
1
  6
Continuous
 62
     3
100
AcDbCircle
 10
41.7268522967432
 20
76.4966171616671
 30
0.0
 40
0.2249986257787953
100
AcDbArc
 50
90.0
 51
147.2196945237705
  0
ARC
  5
266
102
{ACAD_REACTORS
330
33D
102
}
330
1F
100
AcDbEntity
  8
1
  6
Continuous
 62
     3
100
AcDbCircle
 10
40.7250757632952
 20
75.7028720096133
 30
0.0
 40
0.1874988548158996
100
AcDbArc
 50
270.0
 51
327.219694523737
  0
ARC
  5
267
102
{ACAD_REACTORS
330
33D
102
}
330
1F
100
AcDbEntity
  8
1
  6
Continuous
 62
     3
100
AcDbCircle
 10
41.8655243743948
 20
76.2403687267519
 30
0.0
 40
0.1874988548160985
100
AcDbArc
 50
90.0
 51
147.2647737278371
  0
ARC
  5
268
102
{ACAD_REACTORS
330
33D
102
}
330
1F
100
AcDbEntity
  8
1
  6
Continuous
 62
     3
100
AcDbCircle
 10
40.1536701560016
 20
75.890370864429
 30
0.0
 40
0.3749977096316996
100
AcDbArc
 50
180.0
 51
270.0
  0
ARC
  5
269
102
{ACAD_REACTORS
330
33D
102
}
330
1F
100
AcDbEntity
  8
1
  6
Continuous
 62
     3
100
AcDbCircle
 10
40.1536701560016
 20
76.0528698719362
 30
0.0
 40
0.3749977096314012
100
AcDbArc
 50
90.0
 51
180.0000000000304
  0
ARC
  5
26A
102
{ACAD_REACTORS
330
33D
102
}
330
1F
100
AcDbEntity
  8
1
  6
Continuous
 62
     3
100
AcDbCircle
 10
42.7161545051511
 20
75.890370864429
 30
0.0
 40
0.3749977096316002
100
AcDbArc
 50
270.0
 51
0.0
  0
ARC
  5
26B
102
{ACAD_REACTORS
330
33D
102
}
330
1F
100
AcDbEntity
  8
1
  6
Continuous
 62
     3
100
AcDbCircle
 10
42.7161545051511
 20
76.0528698719362
 30
0.0
 40
0.3749977096316002
100
AcDbArc
 50
359.9999999999696
 51
90.0
  0
ARC
  5
26C
102
{ACAD_REACTORS
330
33C
102
}
330
1F
100
AcDbEntity
  8
1
  6
Continuous
 62
     3
100
AcDbCircle
 10
40.1536701560016
 20
85.4903122309993
 30
0.0
 40
0.3749977096316996
100
AcDbArc
 50
180.0
 51
270.0
  0
ARC
  5
26D
102
{ACAD_REACTORS
330
33C
102
}
330
1F
100
AcDbEntity
  8
1
  6
Continuous
 62
     3
100
AcDbCircle
 10
40.1536701560016
 20
85.6528112385062
 30
0.0
 40
0.3749977096319981
100
AcDbArc
 50
90.0
 51
180.0
  0
ARC
  5
26E
102
{ACAD_REACTORS
330
33C
102
}
330
1F
100
AcDbEntity
  8
1
  6
Continuous
 62
     3
100
AcDbCircle
 10
42.7161545051511
 20
85.4903122309993
 30
0.0
 40
0.3749977096316996
100
AcDbArc
 50
270.0
 51
0.0
  0
ARC
  5
26F
102
{ACAD_REACTORS
330
33C
102
}
330
1F
100
AcDbEntity
  8
1
  6
Continuous
 62
     3
100
AcDbCircle
 10
42.7161545051511
 20
85.6528112385062
 30
0.0
 40
0.3749977096316002
100
AcDbArc
 50
0.0
 51
90.0
  0
ARC
  5
270
102
{ACAD_REACTORS
330
33E
102
}
330
1F
100
AcDbEntity
  8
1
  6
Continuous
 62
     3
100
AcDbCircle
 10
44.5000282785064
 20
76.9872783631967
 30
0.0
 40
0.1249992365438774
100
AcDbArc
 50
256.6075022462242
 51
340.7693468285457
  0
ARC
  5
271
102
{ACAD_REACTORS
330
33E
102
}
330
1F
100
AcDbEntity
  8
1
  6
Continuous
 62
     3
100
AcDbCircle
 10
43.7598966033803
 20
74.8740277228607
 30
0.0
 40
0.0999993892351014
100
AcDbArc
 50
180.0
 51
329.1904195176564
  0
ARC
  5
272
102
{ACAD_REACTORS
330
33E
102
}
330
1F
100
AcDbEntity
  8
1
  6
Continuous
 62
     3
100
AcDbCircle
 10
44.5000282785064
 20
84.5559037397387
 30
0.0
 40
0.1249992365438917
100
AcDbArc
 50
19.23065317154657
 51
103.3924977537653
  0
ARC
  5
273
102
{ACAD_REACTORS
330
33E
102
}
330
1F
100
AcDbEntity
  8
1
  6
Continuous
 62
     3
100
AcDbCircle
 10
43.7598966033803
 20
86.6691543800748
 30
0.0
 40
0.0999993892351677
100
AcDbArc
 50
30.80958048218524
 51
180.0
  0
ARC
  5
274
102
{ACAD_REACTORS
330
33D
102
}
330
1F
100
AcDbEntity
  8
1
  6
Continuous
 62
     3
100
AcDbCircle
 10
39.8849217974321
 20
76.3216182305056
 30
0.0
 40
0.3999975569401926
100
AcDbArc
 50
90.0
 51
180.0
  0
ARC
  5
275
102
{ACAD_REACTORS
330
33D
102
}
330
1F
100
AcDbEntity
  8
1
  6
Continuous
 62
     3
100
AcDbCircle
 10
39.8849217974321
 20
75.6216225058596
 30
0.0
 40
0.3999975569402991
100
AcDbArc
 50
180.0
 51
270.0
  0
ARC
  5
276
102
{ACAD_REACTORS
330
33D
102
}
330
1F
100
AcDbEntity
  8
1
  6
Continuous
 62
     3
100
AcDbCircle
 10
42.9849028637204
 20
75.6216225058596
 30
0.0
 40
0.3999975569403063
100
AcDbArc
 50
270.0
 51
0.0
  0
ARC
  5
277
102
{ACAD_REACTORS
330
33D
102
}
330
1F
100
AcDbEntity
  8
1
  6
Continuous
 62
     3
100
AcDbCircle
 10
42.9849028637204
 20
76.3216182305056
 30
0.0
 40
0.3999975569405976
100
AcDbArc
 50
0.0
 51
90.0
  0
ARC
  5
278
102
{ACAD_REACTORS
330
33C
102
}
330
1F
100
AcDbEntity
  8
1
  6
Continuous
 62
     3
100
AcDbCircle
 10
42.9849028637204
 20
85.9215595970757
 30
0.0
 40
0.3999975569405976
100
AcDbArc
 50
0.0
 51
90.0
  0
ARC
  5
279
102
{ACAD_REACTORS
330
33C
102
}
330
1F
100
AcDbEntity
  8
1
  6
Continuous
 62
     3
100
AcDbCircle
 10
42.9849028637204
 20
85.2215638724299
 30
0.0
 40
0.3999975569401926
100
AcDbArc
 50
270.0
 51
0.0
  0
ARC
  5
27A
102
{ACAD_REACTORS
330
33C
102
}
330
1F
100
AcDbEntity
  8
1
  6
Continuous
 62
     3
100
AcDbCircle
 10
39.8849217974321
 20
85.2215638724299
 30
0.0
 40
0.3999975569402991
100
AcDbArc
 50
180.0
 51
270.0
  0
ARC
  5
27B
102
{ACAD_REACTORS
330
33C
102
}
330
1F
100
AcDbEntity
  8
1
  6
Continuous
 62
     3
100
AcDbCircle
 10
39.8849217974321
 20
85.9215595970757
 30
0.0
 40
0.3999975569405052
100
AcDbArc
 50
90.0
 51
180.0
  0
ARC
  5
27C
102
{ACAD_REACTORS
330
352
102
}
330
1F
100
AcDbEntity
  8
1
  6
Continuous
 62
     3
100
AcDbCircle
 10
86.426710764682
 20
84.8692893261027
 30
0.0
 40
0.453520061061397
100
AcDbArc
 50
90.0
 51
180.0
  0
ARC
  5
27D
102
{ACAD_REACTORS
330
352
102
}
330
1F
100
AcDbEntity
  8
1
  6
Continuous
 62
     3
100
AcDbCircle
 10
87.0314041794305
 20
84.8692893261027
 30
0.0
 40
0.4535200610612975
100
AcDbArc
 50
0.0
 51
90.0
  0
ARC
  5
27E
102
{ACAD_REACTORS
330
352
102
}
330
1F
100
AcDbEntity
  8
1
  6
Continuous
 62
     3
100
AcDbCircle
 10
87.0314041794305
 20
81.9214089292036
 30
0.0
 40
0.4535200610612975
100
AcDbArc
 50
270.0
 51
0.0
  0
ARC
  5
27F
102
{ACAD_REACTORS
330
352
102
}
330
1F
100
AcDbEntity
  8
1
  6
Continuous
 62
     3
100
AcDbCircle
 10
86.426710764682
 20
81.9214089292036
 30
0.0
 40
0.4535200610614964
100
AcDbArc
 50
180.0
 51
270.0
  0
ARC
  5
280
102
{ACAD_REACTORS
330
352
102
}
330
1F
100
AcDbEntity
  8
1
  6
Continuous
 62
     3
100
AcDbCircle
 10
86.6534707952127
 20
82.1481689597342
 30
0.0
 40
0.2267600305306985
100
AcDbArc
 50
180.0
 51
270.0
  0
ARC
  5
281
102
{ACAD_REACTORS
330
352
102
}
330
1F
100
AcDbEntity
  8
1
  6
Continuous
 62
     3
100
AcDbCircle
 10
86.8046441488999
 20
82.1481689597342
 30
0.0
 40
0.2267600305306132
100
AcDbArc
 50
270.0
 51
0.0
  0
ARC
  5
282
102
{ACAD_REACTORS
330
352
102
}
330
1F
100
AcDbEntity
  8
1
  6
Continuous
 62
     3
100
AcDbCircle
 10
86.8046441488999
 20
84.6425292955721
 30
0.0
 40
0.226760030530599
100
AcDbArc
 50
0.0
 51
90.0
  0
ARC
  5
283
102
{ACAD_REACTORS
330
352
102
}
330
1F
100
AcDbEntity
  8
1
  6
Continuous
 62
     3
100
AcDbCircle
 10
86.6534707952127
 20
84.6425292955721
 30
0.0
 40
0.226760030530599
100
AcDbArc
 50
90.0
 51
180.0
  0
ARC
  5
284
102
{ACAD_REACTORS
330
351
102
}
330
1F
100
AcDbEntity
  8
1
  6
Continuous
 62
     3
100
AcDbCircle
 10
84.4614571667491
 20
84.8692893261027
 30
0.0
 40
0.453520061061397
100
AcDbArc
 50
90.0
 51
180.0
  0
ARC
  5
285
102
{ACAD_REACTORS
330
351
102
}
330
1F
100
AcDbEntity
  8
1
  6
Continuous
 62
     3
100
AcDbCircle
 10
85.0661505814977
 20
84.8692893261027
 30
0.0
 40
0.4535200610614112
100
AcDbArc
 50
0.0
 51
90.0
  0
ARC
  5
286
102
{ACAD_REACTORS
330
351
102
}
330
1F
100
AcDbEntity
  8
1
  6
Continuous
 62
     3
100
AcDbCircle
 10
85.0661505814977
 20
81.9214089292036
 30
0.0
 40
0.4535200610612975
100
AcDbArc
 50
270.0
 51
0.0
  0
ARC
  5
287
102
{ACAD_REACTORS
330
351
102
}
330
1F
100
AcDbEntity
  8
1
  6
Continuous
 62
     3
100
AcDbCircle
 10
84.4614571667491
 20
81.9214089292036
 30
0.0
 40
0.453520061061397
100
AcDbArc
 50
180.0
 51
270.0
  0
ARC
  5
288
102
{ACAD_REACTORS
330
351
102
}
330
1F
100
AcDbEntity
  8
1
  6
Continuous
 62
     3
100
AcDbCircle
 10
84.6882171972799
 20
82.1481689597342
 30
0.0
 40
0.226760030530798
100
AcDbArc
 50
180.0
 51
270.0
  0
ARC
  5
289
102
{ACAD_REACTORS
330
351
102
}
330
1F
100
AcDbEntity
  8
1
  6
Continuous
 62
     3
100
AcDbCircle
 10
84.8393905509672
 20
82.1481689597342
 30
0.0
 40
0.2267600305306132
100
AcDbArc
 50
270.0
 51
0.0
  0
ARC
  5
28A
102
{ACAD_REACTORS
330
351
102
}
330
1F
100
AcDbEntity
  8
1
  6
Continuous
 62
     3
100
AcDbCircle
 10
84.8393905509672
 20
84.6425292955721
 30
0.0
 40
0.2267600305304995
100
AcDbArc
 50
0.0
 51
90.0
  0
ARC
  5
28B
102
{ACAD_REACTORS
330
351
102
}
330
1F
100
AcDbEntity
  8
1
  6
Continuous
 62
     3
100
AcDbCircle
 10
84.6882171972799
 20
84.6425292955721
 30
0.0
 40
0.226760030530599
100
AcDbArc
 50
90.0
 51
180.0
  0
ARC
  5
28C
102
{ACAD_REACTORS
330
349
102
}
330
1F
100
AcDbEntity
  8
1
  6
Continuous
 62
     3
100
AcDbCircle
 10
78.9810708662059
 20
82.4058272317661
 30
0.0
 40
0.073076746968707
100
AcDbArc
 50
161.2586595548397
 51
180.0
  0
ARC
  5
28D
102
{ACAD_REACTORS
330
349
102
}
330
1F
100
AcDbEntity
  8
1
  6
Continuous
 62
     3
100
AcDbCircle
 10
79.654597630265
 20
84.3909587468877
 30
0.0
 40
0.0730767469686953
100
AcDbArc
 50
90.0
 51
161.2586595547549
  0
ARC
  5
28E
102
{ACAD_REACTORS
330
349
102
}
330
1F
100
AcDbEntity
  8
1
  6
Continuous
 62
     3
100
AcDbCircle
 10
80.0406836972511
 20
84.3909587468877
 30
0.0
 40
0.0730767469685958
100
AcDbArc
 50
0.0
 51
90.0
  0
ARC
  5
28F
102
{ACAD_REACTORS
330
348
102
}
330
1F
100
AcDbEntity
  8
1
  6
Continuous
 62
     3
100
AcDbCircle
 10
76.5329998427566
 20
82.8928854340307
 30
0.0
 40
0.1826918674216955
100
AcDbArc
 50
180.0
 51
270.0
  0
ARC
  5
290
102
{ACAD_REACTORS
330
348
102
}
330
1F
100
AcDbEntity
  8
1
  6
Continuous
 62
     3
100
AcDbCircle
 10
76.5329998427566
 20
82.8928854340307
 30
0.0
 40
0.182691867421596
100
AcDbArc
 50
270.0
 51
0.0
  0
ARC
  5
291
102
{ACAD_REACTORS
330
348
102
}
330
1F
100
AcDbEntity
  8
1
  6
Continuous
 62
     3
100
AcDbCircle
 10
76.5329998427566
 20
84.7198041082466
 30
0.0
 40
0.1826918674215108
100
AcDbArc
 50
0.0
 51
90.0
  0
ARC
  5
292
102
{ACAD_REACTORS
330
348
102
}
330
1F
100
AcDbEntity
  8
1
  6
Continuous
 62
     3
100
AcDbCircle
 10
76.5329998427566
 20
84.7198041082466
 30
0.0
 40
0.182691867421596
100
AcDbArc
 50
90.0
 51
180.0
  0
ARC
  5
293
102
{ACAD_REACTORS
330
348
102
}
330
1F
100
AcDbEntity
  8
1
  6
Continuous
 62
     3
100
AcDbCircle
 10
76.3503079753349
 20
82.7101935666091
 30
0.0
 40
0.3653837348431068
100
AcDbArc
 50
180.0
 51
270.0
  0
ARC
  5
294
102
{ACAD_REACTORS
330
348
102
}
330
1F
100
AcDbEntity
  8
1
  6
Continuous
 62
     3
100
AcDbCircle
 10
76.7156917101781
 20
82.7101935666091
 30
0.0
 40
0.3653837348432063
100
AcDbArc
 50
270.0
 51
0.0
  0
ARC
  5
295
102
{ACAD_REACTORS
330
348
102
}
330
1F
100
AcDbEntity
  8
1
  6
Continuous
 62
     3
100
AcDbCircle
 10
76.7156917101781
 20
84.9024959756682
 30
0.0
 40
0.3653837348431921
100
AcDbArc
 50
0.0
 51
90.0
  0
ARC
  5
296
102
{ACAD_REACTORS
330
348
102
}
330
1F
100
AcDbEntity
  8
1
  6
Continuous
 62
     3
100
AcDbCircle
 10
76.3503079753349
 20
84.9024959756682
 30
0.0
 40
0.3653837348431921
100
AcDbArc
 50
90.0
 51
180.0
  0
ARC
  5
297
102
{ACAD_REACTORS
330
348
102
}
330
1F
100
AcDbEntity
  8
1
  6
Continuous
 62
     3
100
AcDbCircle
 10
76.5329998427566
 20
84.2813436264348
 30
0.0
 40
0.1826918674215108
100
AcDbArc
 50
270.0
 51
0.0
  0
ARC
  5
298
102
{ACAD_REACTORS
330
348
102
}
330
1F
100
AcDbEntity
  8
1
  6
Continuous
 62
     3
100
AcDbCircle
 10
76.5329998427566
 20
83.5505761567484
 30
0.0
 40
0.1826918674215108
100
AcDbArc
 50
0.0
 51
90.0
  0
ARC
  5
299
102
{ACAD_REACTORS
330
348
102
}
330
1F
100
AcDbEntity
  8
1
  6
Continuous
 62
     3
100
AcDbCircle
 10
76.9349219510841
 20
84.0621133855288
 30
0.0
 40
0.1461534939373053
100
AcDbArc
 50
270.0
 51
0.0
  0
ARC
  5
29A
102
{ACAD_REACTORS
330
348
102
}
330
1F
100
AcDbEntity
  8
1
  6
Continuous
 62
     3
100
AcDbCircle
 10
76.9349219510841
 20
83.7698063976543
 30
0.0
 40
0.1461534939371916
100
AcDbArc
 50
0.0
 51
90.0
  0
ARC
  5
29B
102
{ACAD_REACTORS
330
34A
102
}
330
1F
100
AcDbEntity
  8
1
  6
Continuous
 62
     3
100
AcDbCircle
 10
79.0010165156637
 20
76.7757505636345
 30
0.0
 40
0.4529411764704037
100
AcDbArc
 50
270.0
 51
0.0
  0
ARC
  5
29C
102
{ACAD_REACTORS
330
34A
102
}
330
1F
100
AcDbEntity
  8
1
  6
Continuous
 62
     3
100
AcDbCircle
 10
78.7745459274286
 20
77.0022211518698
 30
0.0
 40
0.2264705882353013
100
AcDbArc
 50
270.0
 51
0.0
  0
ARC
  5
29D
102
{ACAD_REACTORS
330
34A
102
}
330
1F
100
AcDbEntity
  8
1
  6
Continuous
 62
     3
100
AcDbCircle
 10
78.6235655352717
 20
77.0022211518698
 30
0.0
 40
0.2264705882354008
100
AcDbArc
 50
180.0
 51
270.0
  0
ARC
  5
29E
102
{ACAD_REACTORS
330
34A
102
}
330
1F
100
AcDbEntity
  8
1
  6
Continuous
 62
     3
100
AcDbCircle
 10
78.3970949470363
 20
76.7757505636345
 30
0.0
 40
0.4529411764706879
100
AcDbArc
 50
180.0
 51
270.0
  0
ARC
  5
29F
102
{ACAD_REACTORS
330
34B
102
}
330
1F
100
AcDbEntity
  8
1
  6
Continuous
 62
     3
100
AcDbCircle
 10
76.634094563888
 20
78.9886305913186
 30
0.0
 40
0.6491703233962056
100
AcDbArc
 50
180.0
 51
235.2612837876392
  0
ARC
  5
2A0
102
{ACAD_REACTORS
330
34B
102
}
330
1F
100
AcDbEntity
  8
1
  6
Continuous
 62
     3
100
AcDbCircle
 10
76.8455578386644
 20
77.8089489673231
 30
0.0
 40
0.6491703233961914
100
AcDbArc
 50
0.0
 51
55.26128378763924
  0
ARC
  5
2A1
102
{ACAD_REACTORS
330
34B
102
}
330
1F
100
AcDbEntity
  8
1
  6
Continuous
 62
     3
100
AcDbCircle
 10
76.8420422706988
 20
77.811386778189
 30
0.0
 40
0.1997447148910965
100
AcDbArc
 50
0.0
 51
55.26128378760795
  0
ARC
  5
2A2
102
{ACAD_REACTORS
330
34B
102
}
330
1F
100
AcDbEntity
  8
1
  6
Continuous
 62
     3
100
AcDbCircle
 10
76.6376101318536
 20
78.9861927804527
 30
0.0
 40
0.1997447148912102
100
AcDbArc
 50
180.0
 51
235.261283787608
  0
ARC
  5
2A3
102
{ACAD_REACTORS
330
34B
102
}
330
1F
100
AcDbEntity
  8
1
  6
Continuous
 62
     3
100
AcDbCircle
 10
76.8153163973548
 20
79.4933976224582
 30
0.0
 40
0.2264705882350881
100
AcDbArc
 50
0.0
 51
90.0
  0
ARC
  5
2A4
102
{ACAD_REACTORS
330
34B
102
}
330
1F
100
AcDbEntity
  8
1
  6
Continuous
 62
     3
100
AcDbCircle
 10
76.6643360051979
 20
79.4933976224582
 30
0.0
 40
0.2264705882354008
100
AcDbArc
 50
90.0
 51
180.0
  0
ARC
  5
2A5
102
{ACAD_REACTORS
330
34B
102
}
330
1F
100
AcDbEntity
  8
1
  6
Continuous
 62
     3
100
AcDbCircle
 10
76.8153163973548
 20
77.0022211518698
 30
0.0
 40
0.2264705882353013
100
AcDbArc
 50
270.0
 51
0.0
  0
ARC
  5
2A6
102
{ACAD_REACTORS
330
34B
102
}
330
1F
100
AcDbEntity
  8
1
  6
Continuous
 62
     3
100
AcDbCircle
 10
76.6643360051979
 20
77.0022211518698
 30
0.0
 40
0.2264705882355003
100
AcDbArc
 50
180.0
 51
270.0
  0
ARC
  5
2A7
102
{ACAD_REACTORS
330
34B
102
}
330
1F
100
AcDbEntity
  8
1
  6
Continuous
 62
     3
100
AcDbCircle
 10
76.4378654169624
 20
76.7757505636345
 30
0.0
 40
0.4529411764706026
100
AcDbArc
 50
180.0
 51
270.0
  0
ARC
  5
2A8
102
{ACAD_REACTORS
330
34B
102
}
330
1F
100
AcDbEntity
  8
1
  6
Continuous
 62
     3
100
AcDbCircle
 10
77.0417869855899
 20
76.7757505636345
 30
0.0
 40
0.4529411764704037
100
AcDbArc
 50
270.0
 51
0.0
  0
ARC
  5
2A9
102
{ACAD_REACTORS
330
34B
102
}
330
1F
100
AcDbEntity
  8
1
  6
Continuous
 62
     3
100
AcDbCircle
 10
76.4378654169624
 20
79.7198682106936
 30
0.0
 40
0.4529411764704889
100
AcDbArc
 50
90.0
 51
180.0
  0
ARC
  5
2AA
102
{ACAD_REACTORS
330
34B
102
}
330
1F
100
AcDbEntity
  8
1
  6
Continuous
 62
     3
100
AcDbCircle
 10
77.0417869855899
 20
79.7198682106936
 30
0.0
 40
0.4529411764707021
100
AcDbArc
 50
0.0
 51
90.0
  0
ARC
  5
2AB
102
{ACAD_REACTORS
330
34C
102
}
330
1F
100
AcDbEntity
  8
1
  6
Continuous
 62
     3
100
AcDbCircle
 10
80.5525536240356
 20
78.9886305913186
 30
0.0
 40
0.6491703233960919
100
AcDbArc
 50
180.0
 51
235.2612837876392
  0
ARC
  5
2AC
102
{ACAD_REACTORS
330
34C
102
}
330
1F
100
AcDbEntity
  8
1
  6
Continuous
 62
     3
100
AcDbCircle
 10
80.7640168988119
 20
77.8089489673231
 30
0.0
 40
0.6491703233961914
100
AcDbArc
 50
0.0
 51
55.26128378763201
  0
ARC
  5
2AD
102
{ACAD_REACTORS
330
34C
102
}
330
1F
100
AcDbEntity
  8
1
  6
Continuous
 62
     3
100
AcDbCircle
 10
80.7605013308463
 20
77.811386778189
 30
0.0
 40
0.1997447148913096
100
AcDbArc
 50
0.0
 51
55.26128378760795
  0
ARC
  5
2AE
102
{ACAD_REACTORS
330
34C
102
}
330
1F
100
AcDbEntity
  8
1
  6
Continuous
 62
     3
100
AcDbCircle
 10
80.5560691920012
 20
78.9861927804527
 30
0.0
 40
0.1997447148910965
100
AcDbArc
 50
180.0
 51
235.2612837876314
  0
ARC
  5
2AF
102
{ACAD_REACTORS
330
34C
102
}
330
1F
100
AcDbEntity
  8
1
  6
Continuous
 62
     3
100
AcDbCircle
 10
80.7337754575025
 20
79.4933976224582
 30
0.0
 40
0.2264705882351024
100
AcDbArc
 50
0.0
 51
90.0
  0
ARC
  5
2B0
102
{ACAD_REACTORS
330
34C
102
}
330
1F
100
AcDbEntity
  8
1
  6
Continuous
 62
     3
100
AcDbCircle
 10
80.5827950653454
 20
79.4933976224582
 30
0.0
 40
0.2264705882354008
100
AcDbArc
 50
90.0
 51
180.0
  0
ARC
  5
2B1
102
{ACAD_REACTORS
330
34C
102
}
330
1F
100
AcDbEntity
  8
1
  6
Continuous
 62
     3
100
AcDbCircle
 10
80.7337754575025
 20
77.0022211518698
 30
0.0
 40
0.2264705882353013
100
AcDbArc
 50
270.0
 51
0.0
  0
ARC
  5
2B2
102
{ACAD_REACTORS
330
34C
102
}
330
1F
100
AcDbEntity
  8
1
  6
Continuous
 62
     3
100
AcDbCircle
 10
80.5827950653454
 20
77.0022211518698
 30
0.0
 40
0.2264705882352871
100
AcDbArc
 50
180.0
 51
270.0
  0
ARC
  5
2B3
102
{ACAD_REACTORS
330
34C
102
}
330
1F
100
AcDbEntity
  8
1
  6
Continuous
 62
     3
100
AcDbCircle
 10
80.3563244771101
 20
76.7757505636345
 30
0.0
 40
0.4529411764706026
100
AcDbArc
 50
180.0
 51
270.0
  0
ARC
  5
2B4
102
{ACAD_REACTORS
330
34C
102
}
330
1F
100
AcDbEntity
  8
1
  6
Continuous
 62
     3
100
AcDbCircle
 10
80.9602460457376
 20
76.7757505636345
 30
0.0
 40
0.4529411764704037
100
AcDbArc
 50
270.0
 51
0.0
  0
ARC
  5
2B5
102
{ACAD_REACTORS
330
34C
102
}
330
1F
100
AcDbEntity
  8
1
  6
Continuous
 62
     3
100
AcDbCircle
 10
80.3563244771101
 20
79.7198682106936
 30
0.0
 40
0.4529411764704889
100
AcDbArc
 50
90.0
 51
180.0
  0
ARC
  5
2B6
102
{ACAD_REACTORS
330
34C
102
}
330
1F
100
AcDbEntity
  8
1
  6
Continuous
 62
     3
100
AcDbCircle
 10
80.9602460457376
 20
79.7198682106936
 30
0.0
 40
0.4529411764704889
100
AcDbArc
 50
0.0
 51
90.0
  0
ARC
  5
2B7
102
{ACAD_REACTORS
330
353
102
}
330
1F
100
AcDbEntity
  8
1
  6
Continuous
 62
     3
100
AcDbCircle
 10
87.0319830640213
 20
78.0213387989287
 30
0.0
 40
0.4529411764704889
100
AcDbArc
 50
0.0
 51
59.34933204295286
  0
ARC
  5
2B8
102
{ACAD_REACTORS
330
353
102
}
330
1F
100
AcDbEntity
  8
1
  6
Continuous
 62
     3
100
AcDbCircle
 10
86.6545320836291
 20
77.7948682106935
 30
0.0
 40
0.2264705882352018
100
AcDbArc
 50
90.0
 51
180.0
  0
ARC
  5
2B9
102
{ACAD_REACTORS
330
353
102
}
330
1F
100
AcDbEntity
  8
1
  6
Continuous
 62
     3
100
AcDbCircle
 10
86.805512475786
 20
77.7948682106935
 30
0.0
 40
0.2264705882353013
100
AcDbArc
 50
0.0
 51
90.0
  0
ARC
  5
2BA
102
{ACAD_REACTORS
330
353
102
}
330
1F
100
AcDbEntity
  8
1
  6
Continuous
 62
     3
100
AcDbCircle
 10
86.6545320836291
 20
79.4933976224582
 30
0.0
 40
0.2264705882354008
100
AcDbArc
 50
90.0
 51
180.0
  0
ARC
  5
2BB
102
{ACAD_REACTORS
330
353
102
}
330
1F
100
AcDbEntity
  8
1
  6
Continuous
 62
     3
100
AcDbCircle
 10
86.805512475786
 20
79.4933976224582
 30
0.0
 40
0.2264705882353013
100
AcDbArc
 50
0.0
 51
90.0
  0
ARC
  5
2BC
102
{ACAD_REACTORS
330
353
102
}
330
1F
100
AcDbEntity
  8
1
  6
Continuous
 62
     3
100
AcDbCircle
 10
86.805512475786
 20
77.0022211518698
 30
0.0
 40
0.2264705882353013
100
AcDbArc
 50
270.0
 51
0.0
  0
ARC
  5
2BD
102
{ACAD_REACTORS
330
353
102
}
330
1F
100
AcDbEntity
  8
1
  6
Continuous
 62
     3
100
AcDbCircle
 10
86.6545320836291
 20
77.0022211518698
 30
0.0
 40
0.2264705882353013
100
AcDbArc
 50
180.0
 51
270.0
  0
ARC
  5
2BE
102
{ACAD_REACTORS
330
353
102
}
330
1F
100
AcDbEntity
  8
1
  6
Continuous
 62
     3
100
AcDbCircle
 10
86.4280614953938
 20
76.7757505636345
 30
0.0
 40
0.4529411764706026
100
AcDbArc
 50
180.0
 51
270.0
  0
ARC
  5
2BF
102
{ACAD_REACTORS
330
353
102
}
330
1F
100
AcDbEntity
  8
1
  6
Continuous
 62
     3
100
AcDbCircle
 10
87.0319830640213
 20
76.7757505636345
 30
0.0
 40
0.4529411764704037
100
AcDbArc
 50
270.0
 51
0.0
  0
ARC
  5
2C0
102
{ACAD_REACTORS
330
353
102
}
330
1F
100
AcDbEntity
  8
1
  6
Continuous
 62
     3
100
AcDbCircle
 10
87.0319830640213
 20
79.7198682106936
 30
0.0
 40
0.4529411764704889
100
AcDbArc
 50
0.0
 51
90.0
  0
ARC
  5
2C1
102
{ACAD_REACTORS
330
353
102
}
330
1F
100
AcDbEntity
  8
1
  6
Continuous
 62
     3
100
AcDbCircle
 10
86.4280614953938
 20
79.7198682106936
 30
0.0
 40
0.4529411764704889
100
AcDbArc
 50
90.0
 51
180.0
  0
ARC
  5
2C2
102
{ACAD_REACTORS
330
34F
102
}
330
1F
100
AcDbEntity
  8
1
  6
Continuous
 62
     3
100
AcDbCircle
 10
82.7290418875506
 20
79.4933976224582
 30
0.0
 40
0.2264705882354008
100
AcDbArc
 50
90.0
 51
180.0
  0
ARC
  5
2C3
102
{ACAD_REACTORS
330
34F
102
}
330
1F
100
AcDbEntity
  8
1
  6
Continuous
 62
     3
100
AcDbCircle
 10
82.8800222797074
 20
79.4933976224582
 30
0.0
 40
0.2264705882351024
100
AcDbArc
 50
0.0
 51
90.0
  0
ARC
  5
2C4
102
{ACAD_REACTORS
330
34F
102
}
330
1F
100
AcDbEntity
  8
1
  6
Continuous
 62
     3
100
AcDbCircle
 10
82.8800222797074
 20
78.8894760538307
 30
0.0
 40
0.2264705882352018
100
AcDbArc
 50
270.0
 51
0.0
  0
ARC
  5
2C5
102
{ACAD_REACTORS
330
34F
102
}
330
1F
100
AcDbEntity
  8
1
  6
Continuous
 62
     3
100
AcDbCircle
 10
82.8800222797074
 20
77.9835937008894
 30
0.0
 40
0.2264705882351024
100
AcDbArc
 50
0.0
 51
90.0
  0
ARC
  5
2C6
102
{ACAD_REACTORS
330
34F
102
}
330
1F
100
AcDbEntity
  8
1
  6
Continuous
 62
     3
100
AcDbCircle
 10
82.8800222797074
 20
77.0022211518698
 30
0.0
 40
0.2264705882353013
100
AcDbArc
 50
270.0
 51
0.0
  0
ARC
  5
2C7
102
{ACAD_REACTORS
330
34F
102
}
330
1F
100
AcDbEntity
  8
1
  6
Continuous
 62
     3
100
AcDbCircle
 10
82.7290418875506
 20
77.0022211518698
 30
0.0
 40
0.2264705882353866
100
AcDbArc
 50
180.0
 51
270.0
  0
ARC
  5
2C8
102
{ACAD_REACTORS
330
34F
102
}
330
1F
100
AcDbEntity
  8
1
  6
Continuous
 62
     3
100
AcDbCircle
 10
82.5025712993152
 20
76.7757505636345
 30
0.0
 40
0.4529411764707021
100
AcDbArc
 50
180.0
 51
270.0
  0
ARC
  5
2C9
102
{ACAD_REACTORS
330
34F
102
}
330
1F
100
AcDbEntity
  8
1
  6
Continuous
 62
     3
100
AcDbCircle
 10
83.1064928679425
 20
76.7757505636345
 30
0.0
 40
0.4529411764704037
100
AcDbArc
 50
270.0
 51
0.0
  0
ARC
  5
2CA
102
{ACAD_REACTORS
330
34F
102
}
330
1F
100
AcDbEntity
  8
1
  6
Continuous
 62
     3
100
AcDbCircle
 10
83.1064928679425
 20
79.7198682106936
 30
0.0
 40
0.4529411764707874
100
AcDbArc
 50
0.0
 51
90.0
  0
ARC
  5
2CB
102
{ACAD_REACTORS
330
34F
102
}
330
1F
100
AcDbEntity
  8
1
  6
Continuous
 62
     3
100
AcDbCircle
 10
82.5025712993152
 20
79.7198682106936
 30
0.0
 40
0.4529411764704889
100
AcDbArc
 50
90.0
 51
180.0
  0
ARC
  5
2CC
102
{ACAD_REACTORS
330
34E
102
}
330
1F
100
AcDbEntity
  8
1
  6
Continuous
 62
     3
100
AcDbCircle
 10
83.1001251374439
 20
83.1664182799069
 30
0.0
 40
0.4529411764704037
100
AcDbArc
 50
0.0
 51
59.34933204295286
  0
ARC
  5
2CD
102
{ACAD_REACTORS
330
34E
102
}
330
1F
100
AcDbEntity
  8
1
  6
Continuous
 62
     3
100
AcDbCircle
 10
82.7226741570516
 20
82.9399476916717
 30
0.0
 40
0.2264705882352018
100
AcDbArc
 50
90.0
 51
180.0
  0
ARC
  5
2CE
102
{ACAD_REACTORS
330
34E
102
}
330
1F
100
AcDbEntity
  8
1
  6
Continuous
 62
     3
100
AcDbCircle
 10
82.8736545492087
 20
82.9399476916717
 30
0.0
 40
0.2264705882352018
100
AcDbArc
 50
0.0
 51
90.0
  0
ARC
  5
2CF
102
{ACAD_REACTORS
330
34E
102
}
330
1F
100
AcDbEntity
  8
1
  6
Continuous
 62
     3
100
AcDbCircle
 10
82.7226741570517
 20
84.6384771034366
 30
0.0
 40
0.2264705882352018
100
AcDbArc
 50
90.0
 51
180.0
  0
ARC
  5
2D0
102
{ACAD_REACTORS
330
34E
102
}
330
1F
100
AcDbEntity
  8
1
  6
Continuous
 62
     3
100
AcDbCircle
 10
82.8736545492087
 20
84.6384771034366
 30
0.0
 40
0.2264705882352018
100
AcDbArc
 50
0.0
 51
90.0
  0
ARC
  5
2D1
102
{ACAD_REACTORS
330
34E
102
}
330
1F
100
AcDbEntity
  8
1
  6
Continuous
 62
     3
100
AcDbCircle
 10
82.8736545492087
 20
82.147300632848
 30
0.0
 40
0.2264705882353013
100
AcDbArc
 50
270.0
 51
0.0
  0
ARC
  5
2D2
102
{ACAD_REACTORS
330
34E
102
}
330
1F
100
AcDbEntity
  8
1
  6
Continuous
 62
     3
100
AcDbCircle
 10
82.7226741570517
 20
82.147300632848
 30
0.0
 40
0.2264705882354008
100
AcDbArc
 50
180.0
 51
270.0
  0
ARC
  5
2D3
102
{ACAD_REACTORS
330
34E
102
}
330
1F
100
AcDbEntity
  8
1
  6
Continuous
 62
     3
100
AcDbCircle
 10
82.4962035688163
 20
81.9208300446127
 30
0.0
 40
0.4529411764705031
100
AcDbArc
 50
180.0
 51
270.0
  0
ARC
  5
2D4
102
{ACAD_REACTORS
330
34E
102
}
330
1F
100
AcDbEntity
  8
1
  6
Continuous
 62
     3
100
AcDbCircle
 10
83.1001251374439
 20
81.9208300446127
 30
0.0
 40
0.4529411764704037
100
AcDbArc
 50
270.0
 51
0.0
  0
ARC
  5
2D5
102
{ACAD_REACTORS
330
34E
102
}
330
1F
100
AcDbEntity
  8
1
  6
Continuous
 62
     3
100
AcDbCircle
 10
83.1001251374439
 20
84.8649476916718
 30
0.0
 40
0.4529411764704037
100
AcDbArc
 50
0.0
 51
90.0
  0
ARC
  5
2D6
102
{ACAD_REACTORS
330
34E
102
}
330
1F
100
AcDbEntity
  8
1
  6
Continuous
 62
     3
100
AcDbCircle
 10
82.4962035688163
 20
84.8649476916718
 30
0.0
 40
0.4529411764705031
100
AcDbArc
 50
90.0
 51
180.0
  0
ARC
  5
2D7
330
1F
100
AcDbEntity
  8
1
  6
Continuous
 62
     3
100
AcDbCircle
 10
-75.0958682712217
 20
17.0999999999999
 30
0.0
 40
0.5
100
AcDbArc
 50
90.0
 51
180.0
  0
ARC
  5
2D8
330
1F
100
AcDbEntity
  8
1
  6
Continuous
 62
     3
100
AcDbCircle
 10
-78.9598293019009
 20
16.6
 30
0.0
 40
3.0
100
AcDbArc
 50
90.0
 51
180.0
  0
ARC
  5
2D9
330
1F
100
AcDbEntity
  8
1
  6
Continuous
 62
     3
100
AcDbCircle
 10
-74.010081833595
 20
16.6
 30
0.0
 40
3.0
100
AcDbArc
 50
90.0
 51
180.0
  0
ARC
  5
2DA
330
1F
100
AcDbEntity
  8
1
  6
Continuous
 62
     3
100
AcDbCircle
 10
-71.1993170597623
 20
21.1
 30
0.0
 40
0.5
100
AcDbArc
 50
89.9999999999886
 51
180.0
  0
ARC
  5
2DB
330
1F
100
AcDbEntity
  8
1
  6
Continuous
 62
     3
100
AcDbCircle
 10
-71.1993170597623
 20
20.1
 30
0.0
 40
0.5
100
AcDbArc
 50
180.0
 51
270.0
  0
ARC
  5
2DC
330
1F
100
AcDbEntity
  8
1
  6
Continuous
 62
     3
100
AcDbCircle
 10
-56.7993170597623
 20
21.1
 30
0.0
 40
0.5
100
AcDbArc
 50
0.0
 51
90.0
  0
ARC
  5
2DD
330
1F
100
AcDbEntity
  8
1
  6
Continuous
 62
     3
100
AcDbCircle
 10
-56.7993170597623
 20
20.1
 30
0.0
 40
0.5
100
AcDbArc
 50
270.0
 51
0.0
  0
ARC
  5
2DE
330
1F
100
AcDbEntity
  8
1
  6
Continuous
 62
     3
100
AcDbCircle
 10
-50.0851034973893
 20
40.1296230163032
 30
0.0
 40
1.999999999999892
100
AcDbArc
 50
119.9938331631337
 51
180.0
  0
ARC
  5
2DF
330
1F
100
AcDbEntity
  8
1
  6
Continuous
 62
     3
100
AcDbCircle
 10
-75.0851034973893
 20
40.1296230163032
 30
0.0
 40
2.0
100
AcDbArc
 50
0.0
 51
60.00616683686635
  0
ARC
  5
2E0
330
1F
100
AcDbEntity
  8
1
  6
Continuous
 62
     3
100
AcDbCircle
 10
-70.5851034973893
 20
33.607717419331
 30
0.0
 40
1.0
100
AcDbArc
 50
90.0
 51
180.0
  0
ARC
  5
2E1
330
1F
100
AcDbEntity
  8
1
  6
Continuous
 62
     3
100
AcDbCircle
 10
-54.5851034973893
 20
33.607717419331
 30
0.0
 40
1.0
100
AcDbArc
 50
0.0
 51
90.0
  0
ARC
  5
2E2
330
1F
100
AcDbEntity
  8
1
  6
Continuous
 62
     3
100
AcDbCircle
 10
37.7237750546707
 20
40.2027661699427
 30
0.0
 40
0.9999999999999578
100
AcDbArc
 50
95.00000000000286
 51
141.3401917459135
  0
ARC
  5
2E3
330
1F
100
AcDbEntity
  8
1
  6
Continuous
 62
     3
100
AcDbCircle
 10
35.6687639501733
 20
44.037126526754
 30
0.0
 40
2.000000000000073
100
AcDbArc
 50
95.00096059066465
 51
141.3401917459076
  0
ARC
  5
2E4
330
1F
100
AcDbEntity
  8
1
  6
Continuous
 62
     3
100
AcDbCircle
 10
26.4849242404918
 20
72.8648863250233
 30
0.0
 40
1.0
100
AcDbArc
 50
270.0
 51
0.0
  0
ARC
  5
2E5
330
1F
100
AcDbEntity
  8
1
  6
Continuous
 62
     3
100
AcDbCircle
 10
26.4849242404918
 20
88.8648863250233
 30
0.0
 40
1.0
100
AcDbArc
 50
0.0
 51
90.0
  0
ARC
  5
2E6
330
1F
100
AcDbEntity
  8
1
  6
Continuous
 62
     3
100
AcDbCircle
 10
-15.8898015640197
 20
17.6
 30
0.0
 40
2.0
100
AcDbArc
 50
90.0
 51
180.0
  0
ARC
  5
2E7
330
1F
100
AcDbEntity
  8
1
  6
Continuous
 62
     3
100
AcDbCircle
 10
-15.4755880016466
 20
16.6
 30
0.0
 40
1.0
100
AcDbArc
 50
90.0
 51
180.0
  0
ARC
  5
2E8
330
1F
100
AcDbEntity
  8
1
  6
Continuous
 62
     3
100
AcDbCircle
 10
-13.2599409842605
 20
19.3000000000001
 30
0.0
 40
0.2999999999999012
100
AcDbArc
 50
90.0
 51
180.0
  0
ARC
  5
2E9
330
1F
100
AcDbEntity
  8
1
  6
Continuous
 62
     3
100
AcDbCircle
 10
28.4849242404918
 20
36.6581079490104
 30
0.0
 40
1.000000000000037
100
AcDbArc
 50
141.3401917459136
 51
180.0
  0
ARC
  5
2EA
330
1F
100
AcDbEntity
  8
1
  6
Continuous
 62
     3
100
AcDbCircle
 10
35.6687639501733
 20
44.037126526754
 30
0.0
 40
2.000000000000073
100
AcDbArc
 50
95.00096059066465
 51
141.3401917459076
  0
ARC
  5
2EB
330
1F
100
AcDbEntity
  8
1
  6
Continuous
 62
     3
100
AcDbCircle
 10
37.7237750546707
 20
40.2027661699427
 30
0.0
 40
0.9999999999999578
100
AcDbArc
 50
95.00000000000286
 51
141.3401917459135
  0
ARC
  5
2EC
330
1F
100
AcDbEntity
  8
1
  6
Continuous
 62
     3
100
AcDbCircle
 10
92.99999999999979
 20
80.8228093871641
 30
0.0
 40
7.000000000000213
100
AcDbArc
 50
0.0
 51
55.98438694937469
  0
ARC
  5
2ED
330
1F
100
AcDbEntity
  8
1
  6
Continuous
 62
     3
100
AcDbCircle
 10
92.99999999999979
 20
80.8228093871641
 30
0.0
 40
6.999999999999958
100
AcDbArc
 50
304.0156130506242
 51
0.0
  0
ARC
  5
2EE
330
1F
100
AcDbEntity
  8
1
  6
Continuous
 62
     3
100
AcDbCircle
 10
68.9999999999998
 20
125.556225797102
 30
0.0
 40
57.73341640993796
100
AcDbArc
 50
269.95478659436
 51
298.9163119576882
  0
ARC
  5
2EF
330
1F
100
AcDbEntity
  8
1
  6
Continuous
 62
     3
100
AcDbCircle
 10
68.99999999999979
 20
36.08939297722611
 30
0.0
 40
57.73341640993792
100
AcDbArc
 50
61.08368804231164
 51
90.04521340564025
  0
ARC
  5
2F0
102
{ACAD_REACTORS
330
33E
102
}
330
1F
100
AcDbEntity
  8
1
  6
Continuous
 62
     3
100
AcDbCircle
 10
33.6516535468368
 20
80.7715910514676
 30
0.0
 40
11.61448385689715
100
AcDbArc
 50
340.7693468285412
 51
0.0
  0
ARC
  5
2F1
102
{ACAD_REACTORS
330
33E
102
}
330
1F
100
AcDbEntity
  8
1
  6
Continuous
 62
     3
100
AcDbCircle
 10
33.8704022107886
 20
80.7715910514676
 30
0.0
 40
11.61448385689718
100
AcDbArc
 50
329.1904195177755
 51
0.0
  0
ARC
  5
2F2
102
{ACAD_REACTORS
330
33E
102
}
330
1F
100
AcDbEntity
  8
1
  6
Continuous
 62
     3
100
AcDbCircle
 10
33.6516535468368
 20
80.7715910514676
 30
0.0
 40
11.6144838568973
100
AcDbArc
 50
0.0
 51
19.23065317146067
  0
ARC
  5
2F3
102
{ACAD_REACTORS
330
33E
102
}
330
1F
100
AcDbEntity
  8
1
  6
Continuous
 62
     3
100
AcDbCircle
 10
33.8704022107886
 20
80.7715910514676
 30
0.0
 40
11.6144838568974
100
AcDbArc
 50
0.0
 51
30.8095804822245
  0
ARC
  5
2F4
330
1F
100
AcDbEntity
  8
1
  6
PHANTOM
 62
     3
100
AcDbCircle
 10
35.4849242404918
 20
80.8228093871641
 30
0.0
 40
10.0
100
AcDbArc
 50
0.0
 51
0.92058893619931
  0
ARC
  5
2F5
102
{ACAD_REACTORS
330
346
102
}
330
1F
100
AcDbEntity
  8
1
  6
Continuous
 62
     3
100
AcDbCircle
 10
72.7538203939091
 20
82.5828890802361
 30
0.0
 40
0.7311100263530081
100
AcDbArc
 50
359.7644230815726
 51
0.0
  0
ARC
  5
2F6
102
{ACAD_REACTORS
330
346
102
}
330
1F
100
AcDbEntity
  8
1
  6
Continuous
 62
     3
100
AcDbCircle
 10
72.7538203939091
 20
82.5828890802361
 30
0.0
 40
0.7311100263530079
100
AcDbArc
 50
0.0
 51
359.7644230815726
  0
ARC
  5
2F7
102
{ACAD_REACTORS
330
350
102
}
330
1F
100
AcDbEntity
  8
1
  6
Continuous
 62
     3
100
AcDbCircle
 10
83.8270980277655
 20
80.5114287461494
 30
0.0
 40
0.9987235744567967
100
AcDbArc
 50
299.159829349202
 51
340.1808645332414
  0
ARC
  5
2F8
102
{ACAD_REACTORS
330
353
102
}
330
1F
100
AcDbEntity
  8
1
  6
Continuous
 62
     3
100
AcDbCircle
 10
86.7300222797075
 20
77.5117799753992
 30
0.0
 40
1.045250647862088
100
AcDbArc
 50
59.34933204294835
 51
106.7914176871146
  0
ARC
  5
2F9
102
{ACAD_REACTORS
330
34F
102
}
330
1F
100
AcDbEntity
  8
1
  6
Continuous
 62
     3
100
AcDbCircle
 10
82.8800222797074
 20
77.9835937008894
 30
0.0
 40
0.6794117647058897
100
AcDbArc
 50
0.0
 51
41.81031489579081
  0
ARC
  5
2FA
102
{ACAD_REACTORS
330
34F
102
}
330
1F
100
AcDbEntity
  8
1
  6
Continuous
 62
     3
100
AcDbCircle
 10
82.8800222797074
 20
78.8894760538307
 30
0.0
 40
0.679411764705825
100
AcDbArc
 50
318.1896851042154
 51
0.0
  0
ARC
  5
2FB
102
{ACAD_REACTORS
330
34E
102
}
330
1F
100
AcDbEntity
  8
1
  6
Continuous
 62
     3
100
AcDbCircle
 10
82.7981643531301
 20
82.6568594563774
 30
0.0
 40
1.045250647862081
100
AcDbArc
 50
59.34933204294902
 51
106.7914176871208
  0
ARC
  5
2FC
330
1F
100
AcDbEntity
  8
1
  6
Continuous
 62
     3
100
AcDbCircle
 10
0.0
 20
25.0
 30
0.0
 40
4.33012701892223
100
AcDbArc
 50
43.85377861202159
 51
67.48217464177237
  0
ARC
  5
2FD
330
1F
100
AcDbEntity
  8
1
  6
Continuous
 62
     3
100
AcDbCircle
 10
0.0
 20
25.0
 30
0.0
 40
4.330127018922209
100
AcDbArc
 50
112.5178253582276
 51
136.1462213879784
  0
ARC
  5
2FE
330
1F
100
AcDbEntity
  8
1
  6
Continuous
 62
     3
100
AcDbCircle
 10
-2.49115314114158
 20
24.1751160392532
 30
0.0
 40
5.00000000000014
100
AcDbArc
 50
293.7909769138865
 51
329.0009937562011
  0
ARC
  5
2FF
330
1F
100
AcDbEntity
  8
1
  6
Continuous
 62
     3
100
AcDbCircle
 10
-1.56669377190457
 20
24.1751160392532
 30
0.0
 40
5.00000000000014
100
AcDbArc
 50
293.7909769138865
 51
329.0009937562011
  0
ARC
  5
300
330
1F
100
AcDbEntity
  8
1
  6
Continuous
 62
     3
100
AcDbCircle
 10
0.00000000000003
 20
14.1148004287749
 30
0.0
 40
12.48519957122515
100
AcDbArc
 50
72.50767547488888
 51
107.4923245251111
  0
ARC
  5
301
330
1F
100
AcDbEntity
  8
1
  6
Continuous
 62
     3
100
AcDbCircle
 10
0.00000000000003
 20
34.0851995712252
 30
0.0
 40
12.48519957122515
100
AcDbArc
 50
252.5076754748889
 51
287.4923245251111
  0
ARC
  5
302
330
1F
100
AcDbEntity
  8
1
  6
Continuous
 62
     3
100
AcDbCircle
 10
5.62638837486628
 20
23.3938997832017
 30
0.0
 40
3.228118152870022
100
AcDbArc
 50
54.52106030985889
 51
125.4789396901407
  0
ARC
  5
303
330
1F
100
AcDbEntity
  8
1
  6
Continuous
 62
     3
100
AcDbCircle
 10
5.62638837486628
 20
24.9287884844759
 30
0.0
 40
3.328788484475007
100
AcDbArc
 50
235.7468126897262
 51
304.2531873102743
  0
ARC
  5
304
330
1F
100
AcDbEntity
  8
1
  6
Continuous
 62
     3
100
AcDbCircle
 10
-5.62638837486628
 20
23.2712115155297
 30
0.0
 40
3.328788484470495
100
AcDbArc
 50
55.74681268967208
 51
124.2531873103275
  0
ARC
  5
305
330
1F
100
AcDbEntity
  8
1
  6
Continuous
 62
     3
100
AcDbCircle
 10
-5.62638837486628
 20
24.9287884844759
 30
0.0
 40
3.328788484475024
100
AcDbArc
 50
235.7468126897258
 51
304.2531873102747
  0
ARC
  5
306
330
1F
100
AcDbEntity
  8
1
  6
Continuous
 62
     3
100
AcDbCircle
 10
5.19233652844124
 20
-8.0
 30
0.0
 40
25.81661224855307
100
AcDbArc
 50
341.9481220370076
 51
18.05187796299234
  0
ARC
  5
307
330
1F
100
AcDbEntity
  8
1
  6
Continuous
 62
     3
100
AcDbCircle
 10
5.83305780485596
 20
8.0
 30
0.0
 40
25.20821153083168
100
AcDbArc
 50
341.496843198297
 51
18.50315680170307
  0
ARC
  5
308
330
1F
100
AcDbEntity
  8
1
  6
Continuous
 62
     3
100
AcDbCircle
 10
-4.15080910285661
 20
8.0
 30
0.0
 40
25.88560762918492
100
AcDbArc
 50
161.997888324491
 51
198.002111675509
  0
ARC
  5
309
330
1F
100
AcDbEntity
  8
1
  6
Continuous
 62
     3
100
AcDbCircle
 10
-3.40524704084916
 20
-8.0
 30
0.0
 40
26.5956689500684
100
AcDbArc
 50
162.4942892368547
 51
197.5057107631453
  0
ARC
  5
30A
330
1F
100
AcDbEntity
  8
1
  6
Continuous
 62
     3
100
AcDbCircle
 10
-71.1960010152435
 20
40.9101558894044
 30
0.0
 40
2.000000000000195
100
AcDbArc
 50
86.82138990594177
 51
160.8304896303551
  0
ARC
  5
30B
330
1F
100
AcDbEntity
  8
1
  6
Continuous
 62
     3
100
AcDbCircle
 10
-53.9742059795351
 20
40.9101558894044
 30
0.0
 40
2.000000000000273
100
AcDbArc
 50
19.16951036964489
 51
93.17861009405823
  0
ARC
  5
30C
330
1F
100
AcDbEntity
  8
1
  6
Continuous
 62
     3
100
AcDbCircle
 10
-67.1243170597623
 20
28.6983443012005
 30
0.0
 40
7.098344301200522
100
AcDbArc
 50
243.8805810302428
 51
296.1194189697601
  0
ARC
  5
30D
330
1F
100
AcDbEntity
  8
1
  6
Continuous
 62
     3
100
AcDbCircle
 10
-67.1243170597623
 20
19.5016556987996
 30
0.0
 40
7.098344301200611
100
AcDbArc
 50
63.88058103023949
 51
116.1194189697576
  0
ARC
  5
30E
330
1F
100
AcDbEntity
  8
1
  6
Continuous
 62
     3
100
AcDbCircle
 10
-60.8743170597623
 20
28.6983443012005
 30
0.0
 40
7.098344301200697
100
AcDbArc
 50
243.8805810302399
 51
296.1194189697557
  0
ARC
  5
30F
330
1F
100
AcDbEntity
  8
1
  6
Continuous
 62
     3
100
AcDbCircle
 10
-60.8743170597623
 20
19.5016556987996
 30
0.0
 40
7.098344301200342
100
AcDbArc
 50
63.88058103024392
 51
116.1194189697605
  0
ARC
  5
310
330
1F
100
AcDbEntity
  8
1
  6
Continuous
 62
     3
100
AcDbCircle
 10
-53.0845442097741
 20
45.3260983037349
 30
0.0
 40
4.000000000000096
100
AcDbArc
 50
299.9938331631328
 51
75.53076159676813
  0
ARC
  5
311
330
1F
100
AcDbEntity
  8
1
  6
Continuous
 62
     3
100
AcDbCircle
 10
-72.0856627850045
 20
45.3260983037349
 30
0.0
 40
3.999999999999327
100
AcDbArc
 50
104.4692384032318
 51
240.0061668368673
  0
ARC
  5
312
330
1F
100
AcDbEntity
  8
1
  6
Continuous
 62
     3
100
AcDbCircle
 10
-62.5851034973893
 20
21.0967350215169
 30
0.0
 40
30.00000000000001
100
AcDbArc
 50
69.51268488527735
 51
110.4873151147227
  0
ARC
  5
313
330
1F
100
AcDbEntity
  8
1
  6
Continuous
 62
     3
100
AcDbCircle
 10
-71.5851034973893
 20
32.76814826284959
 30
0.0
 40
1.5
100
AcDbArc
 50
180.0
 51
270.0
  0
ARC
  5
314
330
1F
100
AcDbEntity
  8
1
  6
Continuous
 62
     3
100
AcDbCircle
 10
-53.5851034973893
 20
32.76814826284959
 30
0.0
 40
1.499999999999993
100
AcDbArc
 50
270.0
 51
0.0
  0
ARC
  5
315
330
1F
100
AcDbEntity
  8
1
  6
Continuous
 62
     3
100
AcDbCircle
 10
0.0
 20
82.3048863250233
 30
0.0
 40
3.999999999999954
100
AcDbArc
 50
218.6821874534899
 51
321.317812546511
  0
ARC
  5
316
330
1F
100
AcDbEntity
  8
1
  6
Continuous
 62
     3
100
AcDbCircle
 10
0.0
 20
82.3048863250233
 30
0.0
 40
4.000000000000039
100
AcDbArc
 50
321.317812546511
 51
38.68218745348899
  0
ARC
  5
317
330
1F
100
AcDbEntity
  8
1
  6
Continuous
 62
     3
100
AcDbCircle
 10
0.0
 20
82.3048863250233
 30
0.0
 40
3.999999999999954
100
AcDbArc
 50
141.31781254651
 51
218.6821874534899
  0
ARC
  5
318
330
1F
100
AcDbEntity
  8
1
  6
Continuous
 62
     3
100
AcDbCircle
 10
0.0
 20
82.3048863250233
 30
0.0
 40
3.323500000000053
100
AcDbArc
 50
311.2170341295016
 51
48.78296587049776
  0
ARC
  5
319
330
1F
100
AcDbEntity
  8
1
  6
Continuous
 62
     3
100
AcDbCircle
 10
0.0
 20
82.3048863250233
 30
0.0
 40
3.323500000000013
100
AcDbArc
 50
228.7829658704992
 51
311.2170341295016
  0
ARC
  5
31A
330
1F
100
AcDbEntity
  8
1
  6
Continuous
 62
     3
100
AcDbCircle
 10
0.0
 20
82.3048863250233
 30
0.0
 40
3.323500000000086
100
AcDbArc
 50
48.78296587049776
 51
131.2170341295008
  0
ARC
  5
31B
330
1F
100
AcDbEntity
  8
1
  6
Continuous
 62
     3
100
AcDbCircle
 10
0.0
 20
82.3048863250233
 30
0.0
 40
3.323500000000013
100
AcDbArc
 50
131.2170341295008
 51
228.7829658704992
  0
ARC
  5
31C
330
1F
100
AcDbEntity
  8
1
  6
Continuous
 62
     3
100
AcDbCircle
 10
0.0
 20
82.3048863250233
 30
0.0
 40
4.000000000000039
100
AcDbArc
 50
38.68218745348899
 51
141.31781254651
  0
ARC
  5
31D
330
1F
100
AcDbEntity
  8
1
  6
Continuous
 62
     3
100
AcDbCircle
 10
27.8110442952405
 20
72.2438930507615
 30
0.0
 40
1.379217349717397
100
AcDbArc
 50
195.9500006899419
 51
268.9986619755733
  0
ARC
  5
31E
330
1F
100
AcDbEntity
  8
1
  6
Continuous
 62
     3
100
AcDbCircle
 10
27.8110442952405
 20
89.4858795992851
 30
0.0
 40
1.379217349717506
100
AcDbArc
 50
91.00133802442676
 51
164.0499993100576
  0
ARC
  5
31F
330
1F
100
AcDbEntity
  8
1
  6
Continuous
 62
     3
100
AcDbCircle
 10
14.8564078649988
 20
68.8648863250233
 30
0.0
 40
3.0
100
AcDbArc
 50
90.0
 51
138.1896851042216
  0
ARC
  5
320
330
1F
100
AcDbEntity
  8
1
  6
Continuous
 62
     3
100
AcDbCircle
 10
1.44000000000006
 20
80.8648863250233
 30
0.0
 40
14.9999999999999
100
AcDbArc
 50
270.0
 51
318.1896851042214
  0
ARC
  5
321
330
1F
100
AcDbEntity
  8
1
  6
Continuous
 62
     3
100
AcDbCircle
 10
1.44000000000006
 20
80.8648863250233
 30
0.0
 40
15.00000000000002
100
AcDbArc
 50
156.1684488458327
 51
270.0
  0
ARC
  5
322
330
1F
100
AcDbEntity
  8
1
  6
Continuous
 62
     3
100
AcDbCircle
 10
-15.0252715481819
 20
88.13776971778
 30
0.0
 40
3.00000000000016
100
AcDbArc
 50
336.168448845832
 51
44.99999999999734
  0
ARC
  5
323
330
1F
100
AcDbEntity
  8
1
  6
Continuous
 62
     3
100
AcDbCircle
 10
-5.83288339275668
 20
97.3301578732049
 30
0.0
 40
2.999999999999921
100
AcDbArc
 50
224.9999999999978
 51
293.8315511541685
  0
ARC
  5
324
330
1F
100
AcDbEntity
  8
1
  6
Continuous
 62
     3
100
AcDbCircle
 10
1.44000000000006
 20
80.8648863250233
 30
0.0
 40
14.99999999999999
100
AcDbArc
 50
41.81031489577862
 51
113.8315511541679
  0
ARC
  5
325
330
1F
100
AcDbEntity
  8
1
  6
Continuous
 62
     3
100
AcDbCircle
 10
14.8564078649988
 20
92.8648863250233
 30
0.0
 40
3.000000000000008
100
AcDbArc
 50
221.8103148957784
 51
270.0
  0
ARC
  5
326
330
1F
100
AcDbEntity
  8
1
  6
Continuous
 62
     3
100
AcDbCircle
 10
0.63859271899062
 20
82.3048863250233
 30
0.0
 40
30.36140728100931
100
AcDbArc
 50
16.37583696165258
 51
17.73789543338787
  0
ARC
  5
327
330
1F
100
AcDbEntity
  8
1
  6
Continuous
 62
     3
100
AcDbCircle
 10
14.4949991795417
 20
98.3048863250233
 30
0.0
 40
16.50500082045828
100
AcDbArc
 50
335.8600426901355
 51
0.0
  0
ARC
  5
328
330
1F
100
AcDbEntity
  8
1
  6
Continuous
 62
     3
100
AcDbCircle
 10
14.4949991795416
 20
66.3048863250233
 30
0.0
 40
16.5050008204584
100
AcDbArc
 50
0.0
 51
16.03830245637763
  0
ARC
  5
329
330
1F
100
AcDbEntity
  8
1
  6
Continuous
 62
     3
100
AcDbCircle
 10
-13.4949991795415
 20
98.3048863250233
 30
0.0
 40
16.5050008204585
100
AcDbArc
 50
180.0
 51
204.1399573098643
  0
ARC
  5
32A
330
1F
100
AcDbEntity
  8
1
  6
Continuous
 62
     3
100
AcDbCircle
 10
-13.4949991795417
 20
66.3048863250233
 30
0.0
 40
16.50500082045828
100
AcDbArc
 50
155.8600426901354
 51
180.0
  0
ARC
  5
32B
330
1F
100
AcDbEntity
  8
1
  6
Continuous
 62
     3
100
AcDbCircle
 10
0.36140728100941
 20
82.3048863250233
 30
0.0
 40
30.36140728100938
100
AcDbArc
 50
162.2621045666122
 51
197.7378954333878
  0
ARC
  5
32C
330
1F
100
AcDbEntity
  8
1
  6
Continuous
 62
     3
100
AcDbCircle
 10
14.5175006100537
 20
21.6
 30
0.0
 40
2.0
100
AcDbArc
 50
270.0
 51
321.3401917459121
  0
ARC
  5
32D
330
1F
100
AcDbEntity
  8
1
  6
Continuous
 62
     3
100
AcDbCircle
 10
14.5175006100537
 20
21.6
 30
0.0
 40
4.0
100
AcDbArc
 50
270.0
 51
321.3401917459097
  0
ARC
  5
32E
330
1F
100
AcDbEntity
  8
1
  6
Continuous
 62
     3
100
AcDbCircle
 10
28.2484488008997
 20
33.4492533230257
 30
0.0
 40
2.181105060176107
100
AcDbArc
 50
249.508820827637
 51
323.0790346877866
  0
ARC
  5
32F
330
1F
100
AcDbEntity
  8
1
  6
Continuous
 62
     3
100
AcDbCircle
 10
97.49631377602559
 20
48.49650515299241
 30
0.0
 40
2.503686223974407
100
AcDbArc
 50
2.40592540291406
 51
90.70842728569883
  0
ARC
  5
330
330
1F
100
AcDbEntity
  8
1
  6
Continuous
 62
     3
100
AcDbCircle
 10
97.49631377602559
 20
48.49650515299241
 30
0.0
 40
2.503686223974454
100
AcDbArc
 50
276.0564178033704
 51
2.40592540291406
  0
CIRCLE
  5
331
330
1F
100
AcDbEntity
  8
1
  6
Continuous
 62
     3
100
AcDbCircle
 10
-63.9993170597623
 20
0.0
 30
0.0
 40
13.2093166907855
  0
CIRCLE
  5
332
330
1F
100
AcDbEntity
  8
1
  6
Continuous
 62
     3
100
AcDbCircle
 10
-63.9993170597623
 20
0.0
 30
0.0
 40
11.65
  0
CIRCLE
  5
333
330
1F
100
AcDbEntity
  8
1
  6
Continuous
 62
     3
100
AcDbCircle
 10
-63.9993170597623
 20
0.0
 30
0.0
 40
11.15
  0
CIRCLE
  5
334
330
1F
100
AcDbEntity
  8
1
  6
Continuous
 62
     3
100
AcDbCircle
 10
-63.9993170597623
 20
0.0
 30
0.0
 40
6.25
  0
CIRCLE
  5
335
330
1F
100
AcDbEntity
  8
1
  6
Continuous
 62
     3
100
AcDbCircle
 10
-63.9993170597623
 20
0.0
 30
0.0
 40
7.0
  0
CIRCLE
  5
336
330
1F
100
AcDbEntity
  8
1
  6
Continuous
 62
     3
100
AcDbCircle
 10
-63.9993170597623
 20
0.0
 30
0.0
 40
9.0
  0
CIRCLE
  5
337
330
1F
100
AcDbEntity
  8
1
  6
Continuous
 62
     3
100
AcDbCircle
 10
-63.9993170597623
 20
0.0
 30
0.0
 40
12.0152235740788
  0
CIRCLE
  5
338
330
1F
100
AcDbEntity
  8
1
  6
Continuous
 62
     3
100
AcDbCircle
 10
-63.9993170597623
 20
0.0
 30
0.0
 40
13.4000000000001
  0
CIRCLE
  5
339
330
1F
100
AcDbEntity
  8
1
  6
Continuous
 62
     3
100
AcDbCircle
 10
-63.9993170597623
 20
0.0
 30
0.0
 40
16.0
  0
CIRCLE
  5
33A
330
1F
100
AcDbEntity
  8
1
  6
Continuous
 62
     3
100
AcDbCircle
 10
0.0
 20
82.3048863250233
 30
0.0
 40
7.70000000000005
  0
CIRCLE
  5
33B
330
1F
100
AcDbEntity
  8
1
  6
Continuous
 62
     3
100
AcDbCircle
 10
0.0
 20
82.3048863250233
 30
0.0
 40
6.5
  0
HATCH
  5
33C
330
1F
100
AcDbEntity
  8
1
  6
Continuous
 62
     4
100
AcDbHatch
 10
0.0
 20
0.0
 30
0.0
210
0.0
220
0.0
230
1.0
  2
SOLID
 70
     1
 71
     1
 91
        2
 92
        1
 93
        8
 72
     1
 10
43.384900420661
 20
85.9215595970757
 11
43.384900420661
 21
85.2215638724299
 72
     2
 10
42.9849028637204
 20
85.2215638724299
 40
0.3999975569401926
 50
0.0
 51
90.0
 73
     0
 72
     1
 10
42.9849028637204
 20
84.8215663154897
 11
39.8849217974321
 21
84.8215663154897
 72
     2
 10
39.8849217974321
 20
85.2215638724299
 40
0.3999975569402991
 50
90.0
 51
180.0
 73
     0
 72
     1
 10
39.4849242404918
 20
85.2215638724299
 11
39.4849242404918
 21
85.9215595970757
 72
     2
 10
39.8849217974321
 20
85.9215595970757
 40
0.3999975569405052
 50
180.0
 51
270.0
 73
     0
 72
     1
 10
39.8849217974321
 20
86.3215571540162
 11
42.9849028637204
 21
86.3215571540162
 72
     2
 10
42.9849028637204
 20
85.9215595970757
 40
0.3999975569405976
 50
270.0
 51
360.0
 73
     0
 97
        8
330
A0
330
27B
330
9F
330
27A
330
9E
330
279
330
9D
330
278
 92
       16
 93
        8
 72
     2
 10
40.1536701560016
 20
85.4903122309993
 40
0.3749977096316996
 50
180.0
 51
270.0
 73
     1
 72
     1
 10
40.1536701560016
 20
85.1153145213676
 11
42.7161545051511
 21
85.1153145213676
 72
     2
 10
42.7161545051511
 20
85.4903122309993
 40
0.3749977096316996
 50
270.0
 51
360.0
 73
     1
 72
     1
 10
43.0911522147827
 20
85.4903122309993
 11
43.0911522147827
 21
85.6528112385062
 72
     2
 10
42.7161545051511
 20
85.6528112385062
 40
0.3749977096316002
 50
0.0
 51
90.0
 73
     1
 72
     1
 10
42.7161545051511
 20
86.0278089481382
 11
40.1536701560016
 21
86.0278089481382
 72
     2
 10
40.1536701560016
 20
85.6528112385062
 40
0.3749977096319981
 50
90.0
 51
180.0
 73
     1
 72
     1
 10
39.7786724463699
 20
85.6528112385062
 11
39.7786724463699
 21
85.4903122309993
 97
        8
330
26C
330
96
330
26E
330
95
330
26F
330
97
330
26D
330
94
 75
     0
 76
     1
 98
        1
 10
0.0
 20
0.0
  0
HATCH
  5
33D
330
1F
100
AcDbEntity
  8
1
  6
Continuous
 62
     4
100
AcDbHatch
 10
0.0
 20
0.0
 30
0.0
210
0.0
220
0.0
230
1.0
  2
SOLID
 70
     1
 71
     1
 91
        1
 92
        1
 93
       29
 72
     2
 10
41.7268522967432
 20
76.4966171616671
 40
0.2249986257787953
 50
90.0
 51
147.2196945237705
 73
     1
 72
     1
 10
41.5376840816817
 20
76.6184357481508
 11
40.8827159425132
 21
75.6013565208767
 72
     2
 10
40.7250757632952
 20
75.7028720096133
 40
0.1874988548158996
 50
32.78030547626304
 51
90.0
 73
     0
 72
     1
 10
40.7250757632952
 20
75.5153731547974
 11
40.1536701560016
 21
75.5153731547974
 72
     2
 10
40.1536701560016
 20
75.890370864429
 40
0.3749977096316996
 50
90.0
 51
180.0
 73
     0
 72
     1
 10
39.7786724463699
 20
75.890370864429
 11
39.7786724463699
 21
76.052869871936
 72
     2
 10
40.1536701560016
 20
76.0528698719362
 40
0.3749977096314012
 50
179.9999999999696
 51
270.0
 73
     0
 72
     1
 10
40.1536701560016
 20
76.4278675815676
 11
40.7725029017557
 21
76.427867581568
 72
     1
 10
40.7725029017557
 20
76.427867581568
 11
40.7725029017557
 21
76.7216157874459
 72
     1
 10
40.7725029017557
 20
76.7216157874459
 11
39.8849217974321
 21
76.7216157874458
 72
     2
 10
39.8849217974321
 20
76.3216182305056
 40
0.3999975569401926
 50
90.0
 51
180.0
 73
     1
 72
     1
 10
39.4849242404918
 20
76.3216182305056
 11
39.4849242404918
 21
75.6216225058596
 72
     2
 10
39.8849217974321
 20
75.6216225058596
 40
0.3999975569402991
 50
180.0
 51
270.0
 73
     1
 72
     1
 10
39.8849217974321
 20
75.2216249489193
 11
40.8648791822319
 21
75.2216249489193
 72
     2
 10
40.8648791822319
 20
75.4466235746983
 40
0.2249986257789942
 50
270.0
 51
327.2647737279368
 73
     1
 72
     1
 10
41.0541431832265
 20
75.3249538597734
 11
41.7078043735659
 21
76.3417601558564
 72
     2
 10
41.8655243743948
 20
76.2403687267519
 40
0.1874988548160985
 50
212.7352262721629
 51
270.0
 73
     0
 72
     1
 10
41.8655243743948
 20
76.427867581568
 11
42.7161545051511
 21
76.4278675815676
 72
     2
 10
42.7161545051511
 20
76.0528698719362
 40
0.3749977096316002
 50
270.0
 51
360.0000000000304
 73
     0
 72
     1
 10
43.0911522147827
 20
76.052869871936
 11
43.0911522147827
 21
75.890370864429
 72
     2
 10
42.7161545051511
 20
75.890370864429
 40
0.3749977096316002
 50
0.0
 51
90.0
 73
     0
 72
     1
 10
42.7161545051511
 20
75.5153731547974
 11
42.0366162511067
 21
75.5153731547974
 72
     1
 10
42.0366162511067
 20
75.5153731547974
 11
42.0366162511067
 21
75.2216249489193
 72
     1
 10
42.0366162511067
 20
75.2216249489193
 11
42.9849028637204
 21
75.2216249489193
 72
     2
 10
42.9849028637204
 20
75.6216225058596
 40
0.3999975569403063
 50
270.0
 51
360.0
 73
     1
 72
     1
 10
43.384900420661
 20
75.6216225058596
 11
43.384900420661
 21
76.3216182305056
 72
     2
 10
42.9849028637204
 20
76.3216182305056
 40
0.3999975569405976
 50
0.0
 51
90.0
 73
     1
 72
     1
 10
42.9849028637204
 20
76.7216157874458
 11
41.728291023771
 21
76.7216157874459
 72
     1
 10
41.728291023771
 20
76.7216157874459
 11
41.7268522967432
 21
76.7216157874459
 97
       29
330
265
330
8A
330
266
330
8D
330
268
330
90
330
269
330
93
330
89
330
9C
330
274
330
9B
330
275
330
8C
330
264
330
8F
330
267
330
8E
330
26B
330
91
330
26A
330
92
330
88
330
87
330
276
330
9A
330
277
330
99
330
8B
 75
     0
 76
     1
 98
        1
 10
0.0
 20
0.0
  0
HATCH
  5
33E
330
1F
100
AcDbEntity
  8
1
  6
Continuous
 62
     4
100
AcDbHatch
 10
0.0
 20
0.0
 30
0.0
210
0.0
220
0.0
230
1.0
  2
SOLID
 70
     1
 71
     1
 91
        1
 92
        1
 93
       12
 72
     1
 10
44.4710758894252
 20
76.8656783290559
 11
43.9267007566166
 21
76.995291455915
 72
     1
 10
43.9267007566166
 20
76.995291455915
 11
43.6598972141452
 21
74.8740277228607
 72
     2
 10
43.7598966033803
 20
74.8740277228607
 40
0.0999993892351014
 50
180.0
 51
329.1904195176564
 73
     1
 72
     2
 10
33.8704022107886
 20
80.7715910514676
 40
11.61448385689718
 50
329.1904195177755
 51
360.0
 73
     1
 72
     2
 10
33.8704022107886
 20
80.7715910514676
 40
11.6144838568974
 50
0.0
 51
30.8095804822245
 73
     1
 72
     2
 10
43.7598966033803
 20
86.6691543800748
 40
0.0999993892351677
 50
30.80958048218524
 51
180.0
 73
     1
 72
     1
 10
43.6598972141452
 20
86.6691543800748
 11
43.9116876534141
 21
84.5443160986387
 72
     1
 10
43.9116876534141
 20
84.5443160986387
 11
44.4710758894252
 21
84.6775037738796
 72
     2
 10
44.5000282785064
 20
84.5559037397387
 40
0.1249992365438917
 50
256.6075022462347
 51
340.7693468284534
 73
     0
 72
     2
 10
33.6516535468368
 20
80.7715910514676
 40
11.6144838568973
 50
340.7693468285393
 51
360.0
 73
     0
 72
     2
 10
33.6516535468368
 20
80.7715910514676
 40
11.61448385689715
 50
0.0
 51
19.23065317145875
 73
     0
 72
     2
 10
44.5000282785064
 20
76.9872783631967
 40
0.1249992365438774
 50
19.23065317145432
 51
103.3924977537758
 73
     0
 97
       12
330
98
330
85
330
271
330
2F1
330
2F3
330
273
330
86
330
A1
330
272
330
2F2
330
2F0
330
270
 75
     0
 76
     1
 98
        1
 10
0.0
 20
0.0
  0
HATCH
  5
33F
330
1F
100
AcDbEntity
  8
1
  6
Continuous
 62
     4
100
AcDbHatch
 10
0.0
 20
0.0
 30
0.0
210
0.0
220
0.0
230
1.0
  2
SOLID
 70
     1
 71
     1
 91
        1
 92
        1
 93
        4
 72
     1
 10
49.9849242404918
 20
78.8228093871641
 11
48.4849242404918
 21
78.8228093871641
 72
     1
 10
48.4849242404918
 20
78.8228093871641
 11
48.4849242404918
 21
82.8228093871641
 72
     1
 10
48.4849242404918
 20
82.8228093871641
 11
49.9849242404918
 21
82.8228093871641
 72
     1
 10
49.9849242404918
 20
82.8228093871641
 11
49.9849242404918
 21
78.8228093871641
 97
        4
330
DD
330
DC
330
E0
330
DB
 75
     0
 76
     1
 98
        1
 10
0.0
 20
0.0
  0
HATCH
  5
340
330
1F
100
AcDbEntity
  8
1
  6
Continuous
 62
     4
100
AcDbHatch
 10
0.0
 20
0.0
 30
0.0
210
0.0
220
0.0
230
1.0
  2
SOLID
 70
     1
 71
     1
 91
        1
 92
        1
 93
        4
 72
     1
 10
52.2349242404918
 20
78.8228093871641
 11
50.7349242404918
 21
78.8228093871641
 72
     1
 10
50.7349242404918
 20
78.8228093871641
 11
50.7349242404918
 21
82.8228093871641
 72
     1
 10
50.7349242404918
 20
82.8228093871641
 11
52.2349242404918
 21
82.8228093871641
 72
     1
 10
52.2349242404918
 20
82.8228093871641
 11
52.2349242404918
 21
78.8228093871641
 97
        4
330
DE
330
DA
330
E1
330
D9
 75
     0
 76
     1
 98
        1
 10
0.0
 20
0.0
  0
HATCH
  5
341
330
1F
100
AcDbEntity
  8
1
  6
Continuous
 62
     4
100
AcDbHatch
 10
0.0
 20
0.0
 30
0.0
210
0.0
220
0.0
230
1.0
  2
SOLID
 70
     1
 71
     1
 91
        1
 92
        1
 93
        4
 72
     1
 10
54.4849242404918
 20
78.8228093871641
 11
52.9849242404918
 21
78.8228093871641
 72
     1
 10
52.9849242404918
 20
78.8228093871641
 11
52.9849242404918
 21
82.8228093871641
 72
     1
 10
52.9849242404918
 20
82.8228093871641
 11
54.4849242404918
 21
82.8228093871641
 72
     1
 10
54.4849242404918
 20
82.8228093871641
 11
54.4849242404918
 21
78.8228093871641
 97
        4
330
DF
330
D8
330
E2
330
D7
 75
     0
 76
     1
 98
        1
 10
0.0
 20
0.0
  0
HATCH
  5
342
330
1F
100
AcDbEntity
  8
1
  6
Continuous
 62
     4
100
AcDbHatch
 10
0.0
 20
0.0
 30
0.0
210
0.0
220
0.0
230
1.0
  2
SOLID
 70
     1
 71
     1
 91
        1
 92
        1
 93
       12
 72
     1
 10
56.3180502054591
 20
81.093590878406
 11
57.5094887669233
 21
81.093590878406
 72
     1
 10
57.5094887669233
 20
81.093590878406
 11
57.5094887669233
 21
81.9059353521315
 72
     1
 10
57.5094887669233
 20
81.9059353521315
 11
58.5926147318906
 21
81.9059353521315
 72
     1
 10
58.5926147318906
 20
81.9059353521315
 11
58.5926147318906
 21
79.7396834221967
 72
     1
 10
58.5926147318906
 20
79.7396834221967
 11
57.5094887669233
 21
79.7396834221967
 72
     1
 10
57.5094887669233
 20
79.7396834221967
 11
57.5094887669233
 21
80.5520278959223
 72
     1
 10
57.5094887669233
 20
80.5520278959223
 11
56.3180502054591
 21
80.5520278959223
 72
     1
 10
56.3180502054591
 20
80.5520278959223
 11
56.3180502054591
 21
79.7396834221967
 72
     1
 10
56.3180502054591
 20
79.7396834221967
 11
55.2349242404918
 21
79.7396834221967
 72
     1
 10
55.2349242404918
 20
79.7396834221967
 11
55.2349242404918
 21
81.9059353521315
 72
     1
 10
55.2349242404918
 20
81.9059353521315
 11
56.3180502054591
 21
81.9059353521315
 72
     1
 10
56.3180502054591
 20
81.9059353521315
 11
56.3180502054591
 21
81.093590878406
 97
       12
330
E9
330
E3
330
EC
330
E4
330
ED
330
E7
330
EE
330
E8
330
EB
330
E6
330
EA
330
E5
 75
     0
 76
     1
 98
        1
 10
0.0
 20
0.0
  0
HATCH
  5
343
330
1F
100
AcDbEntity
  8
1
  6
Continuous
 62
     4
100
AcDbHatch
 10
0.0
 20
0.0
 30
0.0
210
0.0
220
0.0
230
1.0
  2
SOLID
 70
     1
 71
     1
 91
        2
 92
        1
 93
        8
 72
     1
 10
61.6795237320476
 20
79.7396834221967
 11
61.4195735004556
 21
80.1729338081836
 72
     1
 10
61.4195735004556
 20
80.1729338081836
 11
60.1198223424948
 21
80.1729338081836
 72
     1
 10
60.1198223424948
 20
80.1729338081836
 11
59.8382095916031
 21
79.7396834221967
 72
     1
 10
59.8382095916031
 20
79.7396834221967
 11
58.9717088196293
 21
79.7396834221967
 72
     1
 10
58.9717088196293
 20
79.7396834221967
 11
60.3797725740868
 21
81.9059353521315
 72
     1
 10
60.3797725740868
 20
81.9059353521315
 11
61.6795237320476
 21
81.9059353521315
 72
     1
 10
61.6795237320476
 20
81.9059353521315
 11
62.9792748900086
 21
79.7396834221967
 72
     1
 10
62.9792748900086
 20
79.7396834221967
 11
61.6795237320476
 21
79.7396834221967
 97
        8
330
F1
330
F0
330
EF
330
F2
330
F3
330
F4
330
F5
330
F6
 92
       16
 93
        3
 72
     1
 10
60.7956929446344
 20
81.2127347345523
 11
61.1271294899144
 21
80.660340492419
 72
     1
 10
61.1271294899144
 20
80.660340492419
 11
60.4366366872476
 21
80.660340492419
 72
     1
 10
60.4366366872476
 20
80.660340492419
 11
60.7956929446344
 21
81.2127347345523
 97
        3
330
F7
330
F8
330
F9
 75
     0
 76
     1
 98
        1
 10
0.0
 20
0.0
  0
HATCH
  5
344
330
1F
100
AcDbEntity
  8
1
  6
Continuous
 62
     4
100
AcDbHatch
 10
0.0
 20
0.0
 30
0.0
210
0.0
220
0.0
230
1.0
  2
SOLID
 70
     1
 71
     1
 91
        1
 92
        1
 93
       13
 72
     1
 10
65.3892301620612
 20
80.6061841941706
 11
64.9830579251983
 21
81.9059353521315
 72
     1
 10
64.9830579251983
 20
81.9059353521315
 11
63.3042126794989
 21
81.9059353521315
 72
     1
 10
63.3042126794989
 20
81.9059353521315
 11
63.3042126794989
 21
79.7396834221967
 72
     1
 10
63.3042126794989
 20
79.7396834221967
 11
64.062400854976
 21
79.7396834221967
 72
     1
 10
64.062400854976
 20
79.7396834221967
 11
64.062400854976
 21
81.3102160713994
 72
     1
 10
64.062400854976
 20
81.3102160713994
 11
64.6581201357081
 21
79.7396834221967
 72
     1
 10
64.6581201357081
 20
79.7396834221967
 11
65.8495586971723
 21
79.7396834221967
 72
     1
 10
65.8495586971723
 20
79.7396834221967
 11
66.3911216796558
 21
81.3102160713994
 72
     1
 10
66.3911216796558
 20
81.3102160713994
 11
66.3911216796558
 21
79.7396834221967
 72
     1
 10
66.3911216796558
 20
79.7396834221967
 11
67.4742476446232
 21
79.7396834221967
 72
     1
 10
67.4742476446232
 20
79.7396834221967
 11
67.4742476446232
 21
81.9059353521315
 72
     1
 10
67.4742476446232
 20
81.9059353521315
 11
65.7954023989238
 21
81.9059353521315
 72
     1
 10
65.7954023989238
 20
81.9059353521315
 11
65.3892301620612
 21
80.6061841941706
 97
       13
330
106
330
103
330
FA
330
FC
330
FF
330
100
330
FD
330
101
330
102
330
FE
330
FB
330
104
330
105
 75
     0
 76
     1
 98
        1
 10
0.0
 20
0.0
  0
HATCH
  5
345
330
1F
100
AcDbEntity
  8
1
  6
Continuous
 62
     4
100
AcDbHatch
 10
0.0
 20
0.0
 30
0.0
210
0.0
220
0.0
230
1.0
  2
SOLID
 70
     1
 71
     1
 91
        1
 92
        1
 93
        4
 72
     1
 10
73.2953833763928
 20
79.7396834221967
 11
72.2122574114254
 21
79.7396834221967
 72
     1
 10
72.2122574114254
 20
79.7396834221967
 11
72.2122574114254
 21
81.5268412643928
 72
     1
 10
72.2122574114254
 20
81.5268412643928
 11
73.2953833763928
 21
81.5268412643928
 72
     1
 10
73.2953833763928
 20
81.5268412643928
 11
73.2953833763928
 21
79.7396834221967
 97
        4
330
114
330
112
330
115
330
113
 75
     0
 76
     1
 98
        1
 10
0.0
 20
0.0
  0
HATCH
  5
346
330
1F
100
AcDbEntity
  8
1
  6
Continuous
 62
     4
100
AcDbHatch
 10
0.0
 20
0.0
 30
0.0
210
0.0
220
0.0
230
1.0
  2
SOLID
 70
     1
 71
     1
 91
        1
 92
        1
 93
        2
 72
     2
 10
72.7538203939091
 20
82.5828890802361
 40
0.7311100263530079
 50
0.0
 51
359.7644230815726
 73
     1
 72
     2
 10
72.7538203939091
 20
82.5828890802361
 40
0.7311100263530081
 50
359.7644230815726
 51
360.0
 73
     1
 97
        2
330
2F6
330
2F5
 75
     0
 76
     1
 98
        1
 10
0.0
 20
0.0
  0
HATCH
  5
347
330
1F
100
AcDbEntity
  8
1
  6
Continuous
 62
     4
100
AcDbHatch
 10
0.0
 20
0.0
 30
0.0
210
0.0
220
0.0
230
1.0
  2
SOLID
 70
     1
 71
     1
 91
        2
 92
        1
 93
        8
 72
     1
 10
70.5611566447805
 20
79.7396834221967
 11
70.3012064131882
 21
80.1729338081836
 72
     1
 10
70.3012064131882
 20
80.1729338081836
 11
69.0014552552274
 21
80.1729338081836
 72
     1
 10
69.0014552552274
 20
80.1729338081836
 11
68.7198425043358
 21
79.7396834221967
 72
     1
 10
68.7198425043358
 20
79.7396834221967
 11
67.8533417323619
 21
79.7396834221967
 72
     1
 10
67.8533417323619
 20
79.7396834221967
 11
69.2614054868195
 21
81.9059353521315
 72
     1
 10
69.2614054868195
 20
81.9059353521315
 11
70.5611566447805
 21
81.9059353521315
 72
     1
 10
70.5611566447805
 20
81.9059353521315
 11
71.8609078027413
 21
79.7396834221967
 72
     1
 10
71.8609078027413
 20
79.7396834221967
 11
70.5611566447805
 21
79.7396834221967
 97
        8
330
10F
330
110
330
111
330
10E
330
10D
330
10C
330
10B
330
10A
 92
       16
 93
        3
 72
     1
 10
69.3182695999802
 20
80.660340492419
 11
69.677325857367
 21
81.2127347345523
 72
     1
 10
69.677325857367
 20
81.2127347345523
 11
70.008762402647
 21
80.660340492419
 72
     1
 10
70.008762402647
 20
80.660340492419
 11
69.3182695999802
 21
80.660340492419
 97
        3
330
107
330
109
330
108
 75
     0
 76
     1
 98
        1
 10
0.0
 20
0.0
  0
HATCH
  5
348
330
1F
100
AcDbEntity
  8
1
  6
Continuous
 62
     4
100
AcDbHatch
 10
0.0
 20
0.0
 30
0.0
210
0.0
220
0.0
230
1.0
  2
SOLID
 70
     1
 71
     1
 91
        1
 92
        1
 93
       27
 72
     2
 10
76.7156917101781
 20
84.9024959756682
 40
0.3653837348431921
 50
0.0
 51
90.0
 73
     1
 72
     1
 10
76.7156917101781
 20
85.2678797105114
 11
76.3503079753349
 21
85.2678797105114
 72
     2
 10
76.3503079753349
 20
84.9024959756682
 40
0.3653837348431921
 50
90.0
 51
180.0
 73
     1
 72
     1
 10
75.9849242404918
 20
84.9024959756682
 11
75.9849242404918
 21
84.3909587468877
 72
     1
 10
75.9849242404918
 20
84.3909587468877
 11
76.3503079753349
 21
84.3909587468877
 72
     1
 10
76.3503079753349
 20
84.3909587468877
 11
76.3503079753349
 21
84.7198041082466
 72
     2
 10
76.5329998427566
 20
84.7198041082466
 40
0.182691867421596
 50
180.0
 51
270.0
 73
     0
 72
     2
 10
76.5329998427566
 20
84.7198041082466
 40
0.1826918674215108
 50
270.0
 51
360.0
 73
     0
 72
     1
 10
76.7156917101781
 20
84.7198041082466
 11
76.7156917101781
 21
84.2813436264348
 72
     2
 10
76.5329998427566
 20
84.2813436264348
 40
0.1826918674215108
 50
0.0
 51
90.0
 73
     0
 72
     1
 10
76.5329998427566
 20
84.0986517590133
 11
76.3503079753349
 21
84.0986517590133
 72
     1
 10
76.3503079753349
 20
84.0986517590133
 11
76.3503079753349
 21
83.73326802417
 72
     1
 10
76.3503079753349
 20
83.73326802417
 11
76.5329998427566
 21
83.73326802417
 72
     2
 10
76.5329998427566
 20
83.5505761567484
 40
0.1826918674215108
 50
270.0
 51
360.0
 73
     0
 72
     1
 10
76.7156917101781
 20
83.5505761567484
 11
76.7156917101781
 21
82.8928854340307
 72
     2
 10
76.5329998427566
 20
82.8928854340307
 40
0.182691867421596
 50
0.0
 51
90.0
 73
     0
 72
     2
 10
76.5329998427566
 20
82.8928854340307
 40
0.1826918674216955
 50
90.0
 51
180.0
 73
     0
 72
     1
 10
76.3503079753349
 20
82.8928854340307
 11
76.3503079753349
 21
83.4409610362954
 72
     1
 10
76.3503079753349
 20
83.4409610362954
 11
75.9849242404918
 21
83.4409610362954
 72
     1
 10
75.9849242404918
 20
83.4409610362954
 11
75.9849242404918
 21
82.7101935666091
 72
     2
 10
76.3503079753349
 20
82.7101935666091
 40
0.3653837348431068
 50
180.0
 51
270.0
 73
     1
 72
     1
 10
76.3503079753349
 20
82.3448098317659
 11
76.7156917101781
 21
82.3448098317659
 72
     2
 10
76.7156917101781
 20
82.7101935666091
 40
0.3653837348432063
 50
270.0
 51
360.0
 73
     1
 72
     1
 10
77.0810754450213
 20
82.7101935666091
 11
77.0810754450213
 21
83.7698063976543
 72
     2
 10
76.9349219510841
 20
83.7698063976543
 40
0.1461534939371916
 50
0.0
 51
90.0
 73
     1
 72
     2
 10
76.9349219510841
 20
84.0621133855288
 40
0.1461534939373053
 50
270.0
 51
360.0
 73
     1
 72
     1
 10
77.0810754450213
 20
84.0621133855288
 11
77.0810754450213
 21
84.9024959756682
 97
       27
330
295
330
C8
330
296
330
CD
330
CC
330
CE
330
292
330
291
330
CF
330
297
330
D4
330
D3
330
D5
330
298
330
D2
330
290
330
28F
330
D1
330
D0
330
CB
330
293
330
CA
330
294
330
D6
330
29A
330
299
330
C9
 75
     0
 76
     1
 98
        1
 10
0.0
 20
0.0
  0
HATCH
  5
349
330
1F
100
AcDbEntity
  8
1
  6
Continuous
 62
     4
100
AcDbHatch
 10
0.0
 20
0.0
 30
0.0
210
0.0
220
0.0
230
1.0
  2
SOLID
 70
     1
 71
     1
 91
        2
 92
        1
 93
       14
 72
     1
 10
79.5853955073974
 20
84.414438038575
 11
78.9118687433382
 21
82.4293065234533
 72
     2
 10
78.9810708662059
 20
82.4058272317661
 40
0.073076746968707
 50
161.2586595548397
 51
180.0
 73
     1
 72
     1
 10
78.9079941192372
 20
82.4058272317661
 11
78.9079941192372
 21
82.0525028438914
 72
     1
 10
78.9079941192372
 20
82.0525028438914
 11
79.7483767093765
 21
82.0525028438914
 72
     1
 10
79.7483767093765
 20
82.0525028438914
 11
79.7483767093765
 21
81.4678888681423
 72
     1
 10
79.7483767093765
 20
81.4678888681423
 11
80.1137604442197
 21
81.4678888681423
 72
     1
 10
80.1137604442197
 20
81.4678888681423
 11
80.1137604442197
 21
82.0525028438914
 72
     1
 10
80.1137604442197
 20
82.0525028438914
 11
80.2964523116414
 21
82.0525028438914
 72
     1
 10
80.2964523116414
 20
82.0525028438914
 11
80.2964523116414
 21
82.4178865787345
 72
     1
 10
80.2964523116414
 20
82.4178865787345
 11
80.1137604442197
 21
82.4178865787345
 72
     1
 10
80.1137604442197
 20
82.4178865787345
 11
80.1137604442197
 21
84.3909587468877
 72
     2
 10
80.0406836972511
 20
84.3909587468877
 40
0.0730767469685958
 50
0.0
 51
90.0
 73
     1
 72
     1
 10
80.0406836972511
 20
84.4640354938564
 11
79.654597630265
 21
84.4640354938564
 72
     2
 10
79.654597630265
 20
84.3909587468877
 40
0.0730767469686953
 50
90.0
 51
161.2586595547549
 73
     1
 97
       14
330
BA
330
28C
330
B9
330
C0
330
BF
330
C1
330
C2
330
C3
330
BD
330
BE
330
BC
330
28E
330
BB
330
28D
 92
       16
 93
        3
 72
     1
 10
79.7483767093765
 20
83.7575864700284
 11
79.2938356748304
 21
82.4178865787345
 72
     1
 10
79.2938356748304
 20
82.4178865787345
 11
79.7483767093765
 21
82.4178865787345
 72
     1
 10
79.7483767093765
 20
82.4178865787345
 11
79.7483767093765
 21
83.7575864700284
 97
        3
330
B6
330
B7
330
B8
 75
     0
 76
     1
 98
        1
 10
0.0
 20
0.0
  0
HATCH
  5
34A
330
1F
100
AcDbEntity
  8
1
  6
Continuous
 62
     4
100
AcDbHatch
 10
0.0
 20
0.0
 30
0.0
210
0.0
220
0.0
230
1.0
  2
SOLID
 70
     1
 71
     1
 91
        1
 92
        1
 93
       12
 72
     2
 10
78.6235655352717
 20
77.0022211518698
 40
0.2264705882354008
 50
180.0
 51
270.0
 73
     1
 72
     1
 10
78.6235655352717
 20
76.7757505636345
 11
78.7745459274286
 21
76.7757505636345
 72
     2
 10
78.7745459274286
 20
77.0022211518698
 40
0.2264705882353013
 50
270.0
 51
360.0
 73
     1
 72
     1
 10
79.0010165156637
 20
77.0022211518698
 11
79.0010165156637
 21
80.1515828566204
 72
     1
 10
79.0010165156637
 20
80.1515828566204
 11
79.4539576921345
 21
80.1515828566204
 72
     1
 10
79.4539576921345
 20
80.1515828566204
 11
79.4539576921345
 21
76.7757505636345
 72
     2
 10
79.0010165156637
 20
76.7757505636345
 40
0.4529411764704037
 50
0.0
 51
90.0
 73
     0
 72
     1
 10
79.0010165156637
 20
76.3228093871641
 11
78.3970949470363
 21
76.3228093871641
 72
     2
 10
78.3970949470363
 20
76.7757505636345
 40
0.4529411764706879
 50
90.0
 51
180.0
 73
     0
 72
     1
 10
77.9441537705656
 20
76.7757505636345
 11
77.9441537705656
 21
80.1728093871641
 72
     1
 10
77.9441537705656
 20
80.1728093871641
 11
78.3970949470362
 21
80.1728093871641
 72
     1
 10
78.3970949470362
 20
80.1728093871641
 11
78.3970949470363
 21
77.0022211518698
 97
       12
330
11A
330
11D
330
29E
330
118
330
29B
330
116
330
117
330
119
330
29C
330
11C
330
29D
330
11B
 75
     0
 76
     1
 98
        1
 10
0.0
 20
0.0
  0
HATCH
  5
34B
330
1F
100
AcDbEntity
  8
1
  6
Continuous
 62
     4
100
AcDbHatch
 10
0.0
 20
0.0
 30
0.0
210
0.0
220
0.0
230
1.0
  2
SOLID
 70
     1
 71
     1
 91
        1
 92
        1
 93
       28
 72
     1
 10
77.4947281620606
 20
79.7198682106936
 11
77.4947281620606
 21
78.964966249909
 72
     1
 10
77.4947281620606
 20
78.964966249909
 11
77.0417869855899
 21
78.964966249909
 72
     1
 10
77.0417869855899
 20
78.964966249909
 11
77.0417869855899
 21
79.4933976224582
 72
     2
 10
76.8153163973548
 20
79.4933976224582
 40
0.2264705882350881
 50
0.0
 51
90.0
 73
     1
 72
     1
 10
76.8153163973548
 20
79.7198682106936
 11
76.6643360051979
 21
79.7198682106936
 72
     2
 10
76.6643360051979
 20
79.4933976224582
 40
0.2264705882354008
 50
90.0
 51
180.0
 73
     1
 72
     1
 10
76.4378654169624
 20
79.4933976224582
 11
76.4378654169624
 21
78.9861927804527
 72
     2
 10
76.6376101318536
 20
78.9861927804527
 40
0.1997447148912102
 50
180.0
 51
235.261283787608
 73
     1
 72
     1
 10
76.5237886148245
 20
78.8220507279856
 11
77.2154777690088
 21
78.3424106378415
 72
     2
 10
76.8455578386644
 20
77.8089489673231
 40
0.6491703233961914
 50
304.7387162123608
 51
360.0
 73
     0
 72
     1
 10
77.4947281620606
 20
77.8089489673231
 11
77.4947281620606
 21
76.7757505636345
 72
     2
 10
77.0417869855899
 20
76.7757505636345
 40
0.4529411764704037
 50
0.0
 51
90.0
 73
     0
 72
     1
 10
77.0417869855899
 20
76.3228093871641
 11
76.4378654169624
 21
76.3228093871641
 72
     2
 10
76.4378654169624
 20
76.7757505636345
 40
0.4529411764706026
 50
90.0
 51
180.0
 73
     0
 72
     1
 10
75.9849242404918
 20
76.7757505636345
 11
75.9849242404918
 21
77.8326133087327
 72
     1
 10
75.9849242404918
 20
77.8326133087327
 11
76.4378654169624
 21
77.8326133087327
 72
     1
 10
76.4378654169624
 20
77.8326133087327
 11
76.4378654169624
 21
77.0022211518698
 72
     2
 10
76.6643360051979
 20
77.0022211518698
 40
0.2264705882355003
 50
180.0
 51
270.0
 73
     1
 72
     1
 10
76.6643360051979
 20
76.7757505636345
 11
76.8153163973548
 21
76.7757505636345
 72
     2
 10
76.8153163973548
 20
77.0022211518698
 40
0.2264705882353013
 50
270.0
 51
360.0
 73
     1
 72
     1
 10
77.0417869855899
 20
77.0022211518698
 11
77.0417869855899
 21
77.811386778189
 72
     2
 10
76.8420422706988
 20
77.811386778189
 40
0.1997447148910965
 50
0.0
 51
55.26128378760795
 73
     1
 72
     1
 10
76.9558637877279
 20
77.9755288306561
 11
76.2641746335436
 21
78.4551689208002
 72
     2
 10
76.634094563888
 20
78.9886305913186
 40
0.6491703233962056
 50
124.7387162123608
 51
180.0
 73
     0
 72
     1
 10
75.9849242404918
 20
78.9886305913186
 11
75.9849242404918
 21
79.7198682106936
 72
     2
 10
76.4378654169624
 20
79.7198682106936
 40
0.4529411764704889
 50
180.0
 51
270.0
 73
     0
 72
     1
 10
76.4378654169624
 20
80.1728093871641
 11
77.0417869855899
 21
80.1728093871641
 72
     2
 10
77.0417869855899
 20
79.7198682106936
 40
0.4529411764707021
 50
270.0
 51
360.0
 73
     0
 97
       28
330
12D
330
2A9
330
12C
330
29F
330
11E
330
2A1
330
121
330
2A5
330
127
330
2A6
330
126
330
125
330
12A
330
2A7
330
12B
330
2A8
330
120
330
2A0
330
11F
330
2A2
330
128
330
2A4
330
129
330
2A3
330
122
330
124
330
123
330
2AA
 75
     0
 76
     1
 98
        1
 10
0.0
 20
0.0
  0
HATCH
  5
34C
330
1F
100
AcDbEntity
  8
1
  6
Continuous
 62
     4
100
AcDbHatch
 10
0.0
 20
0.0
 30
0.0
210
0.0
220
0.0
230
1.0
  2
SOLID
 70
     1
 71
     1
 91
        1
 92
        1
 93
       28
 72
     2
 10
80.3563244771101
 20
79.7198682106936
 40
0.4529411764704889
 50
90.0
 51
180.0
 73
     1
 72
     1
 10
79.9033833006395
 20
79.7198682106936
 11
79.9033833006395
 21
78.9886305913186
 72
     2
 10
80.5525536240356
 20
78.9886305913186
 40
0.6491703233960919
 50
180.0
 51
235.2612837876392
 73
     1
 72
     1
 10
80.1826336936912
 20
78.4551689208002
 11
80.8743228478754
 21
77.9755288306561
 72
     2
 10
80.7605013308463
 20
77.811386778189
 40
0.1997447148913096
 50
304.738716212392
 51
360.0
 73
     0
 72
     1
 10
80.9602460457376
 20
77.811386778189
 11
80.9602460457376
 21
77.0022211518698
 72
     2
 10
80.7337754575025
 20
77.0022211518698
 40
0.2264705882353013
 50
0.0
 51
90.0
 73
     0
 72
     1
 10
80.7337754575025
 20
76.7757505636345
 11
80.5827950653454
 21
76.7757505636345
 72
     2
 10
80.5827950653454
 20
77.0022211518698
 40
0.2264705882352871
 50
90.0
 51
180.0
 73
     0
 72
     1
 10
80.3563244771101
 20
77.0022211518698
 11
80.3563244771101
 21
77.8326133087327
 72
     1
 10
80.3563244771101
 20
77.8326133087327
 11
79.9033833006395
 21
77.8326133087327
 72
     1
 10
79.9033833006395
 20
77.8326133087327
 11
79.9033833006395
 21
76.7757505636345
 72
     2
 10
80.3563244771101
 20
76.7757505636345
 40
0.4529411764706026
 50
180.0
 51
270.0
 73
     1
 72
     1
 10
80.3563244771101
 20
76.3228093871641
 11
80.9602460457376
 21
76.3228093871641
 72
     2
 10
80.9602460457376
 20
76.7757505636345
 40
0.4529411764704037
 50
270.0
 51
360.0
 73
     1
 72
     1
 10
81.4131872222081
 20
76.7757505636345
 11
81.4131872222081
 21
77.8089489673231
 72
     2
 10
80.7640168988119
 20
77.8089489673231
 40
0.6491703233961914
 50
0.0
 51
55.26128378763201
 73
     1
 72
     1
 10
81.1339368291564
 20
78.3424106378415
 11
80.4422476749722
 21
78.8220507279856
 72
     2
 10
80.5560691920012
 20
78.9861927804527
 40
0.1997447148910965
 50
124.7387162123686
 51
180.0
 73
     0
 72
     1
 10
80.3563244771101
 20
78.9861927804527
 11
80.3563244771101
 21
79.4933976224582
 72
     2
 10
80.5827950653454
 20
79.4933976224582
 40
0.2264705882354008
 50
180.0
 51
270.0
 73
     0
 72
     1
 10
80.5827950653454
 20
79.7198682106936
 11
80.7337754575025
 21
79.7198682106936
 72
     2
 10
80.7337754575025
 20
79.4933976224582
 40
0.2264705882351024
 50
270.0
 51
360.0
 73
     0
 72
     1
 10
80.9602460457376
 20
79.4933976224582
 11
80.9602460457376
 21
78.964966249909
 72
     1
 10
80.9602460457376
 20
78.964966249909
 11
81.4131872222081
 21
78.964966249909
 72
     1
 10
81.4131872222081
 20
78.964966249909
 11
81.4131872222081
 21
79.7198682106936
 72
     2
 10
80.9602460457376
 20
79.7198682106936
 40
0.4529411764704889
 50
0.0
 51
90.0
 73
     1
 72
     1
 10
80.9602460457376
 20
80.1728093871641
 11
80.3563244771101
 21
80.1728093871641
 97
       28
330
2B5
330
13C
330
2AB
330
12E
330
2AD
330
131
330
2B1
330
137
330
2B2
330
136
330
135
330
13A
330
2B3
330
13B
330
2B4
330
130
330
2AC
330
12F
330
2AE
330
138
330
2B0
330
139
330
2AF
330
132
330
134
330
133
330
2B6
330
13D
 75
     0
 76
     1
 98
        1
 10
0.0
 20
0.0
  0
HATCH
  5
34D
330
1F
100
AcDbEntity
  8
1
  6
Continuous
 62
     4
100
AcDbHatch
 10
0.0
 20
0.0
 30
0.0
210
0.0
220
0.0
230
1.0
  2
SOLID
 70
     1
 71
     1
 91
        1
 92
        1
 93
        4
 72
     1
 10
81.6230879707596
 20
83.2063824355441
 11
80.7160478486367
 21
83.2063824355441
 72
     1
 10
80.7160478486367
 20
83.2063824355441
 11
80.7160478486367
 21
83.5843158197622
 72
     1
 10
80.7160478486367
 20
83.5843158197622
 11
81.6230879707596
 21
83.5843158197622
 72
     1
 10
81.6230879707596
 20
83.5843158197622
 11
81.6230879707596
 21
83.2063824355441
 97
        4
330
B2
330
B5
330
B4
330
B3
 75
     0
 76
     1
 98
        1
 10
0.0
 20
0.0
  0
HATCH
  5
34E
330
1F
100
AcDbEntity
  8
1
  6
Continuous
 62
     4
100
AcDbHatch
 10
0.0
 20
0.0
 30
0.0
210
0.0
220
0.0
230
1.0
  2
SOLID
 70
     1
 71
     1
 91
        2
 92
        1
 93
       18
 72
     2
 10
82.7981643531301
 20
82.6568594563774
 40
1.045250647862081
 50
59.34933204294902
 51
106.7914176871208
 73
     1
 72
     1
 10
82.4962035688163
 20
83.6575435232002
 11
82.4962035688163
 21
84.6384771034366
 72
     2
 10
82.7226741570517
 20
84.6384771034366
 40
0.2264705882352018
 50
180.0
 51
270.0
 73
     0
 72
     1
 10
82.7226741570517
 20
84.8649476916718
 11
82.8736545492087
 21
84.8649476916718
 72
     2
 10
82.8736545492087
 20
84.6384771034366
 40
0.2264705882352018
 50
270.0
 51
360.0
 73
     0
 72
     1
 10
83.1001251374439
 20
84.6384771034366
 11
83.1001251374439
 21
84.391612442598
 72
     1
 10
83.1001251374439
 20
84.391612442598
 11
83.5530663139143
 21
84.391612442598
 72
     1
 10
83.5530663139143
 20
84.391612442598
 11
83.5530663139143
 21
84.8649476916718
 72
     2
 10
83.1001251374439
 20
84.8649476916718
 40
0.4529411764704037
 50
0.0
 51
90.0
 73
     1
 72
     1
 10
83.1001251374439
 20
85.3178888681423
 11
82.4962035688163
 21
85.3178888681423
 72
     2
 10
82.4962035688163
 20
84.8649476916718
 40
0.4529411764705031
 50
90.0
 51
180.0
 73
     1
 72
     1
 10
82.0432623923458
 20
84.8649476916718
 11
82.0432623923458
 21
81.9208300446127
 72
     2
 10
82.4962035688163
 20
81.9208300446127
 40
0.4529411764705031
 50
180.0
 51
270.0
 73
     1
 72
     1
 10
82.4962035688163
 20
81.4678888681423
 11
83.1001251374439
 21
81.4678888681423
 72
     2
 10
83.1001251374439
 20
81.9208300446127
 40
0.4529411764704037
 50
270.0
 51
360.0
 73
     1
 72
     1
 10
83.5530663139143
 20
81.9208300446127
 11
83.5530663139143
 21
82.4303888681422
 72
     1
 10
83.5530663139143
 20
82.4303888681422
 11
83.5530663139143
 21
83.1664182799069
 72
     2
 10
83.1001251374439
 20
83.1664182799069
 40
0.4529411764704037
 50
0.0
 51
59.34933204295286
 73
     1
 97
       18
330
2FB
330
164
330
2CF
330
16E
330
2D0
330
16D
330
16A
330
171
330
2D5
330
172
330
2D6
330
16F
330
2D3
330
170
330
2D4
330
169
330
167
330
2CC
 92
       16
 93
        9
 72
     2
 10
82.7226741570516
 20
82.9399476916717
 40
0.2264705882352018
 50
90.0
 51
180.0
 73
     1
 72
     1
 10
82.4962035688163
 20
82.9399476916717
 11
82.4962035688163
 21
82.147300632848
 72
     2
 10
82.7226741570517
 20
82.147300632848
 40
0.2264705882354008
 50
180.0
 51
270.0
 73
     1
 72
     1
 10
82.7226741570517
 20
81.9208300446127
 11
82.8736545492087
 21
81.9208300446127
 72
     2
 10
82.8736545492087
 20
82.147300632848
 40
0.2264705882353013
 50
270.0
 51
360.0
 73
     1
 72
     1
 10
83.1001251374439
 20
82.147300632848
 11
83.1001251374439
 21
82.4303888681422
 72
     1
 10
83.1001251374439
 20
82.4303888681422
 11
83.1001251374439
 21
82.9399476916717
 72
     2
 10
82.8736545492087
 20
82.9399476916717
 40
0.2264705882352018
 50
0.0
 51
90.0
 73
     1
 72
     1
 10
82.8736545492087
 20
83.1664182799069
 11
82.7226741570516
 21
83.1664182799069
 97
        9
330
2CD
330
16B
330
2D2
330
16C
330
2D1
330
168
330
166
330
2CE
330
165
 75
     0
 76
     1
 98
        1
 10
0.0
 20
0.0
  0
HATCH
  5
34F
330
1F
100
AcDbEntity
  8
1
  6
Continuous
 62
     4
100
AcDbHatch
 10
0.0
 20
0.0
 30
0.0
210
0.0
220
0.0
230
1.0
  2
SOLID
 70
     1
 71
     1
 91
        1
 92
        1
 93
       29
 72
     2
 10
83.1064928679425
 20
79.7198682106936
 40
0.4529411764707874
 50
0.0
 51
90.0
 73
     1
 72
     1
 10
83.1064928679425
 20
80.1728093871641
 11
82.5025712993152
 21
80.1728093871641
 72
     2
 10
82.5025712993152
 20
79.7198682106936
 40
0.4529411764704889
 50
90.0
 51
180.0
 73
     1
 72
     1
 10
82.0496301228445
 20
79.7198682106936
 11
82.0496301228445
 21
78.964966249909
 72
     1
 10
82.0496301228445
 20
78.964966249909
 11
82.5025712993152
 21
78.964966249909
 72
     1
 10
82.5025712993152
 20
78.964966249909
 11
82.5025712993152
 21
79.4933976224582
 72
     2
 10
82.7290418875506
 20
79.4933976224582
 40
0.2264705882354008
 50
180.0
 51
270.0
 73
     0
 72
     1
 10
82.7290418875506
 20
79.7198682106936
 11
82.8800222797074
 21
79.7198682106936
 72
     2
 10
82.8800222797074
 20
79.4933976224582
 40
0.2264705882351024
 50
270.0
 51
360.0
 73
     0
 72
     1
 10
83.1064928679425
 20
79.4933976224582
 11
83.1064928679425
 21
78.8894760538307
 72
     2
 10
82.8800222797074
 20
78.8894760538307
 40
0.2264705882352018
 50
0.0
 51
90.0
 73
     0
 72
     1
 10
82.8800222797074
 20
78.6630054655955
 11
82.5780614953936
 21
78.6630054655955
 72
     1
 10
82.5780614953936
 20
78.6630054655955
 11
82.5780614953936
 21
78.2100642891247
 72
     1
 10
82.5780614953936
 20
78.2100642891247
 11
82.8800222797074
 21
78.2100642891247
 72
     2
 10
82.8800222797074
 20
77.9835937008894
 40
0.2264705882351024
 50
270.0
 51
360.0
 73
     0
 72
     1
 10
83.1064928679425
 20
77.9835937008894
 11
83.1064928679425
 21
77.0022211518698
 72
     2
 10
82.8800222797074
 20
77.0022211518698
 40
0.2264705882353013
 50
0.0
 51
90.0
 73
     0
 72
     1
 10
82.8800222797074
 20
76.7757505636345
 11
82.7290418875506
 21
76.7757505636345
 72
     2
 10
82.7290418875506
 20
77.0022211518698
 40
0.2264705882353866
 50
90.0
 51
180.0
 73
     0
 72
     1
 10
82.5025712993152
 20
77.0022211518698
 11
82.5025712993152
 21
77.8326133087327
 72
     1
 10
82.5025712993152
 20
77.8326133087327
 11
82.0496301228445
 21
77.8326133087327
 72
     1
 10
82.0496301228445
 20
77.8326133087327
 11
82.0496301228445
 21
76.7757505636345
 72
     2
 10
82.5025712993152
 20
76.7757505636345
 40
0.4529411764707021
 50
180.0
 51
270.0
 73
     1
 72
     1
 10
82.5025712993152
 20
76.3228093871641
 11
83.1064928679425
 21
76.3228093871641
 72
     2
 10
83.1064928679425
 20
76.7757505636345
 40
0.4529411764704037
 50
270.0
 51
360.0
 73
     1
 72
     1
 10
83.5594340444133
 20
76.7757505636345
 11
83.5594340444133
 21
77.9835937008894
 72
     2
 10
82.8800222797074
 20
77.9835937008894
 40
0.6794117647058897
 50
0.0
 51
41.81031489579081
 73
     1
 72
     2
 10
82.8800222797074
 20
78.8894760538307
 40
0.679411764705825
 50
318.1896851042154
 51
360.0
 73
     1
 72
     1
 10
83.5594340444133
 20
78.8894760538307
 11
83.5594340444133
 21
79.7198682106936
 97
       29
330
2CA
330
163
330
2CB
330
159
330
15A
330
158
330
2C2
330
15F
330
2C3
330
15E
330
2C4
330
157
330
156
330
155
330
2C5
330
154
330
2C6
330
15D
330
2C7
330
15C
330
15B
330
160
330
2C8
330
161
330
2C9
330
153
330
2F9
330
2FA
330
162
 75
     0
 76
     1
 98
        1
 10
0.0
 20
0.0
  0
HATCH
  5
350
330
1F
100
AcDbEntity
  8
1
  6
Continuous
 62
     4
100
AcDbHatch
 10
0.0
 20
0.0
 30
0.0
210
0.0
220
0.0
230
1.0
  2
SOLID
 70
     1
 71
     1
 91
        1
 92
        1
 93
        7
 72
     1
 10
85.2196059703024
 20
80.1728093871641
 11
84.7666647938318
 21
80.1728093871641
 72
     2
 10
83.8270980277655
 20
80.5114287461494
 40
0.9987235744567967
 50
19.81913546675857
 51
60.84017065079802
 73
     0
 72
     1
 10
84.3137236173613
 20
79.6392794964643
 11
84.3137236173613
 21
79.1057496057645
 72
     1
 10
84.3137236173613
 20
79.1057496057645
 11
84.7666647938318
 21
79.1057496057645
 72
     1
 10
84.7666647938318
 20
79.1057496057645
 11
84.7666647938318
 21
76.3228093871641
 72
     1
 10
84.7666647938318
 20
76.3228093871641
 11
85.2196059703024
 21
76.3228093871641
 72
     1
 10
85.2196059703024
 20
76.3228093871641
 11
85.2196059703024
 21
80.1728093871641
 97
        7
330
141
330
2F7
330
13F
330
140
330
143
330
13E
330
142
 75
     0
 76
     1
 98
        1
 10
0.0
 20
0.0
  0
HATCH
  5
351
330
1F
100
AcDbEntity
  8
1
  6
Continuous
 62
     4
100
AcDbHatch
 10
0.0
 20
0.0
 30
0.0
210
0.0
220
0.0
230
1.0
  2
SOLID
 70
     1
 71
     1
 91
        2
 92
        1
 93
        8
 72
     2
 10
85.0661505814977
 20
84.8692893261027
 40
0.4535200610614112
 50
0.0
 51
90.0
 73
     1
 72
     1
 10
85.0661505814977
 20
85.3228093871641
 11
84.4614571667491
 21
85.3228093871641
 72
     2
 10
84.4614571667491
 20
84.8692893261027
 40
0.453520061061397
 50
90.0
 51
180.0
 73
     1
 72
     1
 10
84.0079371056877
 20
84.8692893261027
 11
84.0079371056877
 21
81.9214089292036
 72
     2
 10
84.4614571667491
 20
81.9214089292036
 40
0.453520061061397
 50
180.0
 51
270.0
 73
     1
 72
     1
 10
84.4614571667491
 20
81.4678888681423
 11
85.0661505814977
 21
81.4678888681423
 72
     2
 10
85.0661505814977
 20
81.9214089292036
 40
0.4535200610612975
 50
270.0
 51
360.0
 73
     1
 72
     1
 10
85.5196706425591
 20
81.9214089292036
 11
85.5196706425591
 21
84.8692893261027
 97
        8
330
285
330
AA
330
284
330
AD
330
287
330
AC
330
286
330
AB
 92
       16
 93
        8
 72
     2
 10
84.6882171972799
 20
82.1481689597342
 40
0.226760030530798
 50
180.0
 51
270.0
 73
     1
 72
     1
 10
84.6882171972799
 20
81.9214089292036
 11
84.8393905509672
 21
81.9214089292036
 72
     2
 10
84.8393905509672
 20
82.1481689597342
 40
0.2267600305306132
 50
270.0
 51
360.0
 73
     1
 72
     1
 10
85.0661505814977
 20
82.1481689597342
 11
85.0661505814977
 21
84.6425292955721
 72
     2
 10
84.8393905509672
 20
84.6425292955721
 40
0.2267600305304995
 50
0.0
 51
90.0
 73
     1
 72
     1
 10
84.8393905509672
 20
84.8692893261027
 11
84.6882171972799
 21
84.8692893261027
 72
     2
 10
84.6882171972799
 20
84.6425292955721
 40
0.226760030530599
 50
90.0
 51
180.0
 73
     1
 72
     1
 10
84.4614571667491
 20
84.6425292955721
 11
84.4614571667491
 21
82.1481689597342
 97
        8
330
288
330
B0
330
289
330
AF
330
28A
330
AE
330
28B
330
B1
 75
     0
 76
     1
 98
        1
 10
0.0
 20
0.0
  0
HATCH
  5
352
330
1F
100
AcDbEntity
  8
1
  6
Continuous
 62
     4
100
AcDbHatch
 10
0.0
 20
0.0
 30
0.0
210
0.0
220
0.0
230
1.0
  2
SOLID
 70
     1
 71
     1
 91
        2
 92
        1
 93
        8
 72
     1
 10
87.4849242404918
 20
84.8692893261027
 11
87.4849242404918
 21
81.9214089292036
 72
     2
 10
87.0314041794305
 20
81.9214089292036
 40
0.4535200610612975
 50
0.0
 51
90.0
 73
     0
 72
     1
 10
87.0314041794305
 20
81.4678888681423
 11
86.426710764682
 21
81.4678888681423
 72
     2
 10
86.426710764682
 20
81.9214089292036
 40
0.4535200610614964
 50
90.0
 51
180.0
 73
     0
 72
     1
 10
85.9731907036205
 20
81.9214089292036
 11
85.9731907036205
 21
84.8692893261027
 72
     2
 10
86.426710764682
 20
84.8692893261027
 40
0.453520061061397
 50
180.0
 51
270.0
 73
     0
 72
     1
 10
86.426710764682
 20
85.3228093871641
 11
87.0314041794305
 21
85.3228093871641
 72
     2
 10
87.0314041794305
 20
84.8692893261027
 40
0.4535200610612975
 50
270.0
 51
360.0
 73
     0
 97
        8
330
A2
330
27C
330
A5
330
27F
330
A4
330
27E
330
A3
330
27D
 92
       16
 93
        8
 72
     2
 10
86.6534707952127
 20
82.1481689597342
 40
0.2267600305306985
 50
180.0
 51
270.0
 73
     1
 72
     1
 10
86.6534707952127
 20
81.9214089292036
 11
86.8046441488999
 21
81.9214089292036
 72
     2
 10
86.8046441488999
 20
82.1481689597342
 40
0.2267600305306132
 50
270.0
 51
360.0
 73
     1
 72
     1
 10
87.0314041794305
 20
82.1481689597342
 11
87.0314041794305
 21
84.6425292955721
 72
     2
 10
86.8046441488999
 20
84.6425292955721
 40
0.226760030530599
 50
0.0
 51
90.0
 73
     1
 72
     1
 10
86.8046441488999
 20
84.8692893261027
 11
86.6534707952127
 21
84.8692893261027
 72
     2
 10
86.6534707952127
 20
84.6425292955721
 40
0.226760030530599
 50
90.0
 51
180.0
 73
     1
 72
     1
 10
86.426710764682
 20
84.6425292955721
 11
86.426710764682
 21
82.1481689597342
 97
        8
330
280
330
A8
330
281
330
A7
330
282
330
A6
330
283
330
A9
 75
     0
 76
     1
 98
        1
 10
0.0
 20
0.0
  0
HATCH
  5
353
330
1F
100
AcDbEntity
  8
1
  6
Continuous
 62
     4
100
AcDbHatch
 10
0.0
 20
0.0
 30
0.0
210
0.0
220
0.0
230
1.0
  2
SOLID
 70
     1
 71
     1
 91
        2
 92
        1
 93
       18
 72
     1
 10
87.4849242404918
 20
79.7198682106936
 11
87.4849242404918
 21
79.2465329616198
 72
     1
 10
87.4849242404918
 20
79.2465329616198
 11
87.0319830640213
 21
79.2465329616198
 72
     1
 10
87.0319830640213
 20
79.2465329616198
 11
87.0319830640213
 21
79.4933976224582
 72
     2
 10
86.805512475786
 20
79.4933976224582
 40
0.2264705882353013
 50
0.0
 51
90.0
 73
     1
 72
     1
 10
86.805512475786
 20
79.7198682106936
 11
86.6545320836291
 21
79.7198682106936
 72
     2
 10
86.6545320836291
 20
79.4933976224582
 40
0.2264705882354008
 50
90.0
 51
180.0
 73
     1
 72
     1
 10
86.4280614953938
 20
79.4933976224582
 11
86.4280614953938
 21
78.512464042222
 72
     2
 10
86.7300222797075
 20
77.5117799753992
 40
1.045250647862088
 50
253.2085823128854
 51
300.6506679570516
 73
     0
 72
     2
 10
87.0319830640213
 20
78.0213387989287
 40
0.4529411764704889
 50
300.6506679570471
 51
360.0
 73
     0
 72
     1
 10
87.4849242404918
 20
78.0213387989287
 11
87.4849242404918
 21
77.285309387164
 72
     1
 10
87.4849242404918
 20
77.285309387164
 11
87.4849242404918
 21
76.7757505636345
 72
     2
 10
87.0319830640213
 20
76.7757505636345
 40
0.4529411764704037
 50
0.0
 51
90.0
 73
     0
 72
     1
 10
87.0319830640213
 20
76.3228093871641
 11
86.4280614953938
 21
76.3228093871641
 72
     2
 10
86.4280614953938
 20
76.7757505636345
 40
0.4529411764706026
 50
90.0
 51
180.0
 73
     0
 72
     1
 10
85.9751203189232
 20
76.7757505636345
 11
85.9751203189232
 21
79.7198682106936
 72
     2
 10
86.4280614953938
 20
79.7198682106936
 40
0.4529411764704889
 50
180.0
 51
270.0
 73
     0
 72
     1
 10
86.4280614953938
 20
80.1728093871641
 11
87.0319830640213
 21
80.1728093871641
 72
     2
 10
87.0319830640213
 20
79.7198682106936
 40
0.4529411764704889
 50
270.0
 51
360.0
 73
     0
 97
       18
330
152
330
2C1
330
14F
330
2BE
330
150
330
2BF
330
149
330
147
330
2B7
330
2F8
330
144
330
2BA
330
14E
330
2BB
330
14D
330
14A
330
151
330
2C0
 92
       16
 93
        9
 72
     2
 10
86.6545320836291
 20
77.7948682106935
 40
0.2264705882352018
 50
90.0
 51
180.0
 73
     1
 72
     1
 10
86.4280614953938
 20
77.7948682106935
 11
86.4280614953938
 21
77.0022211518698
 72
     2
 10
86.6545320836291
 20
77.0022211518698
 40
0.2264705882353013
 50
180.0
 51
270.0
 73
     1
 72
     1
 10
86.6545320836291
 20
76.7757505636345
 11
86.805512475786
 21
76.7757505636345
 72
     2
 10
86.805512475786
 20
77.0022211518698
 40
0.2264705882353013
 50
270.0
 51
360.0
 73
     1
 72
     1
 10
87.0319830640213
 20
77.0022211518698
 11
87.0319830640213
 21
77.285309387164
 72
     1
 10
87.0319830640213
 20
77.285309387164
 11
87.0319830640213
 21
77.7948682106935
 72
     2
 10
86.805512475786
 20
77.7948682106935
 40
0.2264705882353013
 50
0.0
 51
90.0
 73
     1
 72
     1
 10
86.805512475786
 20
78.0213387989287
 11
86.6545320836291
 21
78.0213387989287
 97
        9
330
2B8
330
14B
330
2BD
330
14C
330
2BC
330
148
330
146
330
2B9
330
145
 75
     0
 76
     1
 98
        1
 10
0.0
 20
0.0
  0
HATCH
  5
354
330
1F
100
AcDbEntity
  8
1
  6
Continuous
 62
     4
100
AcDbHatch
 10
0.0
 20
0.0
 30
0.0
210
0.0
220
0.0
230
1.0
  2
SOLID
 70
     1
 71
     1
 91
        1
 92
        1
 93
        4
 72
     1
 10
79.1272243601431
 20
85.1948029635428
 11
76.9349219510841
 21
81.4678888681423
 72
     1
 10
76.9349219510841
 20
81.4678888681423
 11
77.3003056859272
 21
81.4678888681423
 72
     1
 10
77.3003056859272
 20
81.4678888681423
 11
79.4926080949863
 21
85.1948029635428
 72
     1
 10
79.4926080949863
 20
85.1948029635428
 11
79.1272243601431
 21
85.1948029635428
 97
        4
330
C7
330
C4
330
C5
330
C6
 75
     0
 76
     1
 98
        1
 10
0.0
 20
0.0
  0
ENDSEC
  0
SECTION
  2
OBJECTS
  0
DICTIONARY
  5
C
330
0
100
AcDbDictionary
281
     1
  3
ACAD_GROUP
350
D
  3
ACAD_LAYOUT
350
1A
  3
ACAD_MATERIAL
350
43
  3
ACAD_MLEADERSTYLE
350
357
  3
ACAD_MLINESTYLE
350
17
  3
ACAD_PLOTSETTINGS
350
19
  3
ACAD_PLOTSTYLENAME
350
E
  3
ACAD_SCALELIST
350
47
  3
ACAD_VISUALSTYLE
350
2A
  3
AcDbVariableDictionary
350
355
  0
DICTIONARY
  5
D
102
{ACAD_REACTORS
330
C
102
}
330
C
100
AcDbDictionary
281
     1
  0
DICTIONARY
  5
1A
102
{ACAD_REACTORS
330
C
102
}
330
C
100
AcDbDictionary
281
     1
  3
Layout1
350
1E
  3
Layout2
350
26
  3
Model
350
22
  0
DICTIONARY
  5
43
102
{ACAD_REACTORS
330
C
102
}
330
C
100
AcDbDictionary
281
     1
  3
ByBlock
350
45
  3
ByLayer
350
44
  3
Global
350
46
  0
DICTIONARY
  5
357
102
{ACAD_REACTORS
330
C
102
}
330
C
100
AcDbDictionary
281
     1
  0
DICTIONARY
  5
17
102
{ACAD_REACTORS
330
C
102
}
330
C
100
AcDbDictionary
281
     1
  3
Standard
350
18
  0
DICTIONARY
  5
19
102
{ACAD_REACTORS
330
C
102
}
330
C
100
AcDbDictionary
281
     1
  0
ACDBDICTIONARYWDFLT
  5
E
102
{ACAD_REACTORS
330
C
102
}
330
C
100
AcDbDictionary
281
     1
  3
Normal
350
F
100
AcDbDictionaryWithDefault
340
F
  0
DICTIONARY
  5
47
102
{ACAD_REACTORS
330
C
102
}
330
C
100
AcDbDictionary
281
     1
  3
A0
350
48
  3
A1
350
49
  3
A2
350
4A
  3
A3
350
4B
  3
A4
350
4C
  3
A5
350
4D
  3
A6
350
4E
  3
A7
350
4F
  3
A8
350
50
  3
A9
350
51
  3
B0
350
52
  3
B1
350
53
  3
B2
350
54
  3
B3
350
55
  3
B4
350
56
  3
B5
350
57
  3
B6
350
58
  3
B7
350
59
  3
B8
350
5A
  3
B9
350
5B
  3
C0
350
5C
  3
C1
350
5D
  3
C2
350
5E
  3
C3
350
5F
  3
C4
350
60
  3
C5
350
61
  3
C6
350
62
  3
C7
350
63
  3
C8
350
64
  3
C9
350
65
  3
D0
350
66
  3
D1
350
67
  3
D2
350
68
  0
DICTIONARY
  5
2A
102
{ACAD_REACTORS
330
C
102
}
330
C
100
AcDbDictionary
281
     1
  3
2dWireframe
350
2F
  3
Basic
350
32
  3
Brighten
350
36
  3
ColorChange
350
3A
  3
Conceptual
350
34
  3
Dim
350
35
  3
EdgeColorOff
350
3D
  3
Facepattern
350
39
  3
Flat
350
2B
  3
FlatWithEdges
350
2C
  3
Gouraud
350
2D
  3
GouraudWithEdges
350
2E
  3
Hidden
350
31
  3
JitterOff
350
3B
  3
Linepattern
350
38
  3
OverhangOff
350
3C
  3
Realistic
350
33
  3
Shaded
350
42
  3
Shaded with edges
350
41
  3
Shades of Gray
350
3E
  3
Sketchy
350
3F
  3
Thicken
350
37
  3
Wireframe
350
30
  3
X-Ray
350
40
  0
DICTIONARY
  5
355
102
{ACAD_REACTORS
330
C
102
}
330
C
100
AcDbDictionary
281
     1
  3
CANNOSCALE
350
35C
  3
DIMASSOC
350
35A
  3
HIDETEXT
350
35B
  3
MSLTSCALE
350
35D
  0
LAYOUT
  5
1E
102
{ACAD_REACTORS
330
1A
102
}
330
1A
100
AcDbPlotSettings
  1

  2
none_device
  4

  6

 40
0.0
 41
0.0
 42
0.0
 43
0.0
 44
0.0
 45
0.0
 46
0.0
 47
0.0
 48
0.0
 49
0.0
140
0.0
141
0.0
142
1.0
143
1.0
 70
   688
 72
     0
 73
     0
 74
     5
  7

 75
    16
147
1.0
148
0.0
149
0.0
100
AcDbLayout
  1
Layout1
 70
     1
 71
     1
 10
0.0
 20
0.0
 11
12.0
 21
9.0
 12
0.0
 22
0.0
 32
0.0
 14
1.00000000000000E+20
 24
1.00000000000000E+20
 34
1.00000000000000E+20
 15
-1.00000000000000E+20
 25
-1.00000000000000E+20
 35
-1.00000000000000E+20
146
0.0
 13
0.0
 23
0.0
 33
0.0
 16
1.0
 26
0.0
 36
0.0
 17
0.0
 27
1.0
 37
0.0
 76
     0
330
1B
  0
LAYOUT
  5
26
102
{ACAD_REACTORS
330
1A
102
}
330
1A
100
AcDbPlotSettings
  1

  2
none_device
  4

  6

 40
0.0
 41
0.0
 42
0.0
 43
0.0
 44
0.0
 45
0.0
 46
0.0
 47
0.0
 48
0.0
 49
0.0
140
0.0
141
0.0
142
1.0
143
1.0
 70
   688
 72
     0
 73
     0
 74
     5
  7

 75
    16
147
1.0
148
0.0
149
0.0
100
AcDbLayout
  1
Layout2
 70
     1
 71
     2
 10
0.0
 20
0.0
 11
0.0
 21
0.0
 12
0.0
 22
0.0
 32
0.0
 14
0.0
 24
0.0
 34
0.0
 15
0.0
 25
0.0
 35
0.0
146
0.0
 13
0.0
 23
0.0
 33
0.0
 16
1.0
 26
0.0
 36
0.0
 17
0.0
 27
1.0
 37
0.0
 76
     0
330
23
  0
LAYOUT
  5
22
102
{ACAD_REACTORS
330
1A
102
}
330
1A
100
AcDbPlotSettings
  1

  2
none_device
  4
Letter_(8.50_x_11.00_Inches)
  6

 40
6.35
 41
6.35
 42
6.35000508
 43
6.35000508
 44
215.9
 45
279.4
 46
0.0
 47
0.0
 48
0.0
 49
0.0
140
0.0
141
0.0
142
1.0
143
1.0
 70
  1712
 72
     0
 73
     0
 74
     0
  7

 75
     0
147
1.0
148
0.0
149
0.0
100
AcDbLayout
  1
Model
 70
     1
 71
     0
 10
0.0
 20
0.0
 11
12.0
 21
9.0
 12
0.0
 22
0.0
 32
0.0
 14
-83.4612141186916
 24
-30.1443355089935
 34
0.0
 15
100.535553025324
 25
103.346619547345
 35
0.0
146
0.0
 13
0.0
 23
0.0
 33
0.0
 16
1.0
 26
0.0
 36
0.0
 17
0.0
 27
1.0
 37
0.0
 76
     0
330
1F
331
29
  0
MATERIAL
  5
45
102
{ACAD_REACTORS
330
43
102
}
102
{ACAD_XDICTIONARY
360
390
102
}
330
43
100
AcDbMaterial
  1
ByBlock
  0
MATERIAL
  5
44
102
{ACAD_REACTORS
330
43
102
}
102
{ACAD_XDICTIONARY
360
38E
102
}
330
43
100
AcDbMaterial
  1
ByLayer
  0
MATERIAL
  5
46
102
{ACAD_REACTORS
330
43
102
}
102
{ACAD_XDICTIONARY
360
392
102
}
330
43
100
AcDbMaterial
  1
Global
  0
MLINESTYLE
  5
18
102
{ACAD_REACTORS
330
17
102
}
330
17
100
AcDbMlineStyle
  2
Standard
 70
     0
  3

 62
   256
 51
90.0
 52
90.0
 71
     2
 49
0.5
 62
   256
  6
BYLAYER
 49
-0.5
 62
   256
  6
BYLAYER
  0
ACDBPLACEHOLDER
  5
F
102
{ACAD_REACTORS
330
E
102
}
330
E
  0
SCALE
  5
48
102
{ACAD_REACTORS
330
47
102
}
330
47
100
AcDbScale
 70
     0
300
1:1
140
1.0
141
1.0
290
     1
  0
SCALE
  5
49
102
{ACAD_REACTORS
330
47
102
}
330
47
100
AcDbScale
 70
     0
300
1:2
140
1.0
141
2.0
290
     0
  0
SCALE
  5
4A
102
{ACAD_REACTORS
330
47
102
}
330
47
100
AcDbScale
 70
     0
300
1:4
140
1.0
141
4.0
290
     0
  0
SCALE
  5
4B
102
{ACAD_REACTORS
330
47
102
}
330
47
100
AcDbScale
 70
     0
300
1:5
140
1.0
141
5.0
290
     0
  0
SCALE
  5
4C
102
{ACAD_REACTORS
330
47
102
}
330
47
100
AcDbScale
 70
     0
300
1:8
140
1.0
141
8.0
290
     0
  0
SCALE
  5
4D
102
{ACAD_REACTORS
330
47
102
}
330
47
100
AcDbScale
 70
     0
300
1:10
140
1.0
141
10.0
290
     0
  0
SCALE
  5
4E
102
{ACAD_REACTORS
330
47
102
}
330
47
100
AcDbScale
 70
     0
300
1:16
140
1.0
141
16.0
290
     0
  0
SCALE
  5
4F
102
{ACAD_REACTORS
330
47
102
}
330
47
100
AcDbScale
 70
     0
300
1:20
140
1.0
141
20.0
290
     0
  0
SCALE
  5
50
102
{ACAD_REACTORS
330
47
102
}
330
47
100
AcDbScale
 70
     0
300
1:30
140
1.0
141
30.0
290
     0
  0
SCALE
  5
51
102
{ACAD_REACTORS
330
47
102
}
330
47
100
AcDbScale
 70
     0
300
1:40
140
1.0
141
40.0
290
     0
  0
SCALE
  5
52
102
{ACAD_REACTORS
330
47
102
}
330
47
100
AcDbScale
 70
     0
300
1:50
140
1.0
141
50.0
290
     0
  0
SCALE
  5
53
102
{ACAD_REACTORS
330
47
102
}
330
47
100
AcDbScale
 70
     0
300
1:100
140
1.0
141
100.0
290
     0
  0
SCALE
  5
54
102
{ACAD_REACTORS
330
47
102
}
330
47
100
AcDbScale
 70
     0
300
2:1
140
2.0
141
1.0
290
     0
  0
SCALE
  5
55
102
{ACAD_REACTORS
330
47
102
}
330
47
100
AcDbScale
 70
     0
300
4:1
140
4.0
141
1.0
290
     0
  0
SCALE
  5
56
102
{ACAD_REACTORS
330
47
102
}
330
47
100
AcDbScale
 70
     0
300
8:1
140
8.0
141
1.0
290
     0
  0
SCALE
  5
57
102
{ACAD_REACTORS
330
47
102
}
330
47
100
AcDbScale
 70
     0
300
10:1
140
10.0
141
1.0
290
     0
  0
SCALE
  5
58
102
{ACAD_REACTORS
330
47
102
}
330
47
100
AcDbScale
 70
     0
300
100:1
140
100.0
141
1.0
290
     0
  0
SCALE
  5
59
102
{ACAD_REACTORS
330
47
102
}
330
47
100
AcDbScale
 70
     0
300
1/128" = 1'-0"
140
0.0078125
141
12.0
290
     0
  0
SCALE
  5
5A
102
{ACAD_REACTORS
330
47
102
}
330
47
100
AcDbScale
 70
     0
300
1/64" = 1'-0"
140
0.015625
141
12.0
290
     0
  0
SCALE
  5
5B
102
{ACAD_REACTORS
330
47
102
}
330
47
100
AcDbScale
 70
     0
300
1/32" = 1'-0"
140
0.03125
141
12.0
290
     0
  0
SCALE
  5
5C
102
{ACAD_REACTORS
330
47
102
}
330
47
100
AcDbScale
 70
     0
300
1/16" = 1'-0"
140
0.0625
141
12.0
290
     0
  0
SCALE
  5
5D
102
{ACAD_REACTORS
330
47
102
}
330
47
100
AcDbScale
 70
     0
300
3/32" = 1'-0"
140
0.09375
141
12.0
290
     0
  0
SCALE
  5
5E
102
{ACAD_REACTORS
330
47
102
}
330
47
100
AcDbScale
 70
     0
300
1/8" = 1'-0"
140
0.125
141
12.0
290
     0
  0
SCALE
  5
5F
102
{ACAD_REACTORS
330
47
102
}
330
47
100
AcDbScale
 70
     0
300
3/16" = 1'-0"
140
0.1875
141
12.0
290
     0
  0
SCALE
  5
60
102
{ACAD_REACTORS
330
47
102
}
330
47
100
AcDbScale
 70
     0
300
1/4" = 1'-0"
140
0.25
141
12.0
290
     0
  0
SCALE
  5
61
102
{ACAD_REACTORS
330
47
102
}
330
47
100
AcDbScale
 70
     0
300
3/8" = 1'-0"
140
0.375
141
12.0
290
     0
  0
SCALE
  5
62
102
{ACAD_REACTORS
330
47
102
}
330
47
100
AcDbScale
 70
     0
300
1/2" = 1'-0"
140
0.5
141
12.0
290
     0
  0
SCALE
  5
63
102
{ACAD_REACTORS
330
47
102
}
330
47
100
AcDbScale
 70
     0
300
3/4" = 1'-0"
140
0.75
141
12.0
290
     0
  0
SCALE
  5
64
102
{ACAD_REACTORS
330
47
102
}
330
47
100
AcDbScale
 70
     0
300
1" = 1'-0"
140
1.0
141
12.0
290
     0
  0
SCALE
  5
65
102
{ACAD_REACTORS
330
47
102
}
330
47
100
AcDbScale
 70
     0
300
1-1/2" = 1'-0"
140
1.5
141
12.0
290
     0
  0
SCALE
  5
66
102
{ACAD_REACTORS
330
47
102
}
330
47
100
AcDbScale
 70
     0
300
3" = 1'-0"
140
3.0
141
12.0
290
     0
  0
SCALE
  5
67
102
{ACAD_REACTORS
330
47
102
}
330
47
100
AcDbScale
 70
     0
300
6" = 1'-0"
140
6.0
141
12.0
290
     0
  0
SCALE
  5
68
102
{ACAD_REACTORS
330
47
102
}
330
47
100
AcDbScale
 70
     0
300
1'-0" = 1'-0"
140
12.0
141
12.0
290
     0
  0
VISUALSTYLE
  5
2F
102
{ACAD_REACTORS
330
2A
102
}
102
{ACAD_XDICTIONARY
360
366
102
}
330
2A
100
AcDbVisualStyle
  2
2dWireframe
 70
     4
 71
     0
 72
     2
 73
     0
 90
        0
 40
0.6
 41
30.0
 62
     5
 63
     7
 74
     1
 91
        4
 64
     7
 65
   257
 75
     1
175
     1
 42
1.0
 92
        0
 66
   257
 43
1.0
 76
     1
 77
     6
 78
     2
 67
     7
 79
     5
170
     0
171
     0
290
     0
174
     0
 93
        1
 44
0.0
173
     0
291
     0
 45
0.0
1001
ACAD
1000
AcDbSavedByObjectVersion
1070
     0
  0
VISUALSTYLE
  5
32
102
{ACAD_REACTORS
330
2A
102
}
102
{ACAD_XDICTIONARY
360
36C
102
}
330
2A
100
AcDbVisualStyle
  2
Basic
 70
     7
 71
     1
 72
     0
 73
     1
 90
        0
 40
0.6
 41
30.0
 62
     5
 63
     7
 74
     0
 91
        4
 64
     7
 65
   257
 75
     1
175
     1
 42
1.0
 92
        8
 66
     7
 43
1.0
 76
     1
 77
     6
 78
     2
 67
     7
 79
     5
170
     0
171
     0
290
     0
174
     0
 93
        1
 44
0.0
173
     0
291
     1
 45
0.0
1001
ACAD
1000
AcDbSavedByObjectVersion
1070
     0
  0
VISUALSTYLE
  5
36
102
{ACAD_REACTORS
330
2A
102
}
102
{ACAD_XDICTIONARY
360
374
102
}
330
2A
100
AcDbVisualStyle
  2
Brighten
 70
    12
 71
     2
 72
     2
 73
     0
 90
        0
 40
0.6
 41
30.0
 62
     5
 63
     7
 74
     1
 91
        4
 64
     7
 65
   257
 75
     1
175
     1
 42
1.0
 92
        8
 66
     7
 43
1.0
 76
     1
 77
     6
 78
     2
 67
     7
 79
     5
170
     0
171
     0
290
     0
174
     0
 93
        1
 44
50.0
173
     0
291
     1
 45
0.0
1001
ACAD
1000
AcDbSavedByObjectVersion
1070
     0
  0
VISUALSTYLE
  5
3A
102
{ACAD_REACTORS
330
2A
102
}
102
{ACAD_XDICTIONARY
360
37C
102
}
330
2A
100
AcDbVisualStyle
  2
ColorChange
 70
    16
 71
     2
 72
     2
 73
     3
 90
        0
 40
0.6
 41
30.0
 62
     5
 63
     8
 74
     1
 91
        4
 64
     7
 65
   257
 75
     1
175
     1
 42
1.0
 92
        8
 66
     8
 43
1.0
 76
     1
 77
     6
 78
     2
 67
     7
 79
     5
170
     0
171
     0
290
     0
174
     0
 93
        1
 44
0.0
173
     0
291
     1
 45
0.0
1001
ACAD
1000
AcDbSavedByObjectVersion
1070
     0
  0
VISUALSTYLE
  5
34
102
{ACAD_REACTORS
330
2A
102
}
102
{ACAD_XDICTIONARY
360
370
102
}
330
2A
100
AcDbVisualStyle
  2
Conceptual
 70
     9
 71
     3
 72
     2
 73
     0
 90
        0
 40
0.6
 41
30.0
 62
     5
 63
     7
 74
     2
 91
        2
 64
     7
 65
   257
 75
     1
175
     1
 42
179.0
 92
        8
 66
     7
 43
1.0
 76
     1
 77
     6
 78
     2
 67
     7
 79
     3
170
     0
171
     0
290
     0
174
     0
 93
        1
 44
0.0
173
     0
291
     0
 45
0.0
1001
ACAD
1000
AcDbSavedByObjectVersion
1070
     0
  0
VISUALSTYLE
  5
35
102
{ACAD_REACTORS
330
2A
102
}
102
{ACAD_XDICTIONARY
360
372
102
}
330
2A
100
AcDbVisualStyle
  2
Dim
 70
    11
 71
     2
 72
     2
 73
     0
 90
        0
 40
0.6
 41
30.0
 62
     5
 63
     7
 74
     1
 91
        4
 64
     7
 65
   257
 75
     1
175
     1
 42
1.0
 92
        8
 66
     7
 43
1.0
 76
     1
 77
     6
 78
     2
 67
     7
 79
     5
170
     0
171
     0
290
     0
174
     0
 93
        1
 44
-50.0
173
     0
291
     1
 45
0.0
1001
ACAD
1000
AcDbSavedByObjectVersion
1070
     0
  0
VISUALSTYLE
  5
3D
102
{ACAD_REACTORS
330
2A
102
}
102
{ACAD_XDICTIONARY
360
382
102
}
330
2A
100
AcDbVisualStyle
  2
EdgeColorOff
 70
    22
 71
     2
 72
     2
 73
     0
 90
        0
 40
0.6
 41
30.0
 62
     5
 63
     7
 74
     1
 91
        4
 64
     7
 65
   257
 75
     1
175
     1
 42
1.0
 92
        8
 66
     7
 43
1.0
 76
     1
 77
     6
 78
     2
 67
     7
 79
     5
170
     0
171
     0
290
     0
174
     0
 93
        1
 44
0.0
173
     0
291
     1
 45
0.0
1001
ACAD
1000
AcDbSavedByObjectVersion
1070
     0
  0
VISUALSTYLE
  5
39
102
{ACAD_REACTORS
330
2A
102
}
102
{ACAD_XDICTIONARY
360
37A
102
}
330
2A
100
AcDbVisualStyle
  2
Facepattern
 70
    15
 71
     2
 72
     2
 73
     0
 90
        0
 40
0.6
 41
30.0
 62
     5
 63
     7
 74
     1
 91
        4
 64
     7
 65
   257
 75
     1
175
     1
 42
1.0
 92
        8
 66
     7
 43
1.0
 76
     1
 77
     6
 78
     2
 67
     7
 79
     5
170
     0
171
     0
290
     0
174
     0
 93
        1
 44
0.0
173
     0
291
     1
 45
0.0
1001
ACAD
1000
AcDbSavedByObjectVersion
1070
     0
  0
VISUALSTYLE
  5
2B
102
{ACAD_REACTORS
330
2A
102
}
102
{ACAD_XDICTIONARY
360
35E
102
}
330
2A
100
AcDbVisualStyle
  2
Flat
 70
     0
 71
     2
 72
     1
 73
     1
 90
        2
 40
0.6
 41
30.0
 62
     5
 63
     7
 74
     0
 91
        0
 64
     7
 65
   257
 75
     1
175
     1
 42
1.0
 92
        8
 66
     7
 43
1.0
 76
     1
 77
     6
 78
     2
 67
     7
 79
     5
170
     0
171
     0
290
     0
174
     0
 93
       13
 44
0.0
173
     0
291
     1
 45
0.0
1001
ACAD
1000
AcDbSavedByObjectVersion
1070
     0
  0
VISUALSTYLE
  5
2C
102
{ACAD_REACTORS
330
2A
102
}
102
{ACAD_XDICTIONARY
360
360
102
}
330
2A
100
AcDbVisualStyle
  2
FlatWithEdges
 70
     1
 71
     2
 72
     1
 73
     1
 90
        2
 40
0.6
 41
30.0
 62
     5
 63
     7
 74
     1
 91
        0
 64
     7
 65
   257
 75
     1
175
     1
 42
1.0
 92
        0
 66
   257
 43
1.0
 76
     1
 77
     6
 78
     2
 67
     7
 79
     5
170
     0
171
     0
290
     0
174
     0
 93
       13
 44
0.0
173
     0
291
     1
 45
0.0
1001
ACAD
1000
AcDbSavedByObjectVersion
1070
     0
  0
VISUALSTYLE
  5
2D
102
{ACAD_REACTORS
330
2A
102
}
102
{ACAD_XDICTIONARY
360
362
102
}
330
2A
100
AcDbVisualStyle
  2
Gouraud
 70
     2
 71
     2
 72
     2
 73
     1
 90
        2
 40
0.6
 41
30.0
 62
     5
 63
     7
 74
     0
 91
        0
 64
     7
 65
   257
 75
     1
175
     1
 42
1.0
 92
        0
 66
     7
 43
1.0
 76
     1
 77
     6
 78
     2
 67
     7
 79
     5
170
     0
171
     0
290
     0
174
     0
 93
       13
 44
0.0
173
     0
291
     1
 45
0.0
1001
ACAD
1000
AcDbSavedByObjectVersion
1070
     0
  0
VISUALSTYLE
  5
2E
102
{ACAD_REACTORS
330
2A
102
}
102
{ACAD_XDICTIONARY
360
364
102
}
330
2A
100
AcDbVisualStyle
  2
GouraudWithEdges
 70
     3
 71
     2
 72
     2
 73
     1
 90
        2
 40
0.6
 41
30.0
 62
     5
 63
     7
 74
     1
 91
        0
 64
     7
 65
   257
 75
     1
175
     1
 42
1.0
 92
        0
 66
   257
 43
1.0
 76
     1
 77
     6
 78
     2
 67
     7
 79
     5
170
     0
171
     0
290
     0
174
     0
 93
       13
 44
0.0
173
     0
291
     1
 45
0.0
1001
ACAD
1000
AcDbSavedByObjectVersion
1070
     0
  0
VISUALSTYLE
  5
31
102
{ACAD_REACTORS
330
2A
102
}
102
{ACAD_XDICTIONARY
360
36A
102
}
330
2A
100
AcDbVisualStyle
  2
Hidden
 70
     6
 71
     1
 72
     2
 73
     2
 90
        0
 40
0.6
 41
30.0
 62
     5
 63
     7
 74
     2
 91
        2
 64
     7
 65
   257
 75
     2
175
     1
 42
40.0
 92
        0
 66
   257
 43
1.0
 76
     1
 77
     6
 78
     2
 67
     7
 79
     3
170
     0
171
     0
290
     0
174
     0
 93
        1
 44
0.0
173
     0
291
     0
 45
0.0
1001
ACAD
1000
AcDbSavedByObjectVersion
1070
     0
  0
VISUALSTYLE
  5
3B
102
{ACAD_REACTORS
330
2A
102
}
102
{ACAD_XDICTIONARY
360
37E
102
}
330
2A
100
AcDbVisualStyle
  2
JitterOff
 70
    20
 71
     2
 72
     2
 73
     0
 90
        0
 40
0.6
 41
30.0
 62
     5
 63
     7
 74
     1
 91
        4
 64
     7
 65
   257
 75
     1
175
     1
 42
1.0
 92
       10
 66
     7
 43
1.0
 76
     1
 77
     6
 78
     2
 67
     7
 79
     5
170
     0
171
     0
290
     0
174
     0
 93
        1
 44
0.0
173
     0
291
     1
 45
0.0
1001
ACAD
1000
AcDbSavedByObjectVersion
1070
     0
  0
VISUALSTYLE
  5
38
102
{ACAD_REACTORS
330
2A
102
}
102
{ACAD_XDICTIONARY
360
378
102
}
330
2A
100
AcDbVisualStyle
  2
Linepattern
 70
    14
 71
     2
 72
     2
 73
     0
 90
        0
 40
0.6
 41
30.0
 62
     5
 63
     7
 74
     1
 91
        4
 64
     7
 65
   257
 75
     7
175
     7
 42
1.0
 92
        8
 66
     7
 43
1.0
 76
     1
 77
     6
 78
     2
 67
     7
 79
     5
170
     0
171
     0
290
     0
174
     0
 93
        1
 44
0.0
173
     0
291
     1
 45
0.0
1001
ACAD
1000
AcDbSavedByObjectVersion
1070
     0
  0
VISUALSTYLE
  5
3C
102
{ACAD_REACTORS
330
2A
102
}
102
{ACAD_XDICTIONARY
360
380
102
}
330
2A
100
AcDbVisualStyle
  2
OverhangOff
 70
    21
 71
     2
 72
     2
 73
     0
 90
        0
 40
0.6
 41
30.0
 62
     5
 63
     7
 74
     1
 91
        4
 64
     7
 65
   257
 75
     1
175
     1
 42
1.0
 92
        9
 66
     7
 43
1.0
 76
     1
 77
     6
 78
     2
 67
     7
 79
     5
170
     0
171
     0
290
     0
174
     0
 93
        1
 44
0.0
173
     0
291
     1
 45
0.0
1001
ACAD
1000
AcDbSavedByObjectVersion
1070
     0
  0
VISUALSTYLE
  5
33
102
{ACAD_REACTORS
330
2A
102
}
102
{ACAD_XDICTIONARY
360
36E
102
}
330
2A
100
AcDbVisualStyle
  2
Realistic
 70
     8
 71
     2
 72
     3
 73
     0
 90
        2
 40
0.6
 41
30.0
 62
     5
 63
     7
 74
     0
 91
        0
 64
     7
 65
   257
 75
     1
175
     1
 42
1.0
 92
        8
 66
   257
 43
1.0
 76
     1
 77
     6
 78
     2
 67
     7
 79
     3
170
     0
171
     0
290
     0
174
     0
 93
       13
 44
0.0
173
     0
291
     0
 45
0.0
1001
ACAD
1000
AcDbSavedByObjectVersion
1070
     0
  0
VISUALSTYLE
  5
42
102
{ACAD_REACTORS
330
2A
102
}
102
{ACAD_XDICTIONARY
360
38C
102
}
330
2A
100
AcDbVisualStyle
  2
Shaded
 70
    27
 71
     2
 72
     2
 73
     1
 90
        2
 40
0.6
 41
30.0
 62
     5
 63
     7
 74
     0
 91
        4
 64
     7
 65
   257
 75
     1
175
     1
 42
1.0
 92
        8
 66
   257
 43
1.0
 76
     1
 77
     6
 78
     2
 67
     8
 79
     3
170
     0
171
     0
290
     0
174
     0
 93
        5
 44
0.0
173
     0
291
     0
 45
0.0
1001
ACAD
1000
AcDbSavedByObjectVersion
1070
     0
  0
VISUALSTYLE
  5
41
102
{ACAD_REACTORS
330
2A
102
}
102
{ACAD_XDICTIONARY
360
38A
102
}
330
2A
100
AcDbVisualStyle
  2
Shaded with edges
 70
    26
 71
     2
 72
     2
 73
     1
 90
        2
 40
0.6
 41
30.0
 62
     5
 63
     7
 74
     1
 91
       10
 64
     7
 65
   257
 75
     2
175
     1
 42
1.0
 92
        8
 66
   257
 43
1.0
 76
     1
 77
     6
 78
     2
 67
     7
 79
     3
170
     0
171
     0
290
     0
174
     0
 93
        5
 44
0.0
173
     0
291
     0
 45
0.0
1001
ACAD
1000
AcDbSavedByObjectVersion
1070
     0
  0
VISUALSTYLE
  5
3E
102
{ACAD_REACTORS
330
2A
102
}
102
{ACAD_XDICTIONARY
360
384
102
}
330
2A
100
AcDbVisualStyle
  2
Shades of Gray
 70
    23
 71
     2
 72
     2
 73
     3
 90
        0
 40
0.6
 41
30.0
 62
     5
 63
     7
 74
     2
 91
        2
 64
     7
 65
     7
 75
     1
175
     1
 42
40.0
 92
        8
 66
     7
 43
1.0
 76
     1
 77
     6
 78
     2
 67
     7
 79
     3
170
     0
171
     0
290
     0
174
     0
 93
        1
 44
0.0
173
     0
291
     0
 45
0.0
1001
ACAD
1000
AcDbSavedByObjectVersion
1070
     0
  0
VISUALSTYLE
  5
3F
102
{ACAD_REACTORS
330
2A
102
}
102
{ACAD_XDICTIONARY
360
386
102
}
330
2A
100
AcDbVisualStyle
  2
Sketchy
 70
    24
 71
     1
 72
     2
 73
     2
 90
        0
 40
0.6
 41
30.0
 62
     5
 63
     7
 74
     2
 91
        2
 64
     7
 65
     7
 75
     1
175
     1
 42
40.0
 92
       11
 66
     7
 43
1.0
 76
     1
 77
     6
 78
     2
 67
     7
 79
     6
170
     0
171
     0
290
     0
174
     0
 93
        1
 44
0.0
173
     0
291
     0
 45
0.0
1001
ACAD
1000
AcDbSavedByObjectVersion
1070
     0
  0
VISUALSTYLE
  5
37
102
{ACAD_REACTORS
330
2A
102
}
102
{ACAD_XDICTIONARY
360
376
102
}
330
2A
100
AcDbVisualStyle
  2
Thicken
 70
    13
 71
     2
 72
     2
 73
     0
 90
        0
 40
0.6
 41
30.0
 62
     5
 63
     7
 74
     1
 91
        4
 64
     7
 65
   257
 75
     1
175
     1
 42
1.0
 92
       12
 66
     7
 43
1.0
 76
     1
 77
     6
 78
     2
 67
     7
 79
     5
170
     0
171
     0
290
     0
174
     0
 93
        1
 44
0.0
173
     0
291
     1
 45
0.0
1001
ACAD
1000
AcDbSavedByObjectVersion
1070
     0
  0
VISUALSTYLE
  5
30
102
{ACAD_REACTORS
330
2A
102
}
102
{ACAD_XDICTIONARY
360
368
102
}
330
2A
100
AcDbVisualStyle
  2
Wireframe
 70
     5
 71
     0
 72
     2
 73
     0
 90
        0
 40
0.6
 41
30.0
 62
     5
 63
     7
 74
     1
 91
        4
 64
     7
 65
   257
 75
     1
175
     1
 42
1.0
 92
        0
 66
   257
 43
1.0
 76
     1
 77
     6
 78
     2
 67
     7
 79
     3
170
     0
171
     0
290
     0
174
     0
 93
        1
 44
0.0
173
     0
291
     0
 45
0.0
1001
ACAD
1000
AcDbSavedByObjectVersion
1070
     0
  0
VISUALSTYLE
  5
40
102
{ACAD_REACTORS
330
2A
102
}
102
{ACAD_XDICTIONARY
360
388
102
}
330
2A
100
AcDbVisualStyle
  2
X-Ray
 70
    25
 71
     2
 72
     2
 73
     1
 90
        1
 40
0.5
 41
30.0
 62
     5
 63
     7
 74
     1
 91
        0
 64
     7
 65
   257
 75
     1
175
     1
 42
1.0
 92
        8
 66
     7
 43
1.0
 76
     1
 77
     6
 78
     2
 67
     7
 79
     3
170
     0
171
     0
290
     0
174
     0
 93
       13
 44
0.0
173
     0
291
     0
 45
0.0
1001
ACAD
1000
AcDbSavedByObjectVersion
1070
     0
  0
DICTIONARYVAR
  5
35C
102
{ACAD_REACTORS
330
355
102
}
330
355
100
DictionaryVariables
280
     0
  1
1:1
  0
DICTIONARYVAR
  5
35A
102
{ACAD_REACTORS
330
355
102
}
330
355
100
DictionaryVariables
280
     0
  1
2
  0
DICTIONARYVAR
  5
35B
102
{ACAD_REACTORS
330
355
102
}
330
355
100
DictionaryVariables
280
     0
  1
1
  0
DICTIONARYVAR
  5
35D
102
{ACAD_REACTORS
330
355
102
}
330
355
100
DictionaryVariables
280
     0
  1
1
  0
DICTIONARY
  5
390
330
45
100
AcDbDictionary
280
     1
281
     1
  3
ACAD_XREC_ROUNDTRIP
360
391
  0
DICTIONARY
  5
38E
330
44
100
AcDbDictionary
280
     1
281
     1
  3
ACAD_XREC_ROUNDTRIP
360
38F
  0
DICTIONARY
  5
392
330
46
100
AcDbDictionary
280
     1
281
     1
  3
ACAD_XREC_ROUNDTRIP
360
393
  0
DICTIONARY
  5
366
330
2F
100
AcDbDictionary
280
     1
281
     1
  3
ACAD_XREC_ROUNDTRIP
360
367
  0
DICTIONARY
  5
36C
330
32
100
AcDbDictionary
280
     1
281
     1
  3
ACAD_XREC_ROUNDTRIP
360
36D
  0
DICTIONARY
  5
374
330
36
100
AcDbDictionary
280
     1
281
     1
  3
ACAD_XREC_ROUNDTRIP
360
375
  0
DICTIONARY
  5
37C
330
3A
100
AcDbDictionary
280
     1
281
     1
  3
ACAD_XREC_ROUNDTRIP
360
37D
  0
DICTIONARY
  5
370
330
34
100
AcDbDictionary
280
     1
281
     1
  3
ACAD_XREC_ROUNDTRIP
360
371
  0
DICTIONARY
  5
372
330
35
100
AcDbDictionary
280
     1
281
     1
  3
ACAD_XREC_ROUNDTRIP
360
373
  0
DICTIONARY
  5
382
330
3D
100
AcDbDictionary
280
     1
281
     1
  3
ACAD_XREC_ROUNDTRIP
360
383
  0
DICTIONARY
  5
37A
330
39
100
AcDbDictionary
280
     1
281
     1
  3
ACAD_XREC_ROUNDTRIP
360
37B
  0
DICTIONARY
  5
35E
330
2B
100
AcDbDictionary
280
     1
281
     1
  3
ACAD_XREC_ROUNDTRIP
360
35F
  0
DICTIONARY
  5
360
330
2C
100
AcDbDictionary
280
     1
281
     1
  3
ACAD_XREC_ROUNDTRIP
360
361
  0
DICTIONARY
  5
362
330
2D
100
AcDbDictionary
280
     1
281
     1
  3
ACAD_XREC_ROUNDTRIP
360
363
  0
DICTIONARY
  5
364
330
2E
100
AcDbDictionary
280
     1
281
     1
  3
ACAD_XREC_ROUNDTRIP
360
365
  0
DICTIONARY
  5
36A
330
31
100
AcDbDictionary
280
     1
281
     1
  3
ACAD_XREC_ROUNDTRIP
360
36B
  0
DICTIONARY
  5
37E
330
3B
100
AcDbDictionary
280
     1
281
     1
  3
ACAD_XREC_ROUNDTRIP
360
37F
  0
DICTIONARY
  5
378
330
38
100
AcDbDictionary
280
     1
281
     1
  3
ACAD_XREC_ROUNDTRIP
360
379
  0
DICTIONARY
  5
380
330
3C
100
AcDbDictionary
280
     1
281
     1
  3
ACAD_XREC_ROUNDTRIP
360
381
  0
DICTIONARY
  5
36E
330
33
100
AcDbDictionary
280
     1
281
     1
  3
ACAD_XREC_ROUNDTRIP
360
36F
  0
DICTIONARY
  5
38C
330
42
100
AcDbDictionary
280
     1
281
     1
  3
ACAD_XREC_ROUNDTRIP
360
38D
  0
DICTIONARY
  5
38A
330
41
100
AcDbDictionary
280
     1
281
     1
  3
ACAD_XREC_ROUNDTRIP
360
38B
  0
DICTIONARY
  5
384
330
3E
100
AcDbDictionary
280
     1
281
     1
  3
ACAD_XREC_ROUNDTRIP
360
385
  0
DICTIONARY
  5
386
330
3F
100
AcDbDictionary
280
     1
281
     1
  3
ACAD_XREC_ROUNDTRIP
360
387
  0
DICTIONARY
  5
376
330
37
100
AcDbDictionary
280
     1
281
     1
  3
ACAD_XREC_ROUNDTRIP
360
377
  0
DICTIONARY
  5
368
330
30
100
AcDbDictionary
280
     1
281
     1
  3
ACAD_XREC_ROUNDTRIP
360
369
  0
DICTIONARY
  5
388
330
40
100
AcDbDictionary
280
     1
281
     1
  3
ACAD_XREC_ROUNDTRIP
360
389
  0
XRECORD
  5
391
102
{ACAD_REACTORS
330
390
102
}
330
390
100
AcDbXrecord
280
     1
102
MATERIAL
148
0.0
149
0.0
149
0.0
 93
        0
 94
      127
282
     0
 72
     1
 77
     1
171
     1
175
     1
179
     1
273
     0
  0
XRECORD
  5
38F
102
{ACAD_REACTORS
330
38E
102
}
330
38E
100
AcDbXrecord
280
     1
102
MATERIAL
148
0.0
149
0.0
149
0.0
 93
        0
 94
      127
282
     0
 72
     1
 77
     1
171
     1
175
     1
179
     1
273
     0
  0
XRECORD
  5
393
102
{ACAD_REACTORS
330
392
102
}
330
392
100
AcDbXrecord
280
     1
102
MATERIAL
148
0.0
149
0.0
149
0.0
 93
        0
 94
      127
282
     0
 72
     1
 77
     1
171
     1
175
     1
179
     1
273
     0
  0
XRECORD
  5
367
102
{ACAD_REACTORS
330
366
102
}
330
366
100
AcDbXrecord
280
     1
102
RTVSPropertyOp0
 70
     1
102
RTVSPropertyOp1
 70
     1
102
RTVSPropertyOp2
 70
     1
102
RTVSPropertyOp3
 70
     1
102
RTVSPropertyOp4
 70
     1
102
RTVSPropertyOp5
 70
     1
102
RTVSPropertyOp6
 70
     1
102
RTVSPropertyOp7
 70
     1
102
RTVSPropertyOp8
 70
     1
102
RTVSPropertyOp9
 70
     1
102
RTVSPropertyOp10
 70
     1
102
RTVSPropertyOp11
 70
     1
102
RTVSPropertyOp12
 70
     1
102
RTVSPropertyOp13
 70
     1
102
RTVSPropertyOp14
 70
     1
102
RTVSPropertyOp15
 70
     1
102
RTVSPropertyOp16
 70
     1
102
RTVSPropertyOp17
 70
     1
102
RTVSPropertyOp18
 70
     1
102
RTVSPropertyOp19
 70
     1
102
RTVSPropertyOp20
 70
     1
102
RTVSPropertyOp21
 70
     1
102
RTVSPropertyOp22
 70
     1
102
RTVSPropertyOp23
 70
     1
102
RTVSPropertyOp24
 70
     1
102
RTVSPropertyOp25
 70
     1
102
RTVSPropertyOp26
 70
     1
102
RTVSPropertyOp27
 70
     1
102
RTVSPropertyOp28
 70
     1
102
RTVSPropertyOp29
 70
     1
102
RTVSPropertyOp30
 70
     1
102
RTVSPropertyOp31
 70
     1
102
RTVSPropertyOp32
 70
     1
102
RTVSPropertyOp33
 70
     1
102
RTVSPropertyOp34
 70
     1
102
RTVSPropertyOp35
 70
     1
102
RTVSPropertyOp36
 70
     1
102
RTVSPropertyOp37
 70
     1
102
RTVSPropertyOp38
 70
     1
102
RTVSPropertyOp39
 70
     1
102
RTVSPropertyOp40
 70
     1
102
RTVSPropertyOp41
 70
     1
102
RTVSPropertyOp42
 70
     1
102
RTVSPropertyOp43
 70
     1
102
RTVSPropertyOp44
 70
     1
102
RTVSPropertyOp45
 70
     1
102
RTVSPropertyOp46
 70
     1
102
RTVSPropertyOp47
 70
     1
102
RTVSPropertyOp48
 70
     1
102
RTVSPropertyOp49
 70
     1
102
RTVSPropertyOp50
 70
     1
102
RTVSPropertyOp51
 70
     0
102
RTVSPropertyOp52
 70
     0
102
RTVSPropertyOp53
 70
     1
102
RTVSPropertyOp54
 70
     1
102
RTVSPropertyOp55
 70
     1
102
RTVSPropertyOp56
 70
     1
102
RTVSPropertyOp57
 70
     1
102
RTVSPost2010Prop28
280
     1
102
RTVSPost2010PropOp28
 70
     1
102
RTVSPost2010Prop29
280
     1
102
RTVSPost2010PropOp29
 70
     1
102
RTVSPost2010Prop30
280
     0
102
RTVSPost2010PropOp30
 70
     1
102
RTVSPost2010Prop31
280
     0
102
RTVSPost2010PropOp31
 70
     1
102
RTVSPost2010Prop32
280
     0
102
RTVSPost2010PropOp32
 70
     1
102
RTVSPost2010Prop33
280
     0
102
RTVSPost2010PropOp33
 70
     1
102
RTVSPost2010Prop34
280
     0
102
RTVSPost2010PropOp34
 70
     1
102
RTVSPost2010Prop35
280
     0
102
RTVSPost2010PropOp35
 70
     1
102
RTVSPost2010Prop36
280
     0
102
RTVSPost2010PropOp36
 70
     1
102
RTVSPost2010Prop37
 90
       50
102
RTVSPost2010PropOp37
 70
     1
102
RTVSPost2010Prop38
140
0.0
102
RTVSPost2010PropOp38
 70
     1
102
RTVSPost2010Prop39
140
1.0
102
RTVSPost2010PropOp39
 70
     1
102
RTVSPost2010Prop40
 90
        0
102
RTVSPost2010PropOp40
 70
     1
102
RTVSPost2010Prop41ColorIndex
 90
       18
102
RTVSPost2010Prop41ColorRGB
 90
        0
102
RTVSPost2010PropOp41
 70
     1
102
RTVSPost2010Prop42
 90
       50
102
RTVSPost2010PropOp42
 70
     1
102
RTVSPost2010Prop43
 90
        3
102
RTVSPost2010PropOp43
 70
     1
102
RTVSPost2010Prop44ColorIndex
 90
        5
102
RTVSPost2010Prop44ColorRGB
 90
      255
102
RTVSPost2010PropOp44
 70
     1
102
RTVSPost2010Prop45
280
     0
102
RTVSPost2010PropOp45
 70
     1
102
RTVSPost2010Prop46
 90
       50
102
RTVSPost2010PropOp46
 70
     1
102
RTVSPost2010Prop47
 90
       50
102
RTVSPost2010PropOp47
 70
     1
102
RTVSPost2010Prop48
 90
       50
102
RTVSPost2010PropOp48
 70
     1
102
RTVSPost2010Prop49
280
     0
102
RTVSPost2010PropOp49
 70
     1
102
RTVSPost2010Prop50
 90
       50
102
RTVSPost2010PropOp50
 70
     1
102
RTVSPost2010Prop51ColorIndex
 90
      256
102
RTVSPost2010Prop51ColorRGB
 90
-16777216
102
RTVSPost2010PropOp51
 70
     0
102
RTVSPost2010Prop52
140
1.0
102
RTVSPost2010PropOp52
 70
     0
102
RTVSPost2010Prop53
 90
        2
102
RTVSPost2010PropOp53
 70
     1
102
RTVSPost2010Prop54
  1
strokes_ogs.tif
102
RTVSPost2010PropOp54
 70
     1
102
RTVSPost2010Prop55
280
     0
102
RTVSPost2010PropOp55
 70
     1
102
RTVSPost2010Prop56
140
1.0
102
RTVSPost2010PropOp56
 70
     1
102
RTVSPost2010Prop57
140
1.0
102
RTVSPost2010PropOp57
 70
     1
  0
XRECORD
  5
36D
102
{ACAD_REACTORS
330
36C
102
}
330
36C
100
AcDbXrecord
280
     1
102
RTVSPropertyOp0
 70
     1
102
RTVSPropertyOp1
 70
     1
102
RTVSPropertyOp2
 70
     1
102
RTVSPropertyOp3
 70
     1
102
RTVSPropertyOp4
 70
     1
102
RTVSPropertyOp5
 70
     1
102
RTVSPropertyOp6
 70
     1
102
RTVSPropertyOp7
 70
     1
102
RTVSPropertyOp8
 70
     1
102
RTVSPropertyOp9
 70
     1
102
RTVSPropertyOp10
 70
     1
102
RTVSPropertyOp11
 70
     1
102
RTVSPropertyOp12
 70
     1
102
RTVSPropertyOp13
 70
     1
102
RTVSPropertyOp14
 70
     1
102
RTVSPropertyOp15
 70
     1
102
RTVSPropertyOp16
 70
     1
102
RTVSPropertyOp17
 70
     1
102
RTVSPropertyOp18
 70
     1
102
RTVSPropertyOp19
 70
     1
102
RTVSPropertyOp20
 70
     1
102
RTVSPropertyOp21
 70
     1
102
RTVSPropertyOp22
 70
     1
102
RTVSPropertyOp23
 70
     1
102
RTVSPropertyOp24
 70
     1
102
RTVSPropertyOp25
 70
     1
102
RTVSPropertyOp26
 70
     1
102
RTVSPropertyOp27
 70
     1
102
RTVSPropertyOp28
 70
     1
102
RTVSPropertyOp29
 70
     1
102
RTVSPropertyOp30
 70
     1
102
RTVSPropertyOp31
 70
     1
102
RTVSPropertyOp32
 70
     1
102
RTVSPropertyOp33
 70
     1
102
RTVSPropertyOp34
 70
     1
102
RTVSPropertyOp35
 70
     1
102
RTVSPropertyOp36
 70
     1
102
RTVSPropertyOp37
 70
     1
102
RTVSPropertyOp38
 70
     1
102
RTVSPropertyOp39
 70
     1
102
RTVSPropertyOp40
 70
     1
102
RTVSPropertyOp41
 70
     1
102
RTVSPropertyOp42
 70
     1
102
RTVSPropertyOp43
 70
     1
102
RTVSPropertyOp44
 70
     1
102
RTVSPropertyOp45
 70
     1
102
RTVSPropertyOp46
 70
     1
102
RTVSPropertyOp47
 70
     1
102
RTVSPropertyOp48
 70
     1
102
RTVSPropertyOp49
 70
     1
102
RTVSPropertyOp50
 70
     1
102
RTVSPropertyOp51
 70
     0
102
RTVSPropertyOp52
 70
     0
102
RTVSPropertyOp53
 70
     1
102
RTVSPropertyOp54
 70
     1
102
RTVSPropertyOp55
 70
     1
102
RTVSPropertyOp56
 70
     1
102
RTVSPropertyOp57
 70
     1
102
RTVSPost2010Prop28
280
     0
102
RTVSPost2010PropOp28
 70
     1
102
RTVSPost2010Prop29
280
     1
102
RTVSPost2010PropOp29
 70
     1
102
RTVSPost2010Prop30
280
     1
102
RTVSPost2010PropOp30
 70
     1
102
RTVSPost2010Prop31
280
     0
102
RTVSPost2010PropOp31
 70
     1
102
RTVSPost2010Prop32
280
     0
102
RTVSPost2010PropOp32
 70
     1
102
RTVSPost2010Prop33
280
     0
102
RTVSPost2010PropOp33
 70
     1
102
RTVSPost2010Prop34
280
     0
102
RTVSPost2010PropOp34
 70
     1
102
RTVSPost2010Prop35
280
     0
102
RTVSPost2010PropOp35
 70
     1
102
RTVSPost2010Prop36
280
     0
102
RTVSPost2010PropOp36
 70
     1
102
RTVSPost2010Prop37
 90
       50
102
RTVSPost2010PropOp37
 70
     1
102
RTVSPost2010Prop38
140
0.0
102
RTVSPost2010PropOp38
 70
     1
102
RTVSPost2010Prop39
140
1.0
102
RTVSPost2010PropOp39
 70
     1
102
RTVSPost2010Prop40
 90
        0
102
RTVSPost2010PropOp40
 70
     1
102
RTVSPost2010Prop41ColorIndex
 90
       18
102
RTVSPost2010Prop41ColorRGB
 90
        0
102
RTVSPost2010PropOp41
 70
     1
102
RTVSPost2010Prop42
 90
       50
102
RTVSPost2010PropOp42
 70
     1
102
RTVSPost2010Prop43
 90
        3
102
RTVSPost2010PropOp43
 70
     1
102
RTVSPost2010Prop44ColorIndex
 90
        5
102
RTVSPost2010Prop44ColorRGB
 90
      255
102
RTVSPost2010PropOp44
 70
     1
102
RTVSPost2010Prop45
280
     0
102
RTVSPost2010PropOp45
 70
     1
102
RTVSPost2010Prop46
 90
       50
102
RTVSPost2010PropOp46
 70
     1
102
RTVSPost2010Prop47
 90
       50
102
RTVSPost2010PropOp47
 70
     1
102
RTVSPost2010Prop48
 90
       50
102
RTVSPost2010PropOp48
 70
     1
102
RTVSPost2010Prop49
280
     0
102
RTVSPost2010PropOp49
 70
     1
102
RTVSPost2010Prop50
 90
       50
102
RTVSPost2010PropOp50
 70
     1
102
RTVSPost2010Prop51ColorIndex
 90
      256
102
RTVSPost2010Prop51ColorRGB
 90
-16777216
102
RTVSPost2010PropOp51
 70
     0
102
RTVSPost2010Prop52
140
1.0
102
RTVSPost2010PropOp52
 70
     0
102
RTVSPost2010Prop53
 90
        2
102
RTVSPost2010PropOp53
 70
     1
102
RTVSPost2010Prop54
  1
strokes_ogs.tif
102
RTVSPost2010PropOp54
 70
     1
102
RTVSPost2010Prop55
280
     0
102
RTVSPost2010PropOp55
 70
     1
102
RTVSPost2010Prop56
140
1.0
102
RTVSPost2010PropOp56
 70
     1
102
RTVSPost2010Prop57
140
1.0
102
RTVSPost2010PropOp57
 70
     1
  0
XRECORD
  5
375
102
{ACAD_REACTORS
330
374
102
}
330
374
100
AcDbXrecord
280
     1
102
RTVSPropertyOp0
 70
     1
102
RTVSPropertyOp1
 70
     1
102
RTVSPropertyOp2
 70
     1
102
RTVSPropertyOp3
 70
     1
102
RTVSPropertyOp4
 70
     1
102
RTVSPropertyOp5
 70
     1
102
RTVSPropertyOp6
 70
     1
102
RTVSPropertyOp7
 70
     1
102
RTVSPropertyOp8
 70
     1
102
RTVSPropertyOp9
 70
     1
102
RTVSPropertyOp10
 70
     1
102
RTVSPropertyOp11
 70
     1
102
RTVSPropertyOp12
 70
     1
102
RTVSPropertyOp13
 70
     1
102
RTVSPropertyOp14
 70
     1
102
RTVSPropertyOp15
 70
     1
102
RTVSPropertyOp16
 70
     1
102
RTVSPropertyOp17
 70
     1
102
RTVSPropertyOp18
 70
     1
102
RTVSPropertyOp19
 70
     1
102
RTVSPropertyOp20
 70
     1
102
RTVSPropertyOp21
 70
     1
102
RTVSPropertyOp22
 70
     1
102
RTVSPropertyOp23
 70
     1
102
RTVSPropertyOp24
 70
     1
102
RTVSPropertyOp25
 70
     1
102
RTVSPropertyOp26
 70
     1
102
RTVSPropertyOp27
 70
     1
102
RTVSPropertyOp28
 70
     1
102
RTVSPropertyOp29
 70
     1
102
RTVSPropertyOp30
 70
     1
102
RTVSPropertyOp31
 70
     1
102
RTVSPropertyOp32
 70
     1
102
RTVSPropertyOp33
 70
     1
102
RTVSPropertyOp34
 70
     1
102
RTVSPropertyOp35
 70
     1
102
RTVSPropertyOp36
 70
     1
102
RTVSPropertyOp37
 70
     1
102
RTVSPropertyOp38
 70
     1
102
RTVSPropertyOp39
 70
     1
102
RTVSPropertyOp40
 70
     1
102
RTVSPropertyOp41
 70
     1
102
RTVSPropertyOp42
 70
     1
102
RTVSPropertyOp43
 70
     1
102
RTVSPropertyOp44
 70
     1
102
RTVSPropertyOp45
 70
     1
102
RTVSPropertyOp46
 70
     1
102
RTVSPropertyOp47
 70
     1
102
RTVSPropertyOp48
 70
     1
102
RTVSPropertyOp49
 70
     1
102
RTVSPropertyOp50
 70
     1
102
RTVSPropertyOp51
 70
     0
102
RTVSPropertyOp52
 70
     0
102
RTVSPropertyOp53
 70
     1
102
RTVSPropertyOp54
 70
     1
102
RTVSPropertyOp55
 70
     1
102
RTVSPropertyOp56
 70
     1
102
RTVSPropertyOp57
 70
     1
102
RTVSPost2010Prop28
280
     0
102
RTVSPost2010PropOp28
 70
     1
102
RTVSPost2010Prop29
280
     1
102
RTVSPost2010PropOp29
 70
     1
102
RTVSPost2010Prop30
280
     1
102
RTVSPost2010PropOp30
 70
     1
102
RTVSPost2010Prop31
280
     0
102
RTVSPost2010PropOp31
 70
     1
102
RTVSPost2010Prop32
280
     0
102
RTVSPost2010PropOp32
 70
     1
102
RTVSPost2010Prop33
280
     0
102
RTVSPost2010PropOp33
 70
     1
102
RTVSPost2010Prop34
280
     0
102
RTVSPost2010PropOp34
 70
     1
102
RTVSPost2010Prop35
280
     0
102
RTVSPost2010PropOp35
 70
     1
102
RTVSPost2010Prop36
280
     0
102
RTVSPost2010PropOp36
 70
     1
102
RTVSPost2010Prop37
 90
       50
102
RTVSPost2010PropOp37
 70
     1
102
RTVSPost2010Prop38
140
0.0
102
RTVSPost2010PropOp38
 70
     1
102
RTVSPost2010Prop39
140
1.0
102
RTVSPost2010PropOp39
 70
     1
102
RTVSPost2010Prop40
 90
        0
102
RTVSPost2010PropOp40
 70
     1
102
RTVSPost2010Prop41ColorIndex
 90
       18
102
RTVSPost2010Prop41ColorRGB
 90
        0
102
RTVSPost2010PropOp41
 70
     1
102
RTVSPost2010Prop42
 90
       50
102
RTVSPost2010PropOp42
 70
     1
102
RTVSPost2010Prop43
 90
        3
102
RTVSPost2010PropOp43
 70
     1
102
RTVSPost2010Prop44ColorIndex
 90
        5
102
RTVSPost2010Prop44ColorRGB
 90
      255
102
RTVSPost2010PropOp44
 70
     1
102
RTVSPost2010Prop45
280
     0
102
RTVSPost2010PropOp45
 70
     1
102
RTVSPost2010Prop46
 90
       50
102
RTVSPost2010PropOp46
 70
     1
102
RTVSPost2010Prop47
 90
       50
102
RTVSPost2010PropOp47
 70
     1
102
RTVSPost2010Prop48
 90
       50
102
RTVSPost2010PropOp48
 70
     1
102
RTVSPost2010Prop49
280
     0
102
RTVSPost2010PropOp49
 70
     1
102
RTVSPost2010Prop50
 90
       50
102
RTVSPost2010PropOp50
 70
     1
102
RTVSPost2010Prop51ColorIndex
 90
      256
102
RTVSPost2010Prop51ColorRGB
 90
-16777216
102
RTVSPost2010PropOp51
 70
     0
102
RTVSPost2010Prop52
140
1.0
102
RTVSPost2010PropOp52
 70
     0
102
RTVSPost2010Prop53
 90
        2
102
RTVSPost2010PropOp53
 70
     1
102
RTVSPost2010Prop54
  1
strokes_ogs.tif
102
RTVSPost2010PropOp54
 70
     1
102
RTVSPost2010Prop55
280
     0
102
RTVSPost2010PropOp55
 70
     1
102
RTVSPost2010Prop56
140
1.0
102
RTVSPost2010PropOp56
 70
     1
102
RTVSPost2010Prop57
140
1.0
102
RTVSPost2010PropOp57
 70
     1
  0
XRECORD
  5
37D
102
{ACAD_REACTORS
330
37C
102
}
330
37C
100
AcDbXrecord
280
     1
102
RTVSPropertyOp0
 70
     1
102
RTVSPropertyOp1
 70
     1
102
RTVSPropertyOp2
 70
     1
102
RTVSPropertyOp3
 70
     1
102
RTVSPropertyOp4
 70
     1
102
RTVSPropertyOp5
 70
     1
102
RTVSPropertyOp6
 70
     1
102
RTVSPropertyOp7
 70
     1
102
RTVSPropertyOp8
 70
     1
102
RTVSPropertyOp9
 70
     1
102
RTVSPropertyOp10
 70
     1
102
RTVSPropertyOp11
 70
     1
102
RTVSPropertyOp12
 70
     1
102
RTVSPropertyOp13
 70
     1
102
RTVSPropertyOp14
 70
     1
102
RTVSPropertyOp15
 70
     1
102
RTVSPropertyOp16
 70
     1
102
RTVSPropertyOp17
 70
     1
102
RTVSPropertyOp18
 70
     1
102
RTVSPropertyOp19
 70
     1
102
RTVSPropertyOp20
 70
     1
102
RTVSPropertyOp21
 70
     1
102
RTVSPropertyOp22
 70
     1
102
RTVSPropertyOp23
 70
     1
102
RTVSPropertyOp24
 70
     1
102
RTVSPropertyOp25
 70
     1
102
RTVSPropertyOp26
 70
     1
102
RTVSPropertyOp27
 70
     1
102
RTVSPropertyOp28
 70
     1
102
RTVSPropertyOp29
 70
     1
102
RTVSPropertyOp30
 70
     1
102
RTVSPropertyOp31
 70
     1
102
RTVSPropertyOp32
 70
     1
102
RTVSPropertyOp33
 70
     1
102
RTVSPropertyOp34
 70
     1
102
RTVSPropertyOp35
 70
     1
102
RTVSPropertyOp36
 70
     1
102
RTVSPropertyOp37
 70
     1
102
RTVSPropertyOp38
 70
     1
102
RTVSPropertyOp39
 70
     1
102
RTVSPropertyOp40
 70
     1
102
RTVSPropertyOp41
 70
     1
102
RTVSPropertyOp42
 70
     1
102
RTVSPropertyOp43
 70
     1
102
RTVSPropertyOp44
 70
     1
102
RTVSPropertyOp45
 70
     1
102
RTVSPropertyOp46
 70
     1
102
RTVSPropertyOp47
 70
     1
102
RTVSPropertyOp48
 70
     1
102
RTVSPropertyOp49
 70
     1
102
RTVSPropertyOp50
 70
     1
102
RTVSPropertyOp51
 70
     0
102
RTVSPropertyOp52
 70
     0
102
RTVSPropertyOp53
 70
     1
102
RTVSPropertyOp54
 70
     1
102
RTVSPropertyOp55
 70
     1
102
RTVSPropertyOp56
 70
     1
102
RTVSPropertyOp57
 70
     1
102
RTVSPost2010Prop28
280
     0
102
RTVSPost2010PropOp28
 70
     1
102
RTVSPost2010Prop29
280
     1
102
RTVSPost2010PropOp29
 70
     1
102
RTVSPost2010Prop30
280
     1
102
RTVSPost2010PropOp30
 70
     1
102
RTVSPost2010Prop31
280
     0
102
RTVSPost2010PropOp31
 70
     1
102
RTVSPost2010Prop32
280
     0
102
RTVSPost2010PropOp32
 70
     1
102
RTVSPost2010Prop33
280
     0
102
RTVSPost2010PropOp33
 70
     1
102
RTVSPost2010Prop34
280
     0
102
RTVSPost2010PropOp34
 70
     1
102
RTVSPost2010Prop35
280
     0
102
RTVSPost2010PropOp35
 70
     1
102
RTVSPost2010Prop36
280
     0
102
RTVSPost2010PropOp36
 70
     1
102
RTVSPost2010Prop37
 90
       50
102
RTVSPost2010PropOp37
 70
     1
102
RTVSPost2010Prop38
140
0.0
102
RTVSPost2010PropOp38
 70
     1
102
RTVSPost2010Prop39
140
1.0
102
RTVSPost2010PropOp39
 70
     1
102
RTVSPost2010Prop40
 90
        0
102
RTVSPost2010PropOp40
 70
     1
102
RTVSPost2010Prop41ColorIndex
 90
       18
102
RTVSPost2010Prop41ColorRGB
 90
        0
102
RTVSPost2010PropOp41
 70
     1
102
RTVSPost2010Prop42
 90
       50
102
RTVSPost2010PropOp42
 70
     1
102
RTVSPost2010Prop43
 90
        3
102
RTVSPost2010PropOp43
 70
     1
102
RTVSPost2010Prop44ColorIndex
 90
        5
102
RTVSPost2010Prop44ColorRGB
 90
      255
102
RTVSPost2010PropOp44
 70
     1
102
RTVSPost2010Prop45
280
     0
102
RTVSPost2010PropOp45
 70
     1
102
RTVSPost2010Prop46
 90
       50
102
RTVSPost2010PropOp46
 70
     1
102
RTVSPost2010Prop47
 90
       50
102
RTVSPost2010PropOp47
 70
     1
102
RTVSPost2010Prop48
 90
       50
102
RTVSPost2010PropOp48
 70
     1
102
RTVSPost2010Prop49
280
     0
102
RTVSPost2010PropOp49
 70
     1
102
RTVSPost2010Prop50
 90
       50
102
RTVSPost2010PropOp50
 70
     1
102
RTVSPost2010Prop51ColorIndex
 90
      256
102
RTVSPost2010Prop51ColorRGB
 90
-16777216
102
RTVSPost2010PropOp51
 70
     0
102
RTVSPost2010Prop52
140
1.0
102
RTVSPost2010PropOp52
 70
     0
102
RTVSPost2010Prop53
 90
        2
102
RTVSPost2010PropOp53
 70
     1
102
RTVSPost2010Prop54
  1
strokes_ogs.tif
102
RTVSPost2010PropOp54
 70
     1
102
RTVSPost2010Prop55
280
     0
102
RTVSPost2010PropOp55
 70
     1
102
RTVSPost2010Prop56
140
1.0
102
RTVSPost2010PropOp56
 70
     1
102
RTVSPost2010Prop57
140
1.0
102
RTVSPost2010PropOp57
 70
     1
  0
XRECORD
  5
371
102
{ACAD_REACTORS
330
370
102
}
330
370
100
AcDbXrecord
280
     1
102
RTVSPropertyOp0
 70
     1
102
RTVSPropertyOp1
 70
     1
102
RTVSPropertyOp2
 70
     1
102
RTVSPropertyOp3
 70
     1
102
RTVSPropertyOp4
 70
     1
102
RTVSPropertyOp5
 70
     1
102
RTVSPropertyOp6
 70
     1
102
RTVSPropertyOp7
 70
     1
102
RTVSPropertyOp8
 70
     1
102
RTVSPropertyOp9
 70
     1
102
RTVSPropertyOp10
 70
     1
102
RTVSPropertyOp11
 70
     1
102
RTVSPropertyOp12
 70
     1
102
RTVSPropertyOp13
 70
     1
102
RTVSPropertyOp14
 70
     1
102
RTVSPropertyOp15
 70
     1
102
RTVSPropertyOp16
 70
     1
102
RTVSPropertyOp17
 70
     1
102
RTVSPropertyOp18
 70
     1
102
RTVSPropertyOp19
 70
     1
102
RTVSPropertyOp20
 70
     1
102
RTVSPropertyOp21
 70
     1
102
RTVSPropertyOp22
 70
     1
102
RTVSPropertyOp23
 70
     1
102
RTVSPropertyOp24
 70
     1
102
RTVSPropertyOp25
 70
     1
102
RTVSPropertyOp26
 70
     1
102
RTVSPropertyOp27
 70
     1
102
RTVSPropertyOp28
 70
     1
102
RTVSPropertyOp29
 70
     1
102
RTVSPropertyOp30
 70
     1
102
RTVSPropertyOp31
 70
     1
102
RTVSPropertyOp32
 70
     1
102
RTVSPropertyOp33
 70
     1
102
RTVSPropertyOp34
 70
     1
102
RTVSPropertyOp35
 70
     1
102
RTVSPropertyOp36
 70
     1
102
RTVSPropertyOp37
 70
     1
102
RTVSPropertyOp38
 70
     1
102
RTVSPropertyOp39
 70
     1
102
RTVSPropertyOp40
 70
     1
102
RTVSPropertyOp41
 70
     1
102
RTVSPropertyOp42
 70
     1
102
RTVSPropertyOp43
 70
     1
102
RTVSPropertyOp44
 70
     1
102
RTVSPropertyOp45
 70
     1
102
RTVSPropertyOp46
 70
     1
102
RTVSPropertyOp47
 70
     1
102
RTVSPropertyOp48
 70
     1
102
RTVSPropertyOp49
 70
     1
102
RTVSPropertyOp50
 70
     1
102
RTVSPropertyOp51
 70
     0
102
RTVSPropertyOp52
 70
     0
102
RTVSPropertyOp53
 70
     1
102
RTVSPropertyOp54
 70
     1
102
RTVSPropertyOp55
 70
     1
102
RTVSPropertyOp56
 70
     1
102
RTVSPropertyOp57
 70
     1
102
RTVSPost2010Prop28
280
     0
102
RTVSPost2010PropOp28
 70
     1
102
RTVSPost2010Prop29
280
     1
102
RTVSPost2010PropOp29
 70
     1
102
RTVSPost2010Prop30
280
     1
102
RTVSPost2010PropOp30
 70
     1
102
RTVSPost2010Prop31
280
     0
102
RTVSPost2010PropOp31
 70
     1
102
RTVSPost2010Prop32
280
     0
102
RTVSPost2010PropOp32
 70
     1
102
RTVSPost2010Prop33
280
     0
102
RTVSPost2010PropOp33
 70
     1
102
RTVSPost2010Prop34
280
     0
102
RTVSPost2010PropOp34
 70
     1
102
RTVSPost2010Prop35
280
     0
102
RTVSPost2010PropOp35
 70
     1
102
RTVSPost2010Prop36
280
     0
102
RTVSPost2010PropOp36
 70
     1
102
RTVSPost2010Prop37
 90
       50
102
RTVSPost2010PropOp37
 70
     1
102
RTVSPost2010Prop38
140
0.0
102
RTVSPost2010PropOp38
 70
     1
102
RTVSPost2010Prop39
140
1.0
102
RTVSPost2010PropOp39
 70
     1
102
RTVSPost2010Prop40
 90
        0
102
RTVSPost2010PropOp40
 70
     1
102
RTVSPost2010Prop41ColorIndex
 90
       18
102
RTVSPost2010Prop41ColorRGB
 90
        0
102
RTVSPost2010PropOp41
 70
     1
102
RTVSPost2010Prop42
 90
       50
102
RTVSPost2010PropOp42
 70
     1
102
RTVSPost2010Prop43
 90
        3
102
RTVSPost2010PropOp43
 70
     1
102
RTVSPost2010Prop44ColorIndex
 90
        5
102
RTVSPost2010Prop44ColorRGB
 90
      255
102
RTVSPost2010PropOp44
 70
     1
102
RTVSPost2010Prop45
280
     0
102
RTVSPost2010PropOp45
 70
     1
102
RTVSPost2010Prop46
 90
       50
102
RTVSPost2010PropOp46
 70
     1
102
RTVSPost2010Prop47
 90
       50
102
RTVSPost2010PropOp47
 70
     1
102
RTVSPost2010Prop48
 90
       50
102
RTVSPost2010PropOp48
 70
     1
102
RTVSPost2010Prop49
280
     0
102
RTVSPost2010PropOp49
 70
     1
102
RTVSPost2010Prop50
 90
       50
102
RTVSPost2010PropOp50
 70
     1
102
RTVSPost2010Prop51ColorIndex
 90
      256
102
RTVSPost2010Prop51ColorRGB
 90
-16777216
102
RTVSPost2010PropOp51
 70
     0
102
RTVSPost2010Prop52
140
1.0
102
RTVSPost2010PropOp52
 70
     0
102
RTVSPost2010Prop53
 90
        2
102
RTVSPost2010PropOp53
 70
     1
102
RTVSPost2010Prop54
  1
strokes_ogs.tif
102
RTVSPost2010PropOp54
 70
     1
102
RTVSPost2010Prop55
280
     0
102
RTVSPost2010PropOp55
 70
     1
102
RTVSPost2010Prop56
140
1.0
102
RTVSPost2010PropOp56
 70
     1
102
RTVSPost2010Prop57
140
1.0
102
RTVSPost2010PropOp57
 70
     1
  0
XRECORD
  5
373
102
{ACAD_REACTORS
330
372
102
}
330
372
100
AcDbXrecord
280
     1
102
RTVSPropertyOp0
 70
     1
102
RTVSPropertyOp1
 70
     1
102
RTVSPropertyOp2
 70
     1
102
RTVSPropertyOp3
 70
     1
102
RTVSPropertyOp4
 70
     1
102
RTVSPropertyOp5
 70
     1
102
RTVSPropertyOp6
 70
     1
102
RTVSPropertyOp7
 70
     1
102
RTVSPropertyOp8
 70
     1
102
RTVSPropertyOp9
 70
     1
102
RTVSPropertyOp10
 70
     1
102
RTVSPropertyOp11
 70
     1
102
RTVSPropertyOp12
 70
     1
102
RTVSPropertyOp13
 70
     1
102
RTVSPropertyOp14
 70
     1
102
RTVSPropertyOp15
 70
     1
102
RTVSPropertyOp16
 70
     1
102
RTVSPropertyOp17
 70
     1
102
RTVSPropertyOp18
 70
     1
102
RTVSPropertyOp19
 70
     1
102
RTVSPropertyOp20
 70
     1
102
RTVSPropertyOp21
 70
     1
102
RTVSPropertyOp22
 70
     1
102
RTVSPropertyOp23
 70
     1
102
RTVSPropertyOp24
 70
     1
102
RTVSPropertyOp25
 70
     1
102
RTVSPropertyOp26
 70
     1
102
RTVSPropertyOp27
 70
     1
102
RTVSPropertyOp28
 70
     1
102
RTVSPropertyOp29
 70
     1
102
RTVSPropertyOp30
 70
     1
102
RTVSPropertyOp31
 70
     1
102
RTVSPropertyOp32
 70
     1
102
RTVSPropertyOp33
 70
     1
102
RTVSPropertyOp34
 70
     1
102
RTVSPropertyOp35
 70
     1
102
RTVSPropertyOp36
 70
     1
102
RTVSPropertyOp37
 70
     1
102
RTVSPropertyOp38
 70
     1
102
RTVSPropertyOp39
 70
     1
102
RTVSPropertyOp40
 70
     1
102
RTVSPropertyOp41
 70
     1
102
RTVSPropertyOp42
 70
     1
102
RTVSPropertyOp43
 70
     1
102
RTVSPropertyOp44
 70
     1
102
RTVSPropertyOp45
 70
     1
102
RTVSPropertyOp46
 70
     1
102
RTVSPropertyOp47
 70
     1
102
RTVSPropertyOp48
 70
     1
102
RTVSPropertyOp49
 70
     1
102
RTVSPropertyOp50
 70
     1
102
RTVSPropertyOp51
 70
     0
102
RTVSPropertyOp52
 70
     0
102
RTVSPropertyOp53
 70
     1
102
RTVSPropertyOp54
 70
     1
102
RTVSPropertyOp55
 70
     1
102
RTVSPropertyOp56
 70
     1
102
RTVSPropertyOp57
 70
     1
102
RTVSPost2010Prop28
280
     0
102
RTVSPost2010PropOp28
 70
     1
102
RTVSPost2010Prop29
280
     1
102
RTVSPost2010PropOp29
 70
     1
102
RTVSPost2010Prop30
280
     1
102
RTVSPost2010PropOp30
 70
     1
102
RTVSPost2010Prop31
280
     0
102
RTVSPost2010PropOp31
 70
     1
102
RTVSPost2010Prop32
280
     0
102
RTVSPost2010PropOp32
 70
     1
102
RTVSPost2010Prop33
280
     0
102
RTVSPost2010PropOp33
 70
     1
102
RTVSPost2010Prop34
280
     0
102
RTVSPost2010PropOp34
 70
     1
102
RTVSPost2010Prop35
280
     0
102
RTVSPost2010PropOp35
 70
     1
102
RTVSPost2010Prop36
280
     0
102
RTVSPost2010PropOp36
 70
     1
102
RTVSPost2010Prop37
 90
       50
102
RTVSPost2010PropOp37
 70
     1
102
RTVSPost2010Prop38
140
0.0
102
RTVSPost2010PropOp38
 70
     1
102
RTVSPost2010Prop39
140
1.0
102
RTVSPost2010PropOp39
 70
     1
102
RTVSPost2010Prop40
 90
        0
102
RTVSPost2010PropOp40
 70
     1
102
RTVSPost2010Prop41ColorIndex
 90
       18
102
RTVSPost2010Prop41ColorRGB
 90
        0
102
RTVSPost2010PropOp41
 70
     1
102
RTVSPost2010Prop42
 90
       50
102
RTVSPost2010PropOp42
 70
     1
102
RTVSPost2010Prop43
 90
        3
102
RTVSPost2010PropOp43
 70
     1
102
RTVSPost2010Prop44ColorIndex
 90
        5
102
RTVSPost2010Prop44ColorRGB
 90
      255
102
RTVSPost2010PropOp44
 70
     1
102
RTVSPost2010Prop45
280
     0
102
RTVSPost2010PropOp45
 70
     1
102
RTVSPost2010Prop46
 90
       50
102
RTVSPost2010PropOp46
 70
     1
102
RTVSPost2010Prop47
 90
       50
102
RTVSPost2010PropOp47
 70
     1
102
RTVSPost2010Prop48
 90
       50
102
RTVSPost2010PropOp48
 70
     1
102
RTVSPost2010Prop49
280
     0
102
RTVSPost2010PropOp49
 70
     1
102
RTVSPost2010Prop50
 90
       50
102
RTVSPost2010PropOp50
 70
     1
102
RTVSPost2010Prop51ColorIndex
 90
      256
102
RTVSPost2010Prop51ColorRGB
 90
-16777216
102
RTVSPost2010PropOp51
 70
     0
102
RTVSPost2010Prop52
140
1.0
102
RTVSPost2010PropOp52
 70
     0
102
RTVSPost2010Prop53
 90
        2
102
RTVSPost2010PropOp53
 70
     1
102
RTVSPost2010Prop54
  1
strokes_ogs.tif
102
RTVSPost2010PropOp54
 70
     1
102
RTVSPost2010Prop55
280
     0
102
RTVSPost2010PropOp55
 70
     1
102
RTVSPost2010Prop56
140
1.0
102
RTVSPost2010PropOp56
 70
     1
102
RTVSPost2010Prop57
140
1.0
102
RTVSPost2010PropOp57
 70
     1
  0
XRECORD
  5
383
102
{ACAD_REACTORS
330
382
102
}
330
382
100
AcDbXrecord
280
     1
102
RTVSPropertyOp0
 70
     0
102
RTVSPropertyOp1
 70
     0
102
RTVSPropertyOp2
 70
     0
102
RTVSPropertyOp3
 70
     0
102
RTVSPropertyOp4
 70
     0
102
RTVSPropertyOp5
 70
     0
102
RTVSPropertyOp6
 70
     0
102
RTVSPropertyOp7
 70
     0
102
RTVSPropertyOp8
 70
     0
102
RTVSPropertyOp9
 70
     0
102
RTVSPropertyOp10
 70
     0
102
RTVSPropertyOp11
 70
     0
102
RTVSPropertyOp12
 70
     0
102
RTVSPropertyOp13
 70
     0
102
RTVSPropertyOp14
 70
     2
102
RTVSPropertyOp15
 70
     0
102
RTVSPropertyOp16
 70
     0
102
RTVSPropertyOp17
 70
     0
102
RTVSPropertyOp18
 70
     0
102
RTVSPropertyOp19
 70
     0
102
RTVSPropertyOp20
 70
     0
102
RTVSPropertyOp21
 70
     0
102
RTVSPropertyOp22
 70
     0
102
RTVSPropertyOp23
 70
     0
102
RTVSPropertyOp24
 70
     0
102
RTVSPropertyOp25
 70
     0
102
RTVSPropertyOp26
 70
     0
102
RTVSPropertyOp27
 70
     0
102
RTVSPropertyOp28
 70
     0
102
RTVSPropertyOp29
 70
     0
102
RTVSPropertyOp30
 70
     0
102
RTVSPropertyOp31
 70
     0
102
RTVSPropertyOp32
 70
     0
102
RTVSPropertyOp33
 70
     0
102
RTVSPropertyOp34
 70
     0
102
RTVSPropertyOp35
 70
     0
102
RTVSPropertyOp36
 70
     0
102
RTVSPropertyOp37
 70
     0
102
RTVSPropertyOp38
 70
     0
102
RTVSPropertyOp39
 70
     0
102
RTVSPropertyOp40
 70
     0
102
RTVSPropertyOp41
 70
     0
102
RTVSPropertyOp42
 70
     0
102
RTVSPropertyOp43
 70
     0
102
RTVSPropertyOp44
 70
     0
102
RTVSPropertyOp45
 70
     0
102
RTVSPropertyOp46
 70
     0
102
RTVSPropertyOp47
 70
     0
102
RTVSPropertyOp48
 70
     0
102
RTVSPropertyOp49
 70
     0
102
RTVSPropertyOp50
 70
     0
102
RTVSPropertyOp51
 70
     0
102
RTVSPropertyOp52
 70
     0
102
RTVSPropertyOp53
 70
     0
102
RTVSPropertyOp54
 70
     0
102
RTVSPropertyOp55
 70
     0
102
RTVSPropertyOp56
 70
     0
102
RTVSPropertyOp57
 70
     0
102
RTVSPost2010Prop28
280
     0
102
RTVSPost2010PropOp28
 70
     0
102
RTVSPost2010Prop29
280
     1
102
RTVSPost2010PropOp29
 70
     0
102
RTVSPost2010Prop30
280
     1
102
RTVSPost2010PropOp30
 70
     0
102
RTVSPost2010Prop31
280
     0
102
RTVSPost2010PropOp31
 70
     0
102
RTVSPost2010Prop32
280
     0
102
RTVSPost2010PropOp32
 70
     0
102
RTVSPost2010Prop33
280
     0
102
RTVSPost2010PropOp33
 70
     0
102
RTVSPost2010Prop34
280
     0
102
RTVSPost2010PropOp34
 70
     0
102
RTVSPost2010Prop35
280
     0
102
RTVSPost2010PropOp35
 70
     0
102
RTVSPost2010Prop36
280
     0
102
RTVSPost2010PropOp36
 70
     0
102
RTVSPost2010Prop37
 90
       50
102
RTVSPost2010PropOp37
 70
     0
102
RTVSPost2010Prop38
140
0.0
102
RTVSPost2010PropOp38
 70
     0
102
RTVSPost2010Prop39
140
1.0
102
RTVSPost2010PropOp39
 70
     0
102
RTVSPost2010Prop40
 90
        0
102
RTVSPost2010PropOp40
 70
     0
102
RTVSPost2010Prop41ColorIndex
 90
       18
102
RTVSPost2010Prop41ColorRGB
 90
        0
102
RTVSPost2010PropOp41
 70
     0
102
RTVSPost2010Prop42
 90
       50
102
RTVSPost2010PropOp42
 70
     0
102
RTVSPost2010Prop43
 90
        3
102
RTVSPost2010PropOp43
 70
     0
102
RTVSPost2010Prop44ColorIndex
 90
        5
102
RTVSPost2010Prop44ColorRGB
 90
      255
102
RTVSPost2010PropOp44
 70
     0
102
RTVSPost2010Prop45
280
     0
102
RTVSPost2010PropOp45
 70
     0
102
RTVSPost2010Prop46
 90
       50
102
RTVSPost2010PropOp46
 70
     0
102
RTVSPost2010Prop47
 90
       50
102
RTVSPost2010PropOp47
 70
     0
102
RTVSPost2010Prop48
 90
       50
102
RTVSPost2010PropOp48
 70
     0
102
RTVSPost2010Prop49
280
     0
102
RTVSPost2010PropOp49
 70
     0
102
RTVSPost2010Prop50
 90
       50
102
RTVSPost2010PropOp50
 70
     0
102
RTVSPost2010Prop51ColorIndex
 90
      256
102
RTVSPost2010Prop51ColorRGB
 90
-16777216
102
RTVSPost2010PropOp51
 70
     0
102
RTVSPost2010Prop52
140
1.0
102
RTVSPost2010PropOp52
 70
     0
102
RTVSPost2010Prop53
 90
        2
102
RTVSPost2010PropOp53
 70
     0
102
RTVSPost2010Prop54
  1
strokes_ogs.tif
102
RTVSPost2010PropOp54
 70
     0
102
RTVSPost2010Prop55
280
     0
102
RTVSPost2010PropOp55
 70
     0
102
RTVSPost2010Prop56
140
1.0
102
RTVSPost2010PropOp56
 70
     0
102
RTVSPost2010Prop57
140
1.0
102
RTVSPost2010PropOp57
 70
     0
  0
XRECORD
  5
37B
102
{ACAD_REACTORS
330
37A
102
}
330
37A
100
AcDbXrecord
280
     1
102
RTVSPropertyOp0
 70
     1
102
RTVSPropertyOp1
 70
     1
102
RTVSPropertyOp2
 70
     1
102
RTVSPropertyOp3
 70
     1
102
RTVSPropertyOp4
 70
     1
102
RTVSPropertyOp5
 70
     1
102
RTVSPropertyOp6
 70
     1
102
RTVSPropertyOp7
 70
     1
102
RTVSPropertyOp8
 70
     1
102
RTVSPropertyOp9
 70
     1
102
RTVSPropertyOp10
 70
     1
102
RTVSPropertyOp11
 70
     1
102
RTVSPropertyOp12
 70
     1
102
RTVSPropertyOp13
 70
     1
102
RTVSPropertyOp14
 70
     1
102
RTVSPropertyOp15
 70
     1
102
RTVSPropertyOp16
 70
     1
102
RTVSPropertyOp17
 70
     1
102
RTVSPropertyOp18
 70
     1
102
RTVSPropertyOp19
 70
     1
102
RTVSPropertyOp20
 70
     1
102
RTVSPropertyOp21
 70
     1
102
RTVSPropertyOp22
 70
     1
102
RTVSPropertyOp23
 70
     1
102
RTVSPropertyOp24
 70
     1
102
RTVSPropertyOp25
 70
     1
102
RTVSPropertyOp26
 70
     1
102
RTVSPropertyOp27
 70
     1
102
RTVSPropertyOp28
 70
     1
102
RTVSPropertyOp29
 70
     1
102
RTVSPropertyOp30
 70
     1
102
RTVSPropertyOp31
 70
     1
102
RTVSPropertyOp32
 70
     1
102
RTVSPropertyOp33
 70
     1
102
RTVSPropertyOp34
 70
     1
102
RTVSPropertyOp35
 70
     1
102
RTVSPropertyOp36
 70
     1
102
RTVSPropertyOp37
 70
     1
102
RTVSPropertyOp38
 70
     1
102
RTVSPropertyOp39
 70
     1
102
RTVSPropertyOp40
 70
     1
102
RTVSPropertyOp41
 70
     1
102
RTVSPropertyOp42
 70
     1
102
RTVSPropertyOp43
 70
     1
102
RTVSPropertyOp44
 70
     1
102
RTVSPropertyOp45
 70
     1
102
RTVSPropertyOp46
 70
     1
102
RTVSPropertyOp47
 70
     1
102
RTVSPropertyOp48
 70
     1
102
RTVSPropertyOp49
 70
     1
102
RTVSPropertyOp50
 70
     1
102
RTVSPropertyOp51
 70
     0
102
RTVSPropertyOp52
 70
     0
102
RTVSPropertyOp53
 70
     1
102
RTVSPropertyOp54
 70
     1
102
RTVSPropertyOp55
 70
     1
102
RTVSPropertyOp56
 70
     1
102
RTVSPropertyOp57
 70
     1
102
RTVSPost2010Prop28
280
     0
102
RTVSPost2010PropOp28
 70
     1
102
RTVSPost2010Prop29
280
     1
102
RTVSPost2010PropOp29
 70
     1
102
RTVSPost2010Prop30
280
     1
102
RTVSPost2010PropOp30
 70
     1
102
RTVSPost2010Prop31
280
     0
102
RTVSPost2010PropOp31
 70
     1
102
RTVSPost2010Prop32
280
     0
102
RTVSPost2010PropOp32
 70
     1
102
RTVSPost2010Prop33
280
     0
102
RTVSPost2010PropOp33
 70
     1
102
RTVSPost2010Prop34
280
     0
102
RTVSPost2010PropOp34
 70
     1
102
RTVSPost2010Prop35
280
     0
102
RTVSPost2010PropOp35
 70
     1
102
RTVSPost2010Prop36
280
     0
102
RTVSPost2010PropOp36
 70
     1
102
RTVSPost2010Prop37
 90
       50
102
RTVSPost2010PropOp37
 70
     1
102
RTVSPost2010Prop38
140
0.0
102
RTVSPost2010PropOp38
 70
     1
102
RTVSPost2010Prop39
140
1.0
102
RTVSPost2010PropOp39
 70
     1
102
RTVSPost2010Prop40
 90
        0
102
RTVSPost2010PropOp40
 70
     1
102
RTVSPost2010Prop41ColorIndex
 90
       18
102
RTVSPost2010Prop41ColorRGB
 90
        0
102
RTVSPost2010PropOp41
 70
     1
102
RTVSPost2010Prop42
 90
       50
102
RTVSPost2010PropOp42
 70
     1
102
RTVSPost2010Prop43
 90
        3
102
RTVSPost2010PropOp43
 70
     1
102
RTVSPost2010Prop44ColorIndex
 90
        5
102
RTVSPost2010Prop44ColorRGB
 90
      255
102
RTVSPost2010PropOp44
 70
     1
102
RTVSPost2010Prop45
280
     0
102
RTVSPost2010PropOp45
 70
     1
102
RTVSPost2010Prop46
 90
       50
102
RTVSPost2010PropOp46
 70
     1
102
RTVSPost2010Prop47
 90
       50
102
RTVSPost2010PropOp47
 70
     1
102
RTVSPost2010Prop48
 90
       50
102
RTVSPost2010PropOp48
 70
     1
102
RTVSPost2010Prop49
280
     0
102
RTVSPost2010PropOp49
 70
     1
102
RTVSPost2010Prop50
 90
       50
102
RTVSPost2010PropOp50
 70
     1
102
RTVSPost2010Prop51ColorIndex
 90
      256
102
RTVSPost2010Prop51ColorRGB
 90
-16777216
102
RTVSPost2010PropOp51
 70
     0
102
RTVSPost2010Prop52
140
1.0
102
RTVSPost2010PropOp52
 70
     0
102
RTVSPost2010Prop53
 90
        2
102
RTVSPost2010PropOp53
 70
     1
102
RTVSPost2010Prop54
  1
strokes_ogs.tif
102
RTVSPost2010PropOp54
 70
     1
102
RTVSPost2010Prop55
280
     0
102
RTVSPost2010PropOp55
 70
     1
102
RTVSPost2010Prop56
140
1.0
102
RTVSPost2010PropOp56
 70
     1
102
RTVSPost2010Prop57
140
1.0
102
RTVSPost2010PropOp57
 70
     1
  0
XRECORD
  5
35F
102
{ACAD_REACTORS
330
35E
102
}
330
35E
100
AcDbXrecord
280
     1
102
RTVSPropertyOp0
 70
     1
102
RTVSPropertyOp1
 70
     1
102
RTVSPropertyOp2
 70
     1
102
RTVSPropertyOp3
 70
     1
102
RTVSPropertyOp4
 70
     1
102
RTVSPropertyOp5
 70
     1
102
RTVSPropertyOp6
 70
     1
102
RTVSPropertyOp7
 70
     1
102
RTVSPropertyOp8
 70
     1
102
RTVSPropertyOp9
 70
     1
102
RTVSPropertyOp10
 70
     1
102
RTVSPropertyOp11
 70
     1
102
RTVSPropertyOp12
 70
     1
102
RTVSPropertyOp13
 70
     1
102
RTVSPropertyOp14
 70
     1
102
RTVSPropertyOp15
 70
     1
102
RTVSPropertyOp16
 70
     1
102
RTVSPropertyOp17
 70
     1
102
RTVSPropertyOp18
 70
     1
102
RTVSPropertyOp19
 70
     1
102
RTVSPropertyOp20
 70
     1
102
RTVSPropertyOp21
 70
     1
102
RTVSPropertyOp22
 70
     1
102
RTVSPropertyOp23
 70
     1
102
RTVSPropertyOp24
 70
     1
102
RTVSPropertyOp25
 70
     1
102
RTVSPropertyOp26
 70
     1
102
RTVSPropertyOp27
 70
     1
102
RTVSPropertyOp28
 70
     1
102
RTVSPropertyOp29
 70
     1
102
RTVSPropertyOp30
 70
     1
102
RTVSPropertyOp31
 70
     1
102
RTVSPropertyOp32
 70
     1
102
RTVSPropertyOp33
 70
     1
102
RTVSPropertyOp34
 70
     1
102
RTVSPropertyOp35
 70
     1
102
RTVSPropertyOp36
 70
     1
102
RTVSPropertyOp37
 70
     1
102
RTVSPropertyOp38
 70
     1
102
RTVSPropertyOp39
 70
     1
102
RTVSPropertyOp40
 70
     1
102
RTVSPropertyOp41
 70
     1
102
RTVSPropertyOp42
 70
     1
102
RTVSPropertyOp43
 70
     1
102
RTVSPropertyOp44
 70
     1
102
RTVSPropertyOp45
 70
     1
102
RTVSPropertyOp46
 70
     1
102
RTVSPropertyOp47
 70
     1
102
RTVSPropertyOp48
 70
     1
102
RTVSPropertyOp49
 70
     1
102
RTVSPropertyOp50
 70
     1
102
RTVSPropertyOp51
 70
     0
102
RTVSPropertyOp52
 70
     0
102
RTVSPropertyOp53
 70
     1
102
RTVSPropertyOp54
 70
     1
102
RTVSPropertyOp55
 70
     1
102
RTVSPropertyOp56
 70
     1
102
RTVSPropertyOp57
 70
     1
102
RTVSPost2010Prop28
280
     0
102
RTVSPost2010PropOp28
 70
     1
102
RTVSPost2010Prop29
280
     1
102
RTVSPost2010PropOp29
 70
     1
102
RTVSPost2010Prop30
280
     1
102
RTVSPost2010PropOp30
 70
     1
102
RTVSPost2010Prop31
280
     0
102
RTVSPost2010PropOp31
 70
     1
102
RTVSPost2010Prop32
280
     0
102
RTVSPost2010PropOp32
 70
     1
102
RTVSPost2010Prop33
280
     0
102
RTVSPost2010PropOp33
 70
     1
102
RTVSPost2010Prop34
280
     0
102
RTVSPost2010PropOp34
 70
     1
102
RTVSPost2010Prop35
280
     0
102
RTVSPost2010PropOp35
 70
     1
102
RTVSPost2010Prop36
280
     0
102
RTVSPost2010PropOp36
 70
     1
102
RTVSPost2010Prop37
 90
       50
102
RTVSPost2010PropOp37
 70
     1
102
RTVSPost2010Prop38
140
0.0
102
RTVSPost2010PropOp38
 70
     1
102
RTVSPost2010Prop39
140
1.0
102
RTVSPost2010PropOp39
 70
     1
102
RTVSPost2010Prop40
 90
        0
102
RTVSPost2010PropOp40
 70
     1
102
RTVSPost2010Prop41ColorIndex
 90
       18
102
RTVSPost2010Prop41ColorRGB
 90
        0
102
RTVSPost2010PropOp41
 70
     1
102
RTVSPost2010Prop42
 90
       50
102
RTVSPost2010PropOp42
 70
     1
102
RTVSPost2010Prop43
 90
        3
102
RTVSPost2010PropOp43
 70
     1
102
RTVSPost2010Prop44ColorIndex
 90
        5
102
RTVSPost2010Prop44ColorRGB
 90
      255
102
RTVSPost2010PropOp44
 70
     1
102
RTVSPost2010Prop45
280
     0
102
RTVSPost2010PropOp45
 70
     1
102
RTVSPost2010Prop46
 90
       50
102
RTVSPost2010PropOp46
 70
     1
102
RTVSPost2010Prop47
 90
       50
102
RTVSPost2010PropOp47
 70
     1
102
RTVSPost2010Prop48
 90
       50
102
RTVSPost2010PropOp48
 70
     1
102
RTVSPost2010Prop49
280
     0
102
RTVSPost2010PropOp49
 70
     1
102
RTVSPost2010Prop50
 90
       50
102
RTVSPost2010PropOp50
 70
     1
102
RTVSPost2010Prop51ColorIndex
 90
      256
102
RTVSPost2010Prop51ColorRGB
 90
-16777216
102
RTVSPost2010PropOp51
 70
     0
102
RTVSPost2010Prop52
140
1.0
102
RTVSPost2010PropOp52
 70
     0
102
RTVSPost2010Prop53
 90
        2
102
RTVSPost2010PropOp53
 70
     1
102
RTVSPost2010Prop54
  1
strokes_ogs.tif
102
RTVSPost2010PropOp54
 70
     1
102
RTVSPost2010Prop55
280
     0
102
RTVSPost2010PropOp55
 70
     1
102
RTVSPost2010Prop56
140
1.0
102
RTVSPost2010PropOp56
 70
     1
102
RTVSPost2010Prop57
140
1.0
102
RTVSPost2010PropOp57
 70
     1
  0
XRECORD
  5
361
102
{ACAD_REACTORS
330
360
102
}
330
360
100
AcDbXrecord
280
     1
102
RTVSPropertyOp0
 70
     1
102
RTVSPropertyOp1
 70
     1
102
RTVSPropertyOp2
 70
     1
102
RTVSPropertyOp3
 70
     1
102
RTVSPropertyOp4
 70
     1
102
RTVSPropertyOp5
 70
     1
102
RTVSPropertyOp6
 70
     1
102
RTVSPropertyOp7
 70
     1
102
RTVSPropertyOp8
 70
     1
102
RTVSPropertyOp9
 70
     1
102
RTVSPropertyOp10
 70
     1
102
RTVSPropertyOp11
 70
     1
102
RTVSPropertyOp12
 70
     1
102
RTVSPropertyOp13
 70
     1
102
RTVSPropertyOp14
 70
     1
102
RTVSPropertyOp15
 70
     1
102
RTVSPropertyOp16
 70
     1
102
RTVSPropertyOp17
 70
     1
102
RTVSPropertyOp18
 70
     1
102
RTVSPropertyOp19
 70
     1
102
RTVSPropertyOp20
 70
     1
102
RTVSPropertyOp21
 70
     1
102
RTVSPropertyOp22
 70
     1
102
RTVSPropertyOp23
 70
     1
102
RTVSPropertyOp24
 70
     1
102
RTVSPropertyOp25
 70
     1
102
RTVSPropertyOp26
 70
     1
102
RTVSPropertyOp27
 70
     1
102
RTVSPropertyOp28
 70
     1
102
RTVSPropertyOp29
 70
     1
102
RTVSPropertyOp30
 70
     1
102
RTVSPropertyOp31
 70
     1
102
RTVSPropertyOp32
 70
     1
102
RTVSPropertyOp33
 70
     1
102
RTVSPropertyOp34
 70
     1
102
RTVSPropertyOp35
 70
     1
102
RTVSPropertyOp36
 70
     1
102
RTVSPropertyOp37
 70
     1
102
RTVSPropertyOp38
 70
     1
102
RTVSPropertyOp39
 70
     1
102
RTVSPropertyOp40
 70
     1
102
RTVSPropertyOp41
 70
     1
102
RTVSPropertyOp42
 70
     1
102
RTVSPropertyOp43
 70
     1
102
RTVSPropertyOp44
 70
     1
102
RTVSPropertyOp45
 70
     1
102
RTVSPropertyOp46
 70
     1
102
RTVSPropertyOp47
 70
     1
102
RTVSPropertyOp48
 70
     1
102
RTVSPropertyOp49
 70
     1
102
RTVSPropertyOp50
 70
     1
102
RTVSPropertyOp51
 70
     0
102
RTVSPropertyOp52
 70
     0
102
RTVSPropertyOp53
 70
     1
102
RTVSPropertyOp54
 70
     1
102
RTVSPropertyOp55
 70
     1
102
RTVSPropertyOp56
 70
     1
102
RTVSPropertyOp57
 70
     1
102
RTVSPost2010Prop28
280
     0
102
RTVSPost2010PropOp28
 70
     1
102
RTVSPost2010Prop29
280
     1
102
RTVSPost2010PropOp29
 70
     1
102
RTVSPost2010Prop30
280
     1
102
RTVSPost2010PropOp30
 70
     1
102
RTVSPost2010Prop31
280
     0
102
RTVSPost2010PropOp31
 70
     1
102
RTVSPost2010Prop32
280
     0
102
RTVSPost2010PropOp32
 70
     1
102
RTVSPost2010Prop33
280
     0
102
RTVSPost2010PropOp33
 70
     1
102
RTVSPost2010Prop34
280
     0
102
RTVSPost2010PropOp34
 70
     1
102
RTVSPost2010Prop35
280
     0
102
RTVSPost2010PropOp35
 70
     1
102
RTVSPost2010Prop36
280
     0
102
RTVSPost2010PropOp36
 70
     1
102
RTVSPost2010Prop37
 90
       50
102
RTVSPost2010PropOp37
 70
     1
102
RTVSPost2010Prop38
140
0.0
102
RTVSPost2010PropOp38
 70
     1
102
RTVSPost2010Prop39
140
1.0
102
RTVSPost2010PropOp39
 70
     1
102
RTVSPost2010Prop40
 90
        0
102
RTVSPost2010PropOp40
 70
     1
102
RTVSPost2010Prop41ColorIndex
 90
       18
102
RTVSPost2010Prop41ColorRGB
 90
        0
102
RTVSPost2010PropOp41
 70
     1
102
RTVSPost2010Prop42
 90
       50
102
RTVSPost2010PropOp42
 70
     1
102
RTVSPost2010Prop43
 90
        3
102
RTVSPost2010PropOp43
 70
     1
102
RTVSPost2010Prop44ColorIndex
 90
        5
102
RTVSPost2010Prop44ColorRGB
 90
      255
102
RTVSPost2010PropOp44
 70
     1
102
RTVSPost2010Prop45
280
     0
102
RTVSPost2010PropOp45
 70
     1
102
RTVSPost2010Prop46
 90
       50
102
RTVSPost2010PropOp46
 70
     1
102
RTVSPost2010Prop47
 90
       50
102
RTVSPost2010PropOp47
 70
     1
102
RTVSPost2010Prop48
 90
       50
102
RTVSPost2010PropOp48
 70
     1
102
RTVSPost2010Prop49
280
     0
102
RTVSPost2010PropOp49
 70
     1
102
RTVSPost2010Prop50
 90
       50
102
RTVSPost2010PropOp50
 70
     1
102
RTVSPost2010Prop51ColorIndex
 90
      256
102
RTVSPost2010Prop51ColorRGB
 90
-16777216
102
RTVSPost2010PropOp51
 70
     0
102
RTVSPost2010Prop52
140
1.0
102
RTVSPost2010PropOp52
 70
     0
102
RTVSPost2010Prop53
 90
        2
102
RTVSPost2010PropOp53
 70
     1
102
RTVSPost2010Prop54
  1
strokes_ogs.tif
102
RTVSPost2010PropOp54
 70
     1
102
RTVSPost2010Prop55
280
     0
102
RTVSPost2010PropOp55
 70
     1
102
RTVSPost2010Prop56
140
1.0
102
RTVSPost2010PropOp56
 70
     1
102
RTVSPost2010Prop57
140
1.0
102
RTVSPost2010PropOp57
 70
     1
  0
XRECORD
  5
363
102
{ACAD_REACTORS
330
362
102
}
330
362
100
AcDbXrecord
280
     1
102
RTVSPropertyOp0
 70
     1
102
RTVSPropertyOp1
 70
     1
102
RTVSPropertyOp2
 70
     1
102
RTVSPropertyOp3
 70
     1
102
RTVSPropertyOp4
 70
     1
102
RTVSPropertyOp5
 70
     1
102
RTVSPropertyOp6
 70
     1
102
RTVSPropertyOp7
 70
     1
102
RTVSPropertyOp8
 70
     1
102
RTVSPropertyOp9
 70
     1
102
RTVSPropertyOp10
 70
     1
102
RTVSPropertyOp11
 70
     1
102
RTVSPropertyOp12
 70
     1
102
RTVSPropertyOp13
 70
     1
102
RTVSPropertyOp14
 70
     1
102
RTVSPropertyOp15
 70
     1
102
RTVSPropertyOp16
 70
     1
102
RTVSPropertyOp17
 70
     1
102
RTVSPropertyOp18
 70
     1
102
RTVSPropertyOp19
 70
     1
102
RTVSPropertyOp20
 70
     1
102
RTVSPropertyOp21
 70
     1
102
RTVSPropertyOp22
 70
     1
102
RTVSPropertyOp23
 70
     1
102
RTVSPropertyOp24
 70
     1
102
RTVSPropertyOp25
 70
     1
102
RTVSPropertyOp26
 70
     1
102
RTVSPropertyOp27
 70
     1
102
RTVSPropertyOp28
 70
     1
102
RTVSPropertyOp29
 70
     1
102
RTVSPropertyOp30
 70
     1
102
RTVSPropertyOp31
 70
     1
102
RTVSPropertyOp32
 70
     1
102
RTVSPropertyOp33
 70
     1
102
RTVSPropertyOp34
 70
     1
102
RTVSPropertyOp35
 70
     1
102
RTVSPropertyOp36
 70
     1
102
RTVSPropertyOp37
 70
     1
102
RTVSPropertyOp38
 70
     1
102
RTVSPropertyOp39
 70
     1
102
RTVSPropertyOp40
 70
     1
102
RTVSPropertyOp41
 70
     1
102
RTVSPropertyOp42
 70
     1
102
RTVSPropertyOp43
 70
     1
102
RTVSPropertyOp44
 70
     1
102
RTVSPropertyOp45
 70
     1
102
RTVSPropertyOp46
 70
     1
102
RTVSPropertyOp47
 70
     1
102
RTVSPropertyOp48
 70
     1
102
RTVSPropertyOp49
 70
     1
102
RTVSPropertyOp50
 70
     1
102
RTVSPropertyOp51
 70
     0
102
RTVSPropertyOp52
 70
     0
102
RTVSPropertyOp53
 70
     1
102
RTVSPropertyOp54
 70
     1
102
RTVSPropertyOp55
 70
     1
102
RTVSPropertyOp56
 70
     1
102
RTVSPropertyOp57
 70
     1
102
RTVSPost2010Prop28
280
     0
102
RTVSPost2010PropOp28
 70
     1
102
RTVSPost2010Prop29
280
     1
102
RTVSPost2010PropOp29
 70
     1
102
RTVSPost2010Prop30
280
     1
102
RTVSPost2010PropOp30
 70
     1
102
RTVSPost2010Prop31
280
     0
102
RTVSPost2010PropOp31
 70
     1
102
RTVSPost2010Prop32
280
     0
102
RTVSPost2010PropOp32
 70
     1
102
RTVSPost2010Prop33
280
     0
102
RTVSPost2010PropOp33
 70
     1
102
RTVSPost2010Prop34
280
     0
102
RTVSPost2010PropOp34
 70
     1
102
RTVSPost2010Prop35
280
     0
102
RTVSPost2010PropOp35
 70
     1
102
RTVSPost2010Prop36
280
     0
102
RTVSPost2010PropOp36
 70
     1
102
RTVSPost2010Prop37
 90
       50
102
RTVSPost2010PropOp37
 70
     1
102
RTVSPost2010Prop38
140
0.0
102
RTVSPost2010PropOp38
 70
     1
102
RTVSPost2010Prop39
140
1.0
102
RTVSPost2010PropOp39
 70
     1
102
RTVSPost2010Prop40
 90
        0
102
RTVSPost2010PropOp40
 70
     1
102
RTVSPost2010Prop41ColorIndex
 90
       18
102
RTVSPost2010Prop41ColorRGB
 90
        0
102
RTVSPost2010PropOp41
 70
     1
102
RTVSPost2010Prop42
 90
       50
102
RTVSPost2010PropOp42
 70
     1
102
RTVSPost2010Prop43
 90
        3
102
RTVSPost2010PropOp43
 70
     1
102
RTVSPost2010Prop44ColorIndex
 90
        5
102
RTVSPost2010Prop44ColorRGB
 90
      255
102
RTVSPost2010PropOp44
 70
     1
102
RTVSPost2010Prop45
280
     0
102
RTVSPost2010PropOp45
 70
     1
102
RTVSPost2010Prop46
 90
       50
102
RTVSPost2010PropOp46
 70
     1
102
RTVSPost2010Prop47
 90
       50
102
RTVSPost2010PropOp47
 70
     1
102
RTVSPost2010Prop48
 90
       50
102
RTVSPost2010PropOp48
 70
     1
102
RTVSPost2010Prop49
280
     0
102
RTVSPost2010PropOp49
 70
     1
102
RTVSPost2010Prop50
 90
       50
102
RTVSPost2010PropOp50
 70
     1
102
RTVSPost2010Prop51ColorIndex
 90
      256
102
RTVSPost2010Prop51ColorRGB
 90
-16777216
102
RTVSPost2010PropOp51
 70
     0
102
RTVSPost2010Prop52
140
1.0
102
RTVSPost2010PropOp52
 70
     0
102
RTVSPost2010Prop53
 90
        2
102
RTVSPost2010PropOp53
 70
     1
102
RTVSPost2010Prop54
  1
strokes_ogs.tif
102
RTVSPost2010PropOp54
 70
     1
102
RTVSPost2010Prop55
280
     0
102
RTVSPost2010PropOp55
 70
     1
102
RTVSPost2010Prop56
140
1.0
102
RTVSPost2010PropOp56
 70
     1
102
RTVSPost2010Prop57
140
1.0
102
RTVSPost2010PropOp57
 70
     1
  0
XRECORD
  5
365
102
{ACAD_REACTORS
330
364
102
}
330
364
100
AcDbXrecord
280
     1
102
RTVSPropertyOp0
 70
     1
102
RTVSPropertyOp1
 70
     1
102
RTVSPropertyOp2
 70
     1
102
RTVSPropertyOp3
 70
     1
102
RTVSPropertyOp4
 70
     1
102
RTVSPropertyOp5
 70
     1
102
RTVSPropertyOp6
 70
     1
102
RTVSPropertyOp7
 70
     1
102
RTVSPropertyOp8
 70
     1
102
RTVSPropertyOp9
 70
     1
102
RTVSPropertyOp10
 70
     1
102
RTVSPropertyOp11
 70
     1
102
RTVSPropertyOp12
 70
     1
102
RTVSPropertyOp13
 70
     1
102
RTVSPropertyOp14
 70
     1
102
RTVSPropertyOp15
 70
     1
102
RTVSPropertyOp16
 70
     1
102
RTVSPropertyOp17
 70
     1
102
RTVSPropertyOp18
 70
     1
102
RTVSPropertyOp19
 70
     1
102
RTVSPropertyOp20
 70
     1
102
RTVSPropertyOp21
 70
     1
102
RTVSPropertyOp22
 70
     1
102
RTVSPropertyOp23
 70
     1
102
RTVSPropertyOp24
 70
     1
102
RTVSPropertyOp25
 70
     1
102
RTVSPropertyOp26
 70
     1
102
RTVSPropertyOp27
 70
     1
102
RTVSPropertyOp28
 70
     1
102
RTVSPropertyOp29
 70
     1
102
RTVSPropertyOp30
 70
     1
102
RTVSPropertyOp31
 70
     1
102
RTVSPropertyOp32
 70
     1
102
RTVSPropertyOp33
 70
     1
102
RTVSPropertyOp34
 70
     1
102
RTVSPropertyOp35
 70
     1
102
RTVSPropertyOp36
 70
     1
102
RTVSPropertyOp37
 70
     1
102
RTVSPropertyOp38
 70
     1
102
RTVSPropertyOp39
 70
     1
102
RTVSPropertyOp40
 70
     1
102
RTVSPropertyOp41
 70
     1
102
RTVSPropertyOp42
 70
     1
102
RTVSPropertyOp43
 70
     1
102
RTVSPropertyOp44
 70
     1
102
RTVSPropertyOp45
 70
     1
102
RTVSPropertyOp46
 70
     1
102
RTVSPropertyOp47
 70
     1
102
RTVSPropertyOp48
 70
     1
102
RTVSPropertyOp49
 70
     1
102
RTVSPropertyOp50
 70
     1
102
RTVSPropertyOp51
 70
     0
102
RTVSPropertyOp52
 70
     0
102
RTVSPropertyOp53
 70
     1
102
RTVSPropertyOp54
 70
     1
102
RTVSPropertyOp55
 70
     1
102
RTVSPropertyOp56
 70
     1
102
RTVSPropertyOp57
 70
     1
102
RTVSPost2010Prop28
280
     0
102
RTVSPost2010PropOp28
 70
     1
102
RTVSPost2010Prop29
280
     1
102
RTVSPost2010PropOp29
 70
     1
102
RTVSPost2010Prop30
280
     1
102
RTVSPost2010PropOp30
 70
     1
102
RTVSPost2010Prop31
280
     0
102
RTVSPost2010PropOp31
 70
     1
102
RTVSPost2010Prop32
280
     0
102
RTVSPost2010PropOp32
 70
     1
102
RTVSPost2010Prop33
280
     0
102
RTVSPost2010PropOp33
 70
     1
102
RTVSPost2010Prop34
280
     0
102
RTVSPost2010PropOp34
 70
     1
102
RTVSPost2010Prop35
280
     0
102
RTVSPost2010PropOp35
 70
     1
102
RTVSPost2010Prop36
280
     0
102
RTVSPost2010PropOp36
 70
     1
102
RTVSPost2010Prop37
 90
       50
102
RTVSPost2010PropOp37
 70
     1
102
RTVSPost2010Prop38
140
0.0
102
RTVSPost2010PropOp38
 70
     1
102
RTVSPost2010Prop39
140
1.0
102
RTVSPost2010PropOp39
 70
     1
102
RTVSPost2010Prop40
 90
        0
102
RTVSPost2010PropOp40
 70
     1
102
RTVSPost2010Prop41ColorIndex
 90
       18
102
RTVSPost2010Prop41ColorRGB
 90
        0
102
RTVSPost2010PropOp41
 70
     1
102
RTVSPost2010Prop42
 90
       50
102
RTVSPost2010PropOp42
 70
     1
102
RTVSPost2010Prop43
 90
        3
102
RTVSPost2010PropOp43
 70
     1
102
RTVSPost2010Prop44ColorIndex
 90
        5
102
RTVSPost2010Prop44ColorRGB
 90
      255
102
RTVSPost2010PropOp44
 70
     1
102
RTVSPost2010Prop45
280
     0
102
RTVSPost2010PropOp45
 70
     1
102
RTVSPost2010Prop46
 90
       50
102
RTVSPost2010PropOp46
 70
     1
102
RTVSPost2010Prop47
 90
       50
102
RTVSPost2010PropOp47
 70
     1
102
RTVSPost2010Prop48
 90
       50
102
RTVSPost2010PropOp48
 70
     1
102
RTVSPost2010Prop49
280
     0
102
RTVSPost2010PropOp49
 70
     1
102
RTVSPost2010Prop50
 90
       50
102
RTVSPost2010PropOp50
 70
     1
102
RTVSPost2010Prop51ColorIndex
 90
      256
102
RTVSPost2010Prop51ColorRGB
 90
-16777216
102
RTVSPost2010PropOp51
 70
     0
102
RTVSPost2010Prop52
140
1.0
102
RTVSPost2010PropOp52
 70
     0
102
RTVSPost2010Prop53
 90
        2
102
RTVSPost2010PropOp53
 70
     1
102
RTVSPost2010Prop54
  1
strokes_ogs.tif
102
RTVSPost2010PropOp54
 70
     1
102
RTVSPost2010Prop55
280
     0
102
RTVSPost2010PropOp55
 70
     1
102
RTVSPost2010Prop56
140
1.0
102
RTVSPost2010PropOp56
 70
     1
102
RTVSPost2010Prop57
140
1.0
102
RTVSPost2010PropOp57
 70
     1
  0
XRECORD
  5
36B
102
{ACAD_REACTORS
330
36A
102
}
330
36A
100
AcDbXrecord
280
     1
102
RTVSPropertyOp0
 70
     1
102
RTVSPropertyOp1
 70
     1
102
RTVSPropertyOp2
 70
     1
102
RTVSPropertyOp3
 70
     1
102
RTVSPropertyOp4
 70
     1
102
RTVSPropertyOp5
 70
     1
102
RTVSPropertyOp6
 70
     1
102
RTVSPropertyOp7
 70
     1
102
RTVSPropertyOp8
 70
     1
102
RTVSPropertyOp9
 70
     1
102
RTVSPropertyOp10
 70
     1
102
RTVSPropertyOp11
 70
     1
102
RTVSPropertyOp12
 70
     1
102
RTVSPropertyOp13
 70
     1
102
RTVSPropertyOp14
 70
     1
102
RTVSPropertyOp15
 70
     1
102
RTVSPropertyOp16
 70
     1
102
RTVSPropertyOp17
 70
     1
102
RTVSPropertyOp18
 70
     1
102
RTVSPropertyOp19
 70
     1
102
RTVSPropertyOp20
 70
     1
102
RTVSPropertyOp21
 70
     1
102
RTVSPropertyOp22
 70
     1
102
RTVSPropertyOp23
 70
     1
102
RTVSPropertyOp24
 70
     1
102
RTVSPropertyOp25
 70
     1
102
RTVSPropertyOp26
 70
     1
102
RTVSPropertyOp27
 70
     1
102
RTVSPropertyOp28
 70
     1
102
RTVSPropertyOp29
 70
     1
102
RTVSPropertyOp30
 70
     1
102
RTVSPropertyOp31
 70
     1
102
RTVSPropertyOp32
 70
     1
102
RTVSPropertyOp33
 70
     1
102
RTVSPropertyOp34
 70
     1
102
RTVSPropertyOp35
 70
     1
102
RTVSPropertyOp36
 70
     1
102
RTVSPropertyOp37
 70
     1
102
RTVSPropertyOp38
 70
     1
102
RTVSPropertyOp39
 70
     1
102
RTVSPropertyOp40
 70
     1
102
RTVSPropertyOp41
 70
     1
102
RTVSPropertyOp42
 70
     1
102
RTVSPropertyOp43
 70
     1
102
RTVSPropertyOp44
 70
     1
102
RTVSPropertyOp45
 70
     1
102
RTVSPropertyOp46
 70
     1
102
RTVSPropertyOp47
 70
     1
102
RTVSPropertyOp48
 70
     1
102
RTVSPropertyOp49
 70
     1
102
RTVSPropertyOp50
 70
     1
102
RTVSPropertyOp51
 70
     0
102
RTVSPropertyOp52
 70
     0
102
RTVSPropertyOp53
 70
     1
102
RTVSPropertyOp54
 70
     1
102
RTVSPropertyOp55
 70
     1
102
RTVSPropertyOp56
 70
     1
102
RTVSPropertyOp57
 70
     1
102
RTVSPost2010Prop28
280
     0
102
RTVSPost2010PropOp28
 70
     1
102
RTVSPost2010Prop29
280
     1
102
RTVSPost2010PropOp29
 70
     1
102
RTVSPost2010Prop30
280
     1
102
RTVSPost2010PropOp30
 70
     1
102
RTVSPost2010Prop31
280
     0
102
RTVSPost2010PropOp31
 70
     1
102
RTVSPost2010Prop32
280
     0
102
RTVSPost2010PropOp32
 70
     1
102
RTVSPost2010Prop33
280
     0
102
RTVSPost2010PropOp33
 70
     1
102
RTVSPost2010Prop34
280
     0
102
RTVSPost2010PropOp34
 70
     1
102
RTVSPost2010Prop35
280
     0
102
RTVSPost2010PropOp35
 70
     1
102
RTVSPost2010Prop36
280
     0
102
RTVSPost2010PropOp36
 70
     1
102
RTVSPost2010Prop37
 90
       50
102
RTVSPost2010PropOp37
 70
     1
102
RTVSPost2010Prop38
140
0.0
102
RTVSPost2010PropOp38
 70
     1
102
RTVSPost2010Prop39
140
1.0
102
RTVSPost2010PropOp39
 70
     1
102
RTVSPost2010Prop40
 90
        0
102
RTVSPost2010PropOp40
 70
     1
102
RTVSPost2010Prop41ColorIndex
 90
       18
102
RTVSPost2010Prop41ColorRGB
 90
        0
102
RTVSPost2010PropOp41
 70
     1
102
RTVSPost2010Prop42
 90
       50
102
RTVSPost2010PropOp42
 70
     1
102
RTVSPost2010Prop43
 90
        3
102
RTVSPost2010PropOp43
 70
     1
102
RTVSPost2010Prop44ColorIndex
 90
        5
102
RTVSPost2010Prop44ColorRGB
 90
      255
102
RTVSPost2010PropOp44
 70
     1
102
RTVSPost2010Prop45
280
     0
102
RTVSPost2010PropOp45
 70
     1
102
RTVSPost2010Prop46
 90
       50
102
RTVSPost2010PropOp46
 70
     1
102
RTVSPost2010Prop47
 90
       50
102
RTVSPost2010PropOp47
 70
     1
102
RTVSPost2010Prop48
 90
       50
102
RTVSPost2010PropOp48
 70
     1
102
RTVSPost2010Prop49
280
     0
102
RTVSPost2010PropOp49
 70
     1
102
RTVSPost2010Prop50
 90
       50
102
RTVSPost2010PropOp50
 70
     1
102
RTVSPost2010Prop51ColorIndex
 90
      256
102
RTVSPost2010Prop51ColorRGB
 90
-16777216
102
RTVSPost2010PropOp51
 70
     0
102
RTVSPost2010Prop52
140
1.0
102
RTVSPost2010PropOp52
 70
     0
102
RTVSPost2010Prop53
 90
        2
102
RTVSPost2010PropOp53
 70
     1
102
RTVSPost2010Prop54
  1
strokes_ogs.tif
102
RTVSPost2010PropOp54
 70
     1
102
RTVSPost2010Prop55
280
     0
102
RTVSPost2010PropOp55
 70
     1
102
RTVSPost2010Prop56
140
1.0
102
RTVSPost2010PropOp56
 70
     1
102
RTVSPost2010Prop57
140
1.0
102
RTVSPost2010PropOp57
 70
     1
  0
XRECORD
  5
37F
102
{ACAD_REACTORS
330
37E
102
}
330
37E
100
AcDbXrecord
280
     1
102
RTVSPropertyOp0
 70
     0
102
RTVSPropertyOp1
 70
     0
102
RTVSPropertyOp2
 70
     0
102
RTVSPropertyOp3
 70
     0
102
RTVSPropertyOp4
 70
     0
102
RTVSPropertyOp5
 70
     0
102
RTVSPropertyOp6
 70
     0
102
RTVSPropertyOp7
 70
     0
102
RTVSPropertyOp8
 70
     0
102
RTVSPropertyOp9
 70
     0
102
RTVSPropertyOp10
 70
     0
102
RTVSPropertyOp11
 70
     0
102
RTVSPropertyOp12
 70
     0
102
RTVSPropertyOp13
 70
     0
102
RTVSPropertyOp14
 70
     2
102
RTVSPropertyOp15
 70
     0
102
RTVSPropertyOp16
 70
     0
102
RTVSPropertyOp17
 70
     0
102
RTVSPropertyOp18
 70
     0
102
RTVSPropertyOp19
 70
     0
102
RTVSPropertyOp20
 70
     0
102
RTVSPropertyOp21
 70
     0
102
RTVSPropertyOp22
 70
     0
102
RTVSPropertyOp23
 70
     0
102
RTVSPropertyOp24
 70
     0
102
RTVSPropertyOp25
 70
     0
102
RTVSPropertyOp26
 70
     0
102
RTVSPropertyOp27
 70
     0
102
RTVSPropertyOp28
 70
     0
102
RTVSPropertyOp29
 70
     0
102
RTVSPropertyOp30
 70
     0
102
RTVSPropertyOp31
 70
     0
102
RTVSPropertyOp32
 70
     0
102
RTVSPropertyOp33
 70
     0
102
RTVSPropertyOp34
 70
     0
102
RTVSPropertyOp35
 70
     0
102
RTVSPropertyOp36
 70
     0
102
RTVSPropertyOp37
 70
     0
102
RTVSPropertyOp38
 70
     0
102
RTVSPropertyOp39
 70
     0
102
RTVSPropertyOp40
 70
     0
102
RTVSPropertyOp41
 70
     0
102
RTVSPropertyOp42
 70
     0
102
RTVSPropertyOp43
 70
     0
102
RTVSPropertyOp44
 70
     0
102
RTVSPropertyOp45
 70
     0
102
RTVSPropertyOp46
 70
     0
102
RTVSPropertyOp47
 70
     0
102
RTVSPropertyOp48
 70
     0
102
RTVSPropertyOp49
 70
     0
102
RTVSPropertyOp50
 70
     0
102
RTVSPropertyOp51
 70
     0
102
RTVSPropertyOp52
 70
     0
102
RTVSPropertyOp53
 70
     0
102
RTVSPropertyOp54
 70
     0
102
RTVSPropertyOp55
 70
     0
102
RTVSPropertyOp56
 70
     0
102
RTVSPropertyOp57
 70
     0
102
RTVSPost2010Prop28
280
     0
102
RTVSPost2010PropOp28
 70
     0
102
RTVSPost2010Prop29
280
     1
102
RTVSPost2010PropOp29
 70
     0
102
RTVSPost2010Prop30
280
     1
102
RTVSPost2010PropOp30
 70
     0
102
RTVSPost2010Prop31
280
     0
102
RTVSPost2010PropOp31
 70
     0
102
RTVSPost2010Prop32
280
     0
102
RTVSPost2010PropOp32
 70
     0
102
RTVSPost2010Prop33
280
     0
102
RTVSPost2010PropOp33
 70
     0
102
RTVSPost2010Prop34
280
     0
102
RTVSPost2010PropOp34
 70
     0
102
RTVSPost2010Prop35
280
     0
102
RTVSPost2010PropOp35
 70
     0
102
RTVSPost2010Prop36
280
     0
102
RTVSPost2010PropOp36
 70
     0
102
RTVSPost2010Prop37
 90
       50
102
RTVSPost2010PropOp37
 70
     0
102
RTVSPost2010Prop38
140
0.0
102
RTVSPost2010PropOp38
 70
     0
102
RTVSPost2010Prop39
140
1.0
102
RTVSPost2010PropOp39
 70
     0
102
RTVSPost2010Prop40
 90
        0
102
RTVSPost2010PropOp40
 70
     0
102
RTVSPost2010Prop41ColorIndex
 90
       18
102
RTVSPost2010Prop41ColorRGB
 90
        0
102
RTVSPost2010PropOp41
 70
     0
102
RTVSPost2010Prop42
 90
       50
102
RTVSPost2010PropOp42
 70
     0
102
RTVSPost2010Prop43
 90
        3
102
RTVSPost2010PropOp43
 70
     0
102
RTVSPost2010Prop44ColorIndex
 90
        5
102
RTVSPost2010Prop44ColorRGB
 90
      255
102
RTVSPost2010PropOp44
 70
     0
102
RTVSPost2010Prop45
280
     0
102
RTVSPost2010PropOp45
 70
     0
102
RTVSPost2010Prop46
 90
       50
102
RTVSPost2010PropOp46
 70
     0
102
RTVSPost2010Prop47
 90
       50
102
RTVSPost2010PropOp47
 70
     0
102
RTVSPost2010Prop48
 90
       50
102
RTVSPost2010PropOp48
 70
     0
102
RTVSPost2010Prop49
280
     0
102
RTVSPost2010PropOp49
 70
     0
102
RTVSPost2010Prop50
 90
       50
102
RTVSPost2010PropOp50
 70
     0
102
RTVSPost2010Prop51ColorIndex
 90
      256
102
RTVSPost2010Prop51ColorRGB
 90
-16777216
102
RTVSPost2010PropOp51
 70
     0
102
RTVSPost2010Prop52
140
1.0
102
RTVSPost2010PropOp52
 70
     0
102
RTVSPost2010Prop53
 90
        2
102
RTVSPost2010PropOp53
 70
     0
102
RTVSPost2010Prop54
  1
strokes_ogs.tif
102
RTVSPost2010PropOp54
 70
     0
102
RTVSPost2010Prop55
280
     0
102
RTVSPost2010PropOp55
 70
     0
102
RTVSPost2010Prop56
140
1.0
102
RTVSPost2010PropOp56
 70
     0
102
RTVSPost2010Prop57
140
1.0
102
RTVSPost2010PropOp57
 70
     0
  0
XRECORD
  5
379
102
{ACAD_REACTORS
330
378
102
}
330
378
100
AcDbXrecord
280
     1
102
RTVSPropertyOp0
 70
     1
102
RTVSPropertyOp1
 70
     1
102
RTVSPropertyOp2
 70
     1
102
RTVSPropertyOp3
 70
     1
102
RTVSPropertyOp4
 70
     1
102
RTVSPropertyOp5
 70
     1
102
RTVSPropertyOp6
 70
     1
102
RTVSPropertyOp7
 70
     1
102
RTVSPropertyOp8
 70
     1
102
RTVSPropertyOp9
 70
     1
102
RTVSPropertyOp10
 70
     1
102
RTVSPropertyOp11
 70
     1
102
RTVSPropertyOp12
 70
     1
102
RTVSPropertyOp13
 70
     1
102
RTVSPropertyOp14
 70
     1
102
RTVSPropertyOp15
 70
     1
102
RTVSPropertyOp16
 70
     1
102
RTVSPropertyOp17
 70
     1
102
RTVSPropertyOp18
 70
     1
102
RTVSPropertyOp19
 70
     1
102
RTVSPropertyOp20
 70
     1
102
RTVSPropertyOp21
 70
     1
102
RTVSPropertyOp22
 70
     1
102
RTVSPropertyOp23
 70
     1
102
RTVSPropertyOp24
 70
     1
102
RTVSPropertyOp25
 70
     1
102
RTVSPropertyOp26
 70
     1
102
RTVSPropertyOp27
 70
     1
102
RTVSPropertyOp28
 70
     1
102
RTVSPropertyOp29
 70
     1
102
RTVSPropertyOp30
 70
     1
102
RTVSPropertyOp31
 70
     1
102
RTVSPropertyOp32
 70
     1
102
RTVSPropertyOp33
 70
     1
102
RTVSPropertyOp34
 70
     1
102
RTVSPropertyOp35
 70
     1
102
RTVSPropertyOp36
 70
     1
102
RTVSPropertyOp37
 70
     1
102
RTVSPropertyOp38
 70
     1
102
RTVSPropertyOp39
 70
     1
102
RTVSPropertyOp40
 70
     1
102
RTVSPropertyOp41
 70
     1
102
RTVSPropertyOp42
 70
     1
102
RTVSPropertyOp43
 70
     1
102
RTVSPropertyOp44
 70
     1
102
RTVSPropertyOp45
 70
     1
102
RTVSPropertyOp46
 70
     1
102
RTVSPropertyOp47
 70
     1
102
RTVSPropertyOp48
 70
     1
102
RTVSPropertyOp49
 70
     1
102
RTVSPropertyOp50
 70
     1
102
RTVSPropertyOp51
 70
     0
102
RTVSPropertyOp52
 70
     0
102
RTVSPropertyOp53
 70
     1
102
RTVSPropertyOp54
 70
     1
102
RTVSPropertyOp55
 70
     1
102
RTVSPropertyOp56
 70
     1
102
RTVSPropertyOp57
 70
     1
102
RTVSPost2010Prop28
280
     0
102
RTVSPost2010PropOp28
 70
     1
102
RTVSPost2010Prop29
280
     1
102
RTVSPost2010PropOp29
 70
     1
102
RTVSPost2010Prop30
280
     1
102
RTVSPost2010PropOp30
 70
     1
102
RTVSPost2010Prop31
280
     0
102
RTVSPost2010PropOp31
 70
     1
102
RTVSPost2010Prop32
280
     0
102
RTVSPost2010PropOp32
 70
     1
102
RTVSPost2010Prop33
280
     0
102
RTVSPost2010PropOp33
 70
     1
102
RTVSPost2010Prop34
280
     0
102
RTVSPost2010PropOp34
 70
     1
102
RTVSPost2010Prop35
280
     0
102
RTVSPost2010PropOp35
 70
     1
102
RTVSPost2010Prop36
280
     0
102
RTVSPost2010PropOp36
 70
     1
102
RTVSPost2010Prop37
 90
       50
102
RTVSPost2010PropOp37
 70
     1
102
RTVSPost2010Prop38
140
0.0
102
RTVSPost2010PropOp38
 70
     1
102
RTVSPost2010Prop39
140
1.0
102
RTVSPost2010PropOp39
 70
     1
102
RTVSPost2010Prop40
 90
        0
102
RTVSPost2010PropOp40
 70
     1
102
RTVSPost2010Prop41ColorIndex
 90
       18
102
RTVSPost2010Prop41ColorRGB
 90
        0
102
RTVSPost2010PropOp41
 70
     1
102
RTVSPost2010Prop42
 90
       50
102
RTVSPost2010PropOp42
 70
     1
102
RTVSPost2010Prop43
 90
        3
102
RTVSPost2010PropOp43
 70
     1
102
RTVSPost2010Prop44ColorIndex
 90
        5
102
RTVSPost2010Prop44ColorRGB
 90
      255
102
RTVSPost2010PropOp44
 70
     1
102
RTVSPost2010Prop45
280
     0
102
RTVSPost2010PropOp45
 70
     1
102
RTVSPost2010Prop46
 90
       50
102
RTVSPost2010PropOp46
 70
     1
102
RTVSPost2010Prop47
 90
       50
102
RTVSPost2010PropOp47
 70
     1
102
RTVSPost2010Prop48
 90
       50
102
RTVSPost2010PropOp48
 70
     1
102
RTVSPost2010Prop49
280
     0
102
RTVSPost2010PropOp49
 70
     1
102
RTVSPost2010Prop50
 90
       50
102
RTVSPost2010PropOp50
 70
     1
102
RTVSPost2010Prop51ColorIndex
 90
      256
102
RTVSPost2010Prop51ColorRGB
 90
-16777216
102
RTVSPost2010PropOp51
 70
     0
102
RTVSPost2010Prop52
140
1.0
102
RTVSPost2010PropOp52
 70
     0
102
RTVSPost2010Prop53
 90
        2
102
RTVSPost2010PropOp53
 70
     1
102
RTVSPost2010Prop54
  1
strokes_ogs.tif
102
RTVSPost2010PropOp54
 70
     1
102
RTVSPost2010Prop55
280
     0
102
RTVSPost2010PropOp55
 70
     1
102
RTVSPost2010Prop56
140
1.0
102
RTVSPost2010PropOp56
 70
     1
102
RTVSPost2010Prop57
140
1.0
102
RTVSPost2010PropOp57
 70
     1
  0
XRECORD
  5
381
102
{ACAD_REACTORS
330
380
102
}
330
380
100
AcDbXrecord
280
     1
102
RTVSPropertyOp0
 70
     0
102
RTVSPropertyOp1
 70
     0
102
RTVSPropertyOp2
 70
     0
102
RTVSPropertyOp3
 70
     0
102
RTVSPropertyOp4
 70
     0
102
RTVSPropertyOp5
 70
     0
102
RTVSPropertyOp6
 70
     0
102
RTVSPropertyOp7
 70
     0
102
RTVSPropertyOp8
 70
     0
102
RTVSPropertyOp9
 70
     0
102
RTVSPropertyOp10
 70
     0
102
RTVSPropertyOp11
 70
     0
102
RTVSPropertyOp12
 70
     0
102
RTVSPropertyOp13
 70
     0
102
RTVSPropertyOp14
 70
     2
102
RTVSPropertyOp15
 70
     0
102
RTVSPropertyOp16
 70
     0
102
RTVSPropertyOp17
 70
     0
102
RTVSPropertyOp18
 70
     0
102
RTVSPropertyOp19
 70
     0
102
RTVSPropertyOp20
 70
     0
102
RTVSPropertyOp21
 70
     0
102
RTVSPropertyOp22
 70
     0
102
RTVSPropertyOp23
 70
     0
102
RTVSPropertyOp24
 70
     0
102
RTVSPropertyOp25
 70
     0
102
RTVSPropertyOp26
 70
     0
102
RTVSPropertyOp27
 70
     0
102
RTVSPropertyOp28
 70
     0
102
RTVSPropertyOp29
 70
     0
102
RTVSPropertyOp30
 70
     0
102
RTVSPropertyOp31
 70
     0
102
RTVSPropertyOp32
 70
     0
102
RTVSPropertyOp33
 70
     0
102
RTVSPropertyOp34
 70
     0
102
RTVSPropertyOp35
 70
     0
102
RTVSPropertyOp36
 70
     0
102
RTVSPropertyOp37
 70
     0
102
RTVSPropertyOp38
 70
     0
102
RTVSPropertyOp39
 70
     0
102
RTVSPropertyOp40
 70
     0
102
RTVSPropertyOp41
 70
     0
102
RTVSPropertyOp42
 70
     0
102
RTVSPropertyOp43
 70
     0
102
RTVSPropertyOp44
 70
     0
102
RTVSPropertyOp45
 70
     0
102
RTVSPropertyOp46
 70
     0
102
RTVSPropertyOp47
 70
     0
102
RTVSPropertyOp48
 70
     0
102
RTVSPropertyOp49
 70
     0
102
RTVSPropertyOp50
 70
     0
102
RTVSPropertyOp51
 70
     0
102
RTVSPropertyOp52
 70
     0
102
RTVSPropertyOp53
 70
     0
102
RTVSPropertyOp54
 70
     0
102
RTVSPropertyOp55
 70
     0
102
RTVSPropertyOp56
 70
     0
102
RTVSPropertyOp57
 70
     0
102
RTVSPost2010Prop28
280
     0
102
RTVSPost2010PropOp28
 70
     0
102
RTVSPost2010Prop29
280
     1
102
RTVSPost2010PropOp29
 70
     0
102
RTVSPost2010Prop30
280
     1
102
RTVSPost2010PropOp30
 70
     0
102
RTVSPost2010Prop31
280
     0
102
RTVSPost2010PropOp31
 70
     0
102
RTVSPost2010Prop32
280
     0
102
RTVSPost2010PropOp32
 70
     0
102
RTVSPost2010Prop33
280
     0
102
RTVSPost2010PropOp33
 70
     0
102
RTVSPost2010Prop34
280
     0
102
RTVSPost2010PropOp34
 70
     0
102
RTVSPost2010Prop35
280
     0
102
RTVSPost2010PropOp35
 70
     0
102
RTVSPost2010Prop36
280
     0
102
RTVSPost2010PropOp36
 70
     0
102
RTVSPost2010Prop37
 90
       50
102
RTVSPost2010PropOp37
 70
     0
102
RTVSPost2010Prop38
140
0.0
102
RTVSPost2010PropOp38
 70
     0
102
RTVSPost2010Prop39
140
1.0
102
RTVSPost2010PropOp39
 70
     0
102
RTVSPost2010Prop40
 90
        0
102
RTVSPost2010PropOp40
 70
     0
102
RTVSPost2010Prop41ColorIndex
 90
       18
102
RTVSPost2010Prop41ColorRGB
 90
        0
102
RTVSPost2010PropOp41
 70
     0
102
RTVSPost2010Prop42
 90
       50
102
RTVSPost2010PropOp42
 70
     0
102
RTVSPost2010Prop43
 90
        3
102
RTVSPost2010PropOp43
 70
     0
102
RTVSPost2010Prop44ColorIndex
 90
        5
102
RTVSPost2010Prop44ColorRGB
 90
      255
102
RTVSPost2010PropOp44
 70
     0
102
RTVSPost2010Prop45
280
     0
102
RTVSPost2010PropOp45
 70
     0
102
RTVSPost2010Prop46
 90
       50
102
RTVSPost2010PropOp46
 70
     0
102
RTVSPost2010Prop47
 90
       50
102
RTVSPost2010PropOp47
 70
     0
102
RTVSPost2010Prop48
 90
       50
102
RTVSPost2010PropOp48
 70
     0
102
RTVSPost2010Prop49
280
     0
102
RTVSPost2010PropOp49
 70
     0
102
RTVSPost2010Prop50
 90
       50
102
RTVSPost2010PropOp50
 70
     0
102
RTVSPost2010Prop51ColorIndex
 90
      256
102
RTVSPost2010Prop51ColorRGB
 90
-16777216
102
RTVSPost2010PropOp51
 70
     0
102
RTVSPost2010Prop52
140
1.0
102
RTVSPost2010PropOp52
 70
     0
102
RTVSPost2010Prop53
 90
        2
102
RTVSPost2010PropOp53
 70
     0
102
RTVSPost2010Prop54
  1
strokes_ogs.tif
102
RTVSPost2010PropOp54
 70
     0
102
RTVSPost2010Prop55
280
     0
102
RTVSPost2010PropOp55
 70
     0
102
RTVSPost2010Prop56
140
1.0
102
RTVSPost2010PropOp56
 70
     0
102
RTVSPost2010Prop57
140
1.0
102
RTVSPost2010PropOp57
 70
     0
  0
XRECORD
  5
36F
102
{ACAD_REACTORS
330
36E
102
}
330
36E
100
AcDbXrecord
280
     1
102
RTVSPropertyOp0
 70
     1
102
RTVSPropertyOp1
 70
     1
102
RTVSPropertyOp2
 70
     1
102
RTVSPropertyOp3
 70
     1
102
RTVSPropertyOp4
 70
     1
102
RTVSPropertyOp5
 70
     1
102
RTVSPropertyOp6
 70
     1
102
RTVSPropertyOp7
 70
     1
102
RTVSPropertyOp8
 70
     1
102
RTVSPropertyOp9
 70
     1
102
RTVSPropertyOp10
 70
     1
102
RTVSPropertyOp11
 70
     1
102
RTVSPropertyOp12
 70
     1
102
RTVSPropertyOp13
 70
     1
102
RTVSPropertyOp14
 70
     1
102
RTVSPropertyOp15
 70
     1
102
RTVSPropertyOp16
 70
     1
102
RTVSPropertyOp17
 70
     1
102
RTVSPropertyOp18
 70
     1
102
RTVSPropertyOp19
 70
     1
102
RTVSPropertyOp20
 70
     1
102
RTVSPropertyOp21
 70
     1
102
RTVSPropertyOp22
 70
     1
102
RTVSPropertyOp23
 70
     1
102
RTVSPropertyOp24
 70
     1
102
RTVSPropertyOp25
 70
     1
102
RTVSPropertyOp26
 70
     1
102
RTVSPropertyOp27
 70
     1
102
RTVSPropertyOp28
 70
     1
102
RTVSPropertyOp29
 70
     1
102
RTVSPropertyOp30
 70
     1
102
RTVSPropertyOp31
 70
     1
102
RTVSPropertyOp32
 70
     1
102
RTVSPropertyOp33
 70
     1
102
RTVSPropertyOp34
 70
     1
102
RTVSPropertyOp35
 70
     1
102
RTVSPropertyOp36
 70
     1
102
RTVSPropertyOp37
 70
     1
102
RTVSPropertyOp38
 70
     1
102
RTVSPropertyOp39
 70
     1
102
RTVSPropertyOp40
 70
     1
102
RTVSPropertyOp41
 70
     1
102
RTVSPropertyOp42
 70
     1
102
RTVSPropertyOp43
 70
     1
102
RTVSPropertyOp44
 70
     1
102
RTVSPropertyOp45
 70
     1
102
RTVSPropertyOp46
 70
     1
102
RTVSPropertyOp47
 70
     1
102
RTVSPropertyOp48
 70
     1
102
RTVSPropertyOp49
 70
     1
102
RTVSPropertyOp50
 70
     1
102
RTVSPropertyOp51
 70
     0
102
RTVSPropertyOp52
 70
     0
102
RTVSPropertyOp53
 70
     1
102
RTVSPropertyOp54
 70
     1
102
RTVSPropertyOp55
 70
     1
102
RTVSPropertyOp56
 70
     1
102
RTVSPropertyOp57
 70
     1
102
RTVSPost2010Prop28
280
     0
102
RTVSPost2010PropOp28
 70
     1
102
RTVSPost2010Prop29
280
     1
102
RTVSPost2010PropOp29
 70
     1
102
RTVSPost2010Prop30
280
     1
102
RTVSPost2010PropOp30
 70
     1
102
RTVSPost2010Prop31
280
     0
102
RTVSPost2010PropOp31
 70
     1
102
RTVSPost2010Prop32
280
     0
102
RTVSPost2010PropOp32
 70
     1
102
RTVSPost2010Prop33
280
     0
102
RTVSPost2010PropOp33
 70
     1
102
RTVSPost2010Prop34
280
     0
102
RTVSPost2010PropOp34
 70
     1
102
RTVSPost2010Prop35
280
     0
102
RTVSPost2010PropOp35
 70
     1
102
RTVSPost2010Prop36
280
     0
102
RTVSPost2010PropOp36
 70
     1
102
RTVSPost2010Prop37
 90
       50
102
RTVSPost2010PropOp37
 70
     1
102
RTVSPost2010Prop38
140
0.0
102
RTVSPost2010PropOp38
 70
     1
102
RTVSPost2010Prop39
140
1.0
102
RTVSPost2010PropOp39
 70
     1
102
RTVSPost2010Prop40
 90
        0
102
RTVSPost2010PropOp40
 70
     1
102
RTVSPost2010Prop41ColorIndex
 90
       18
102
RTVSPost2010Prop41ColorRGB
 90
        0
102
RTVSPost2010PropOp41
 70
     1
102
RTVSPost2010Prop42
 90
       50
102
RTVSPost2010PropOp42
 70
     1
102
RTVSPost2010Prop43
 90
        3
102
RTVSPost2010PropOp43
 70
     1
102
RTVSPost2010Prop44ColorIndex
 90
        5
102
RTVSPost2010Prop44ColorRGB
 90
      255
102
RTVSPost2010PropOp44
 70
     1
102
RTVSPost2010Prop45
280
     0
102
RTVSPost2010PropOp45
 70
     1
102
RTVSPost2010Prop46
 90
       50
102
RTVSPost2010PropOp46
 70
     1
102
RTVSPost2010Prop47
 90
       50
102
RTVSPost2010PropOp47
 70
     1
102
RTVSPost2010Prop48
 90
       50
102
RTVSPost2010PropOp48
 70
     1
102
RTVSPost2010Prop49
280
     0
102
RTVSPost2010PropOp49
 70
     1
102
RTVSPost2010Prop50
 90
       50
102
RTVSPost2010PropOp50
 70
     1
102
RTVSPost2010Prop51ColorIndex
 90
      256
102
RTVSPost2010Prop51ColorRGB
 90
-16777216
102
RTVSPost2010PropOp51
 70
     0
102
RTVSPost2010Prop52
140
1.0
102
RTVSPost2010PropOp52
 70
     0
102
RTVSPost2010Prop53
 90
        2
102
RTVSPost2010PropOp53
 70
     1
102
RTVSPost2010Prop54
  1
strokes_ogs.tif
102
RTVSPost2010PropOp54
 70
     1
102
RTVSPost2010Prop55
280
     0
102
RTVSPost2010PropOp55
 70
     1
102
RTVSPost2010Prop56
140
1.0
102
RTVSPost2010PropOp56
 70
     1
102
RTVSPost2010Prop57
140
1.0
102
RTVSPost2010PropOp57
 70
     1
  0
XRECORD
  5
38D
102
{ACAD_REACTORS
330
38C
102
}
330
38C
100
AcDbXrecord
280
     1
102
RTVSPropertyOp0
 70
     1
102
RTVSPropertyOp1
 70
     1
102
RTVSPropertyOp2
 70
     1
102
RTVSPropertyOp3
 70
     1
102
RTVSPropertyOp4
 70
     1
102
RTVSPropertyOp5
 70
     1
102
RTVSPropertyOp6
 70
     1
102
RTVSPropertyOp7
 70
     1
102
RTVSPropertyOp8
 70
     1
102
RTVSPropertyOp9
 70
     1
102
RTVSPropertyOp10
 70
     1
102
RTVSPropertyOp11
 70
     1
102
RTVSPropertyOp12
 70
     1
102
RTVSPropertyOp13
 70
     1
102
RTVSPropertyOp14
 70
     1
102
RTVSPropertyOp15
 70
     1
102
RTVSPropertyOp16
 70
     1
102
RTVSPropertyOp17
 70
     1
102
RTVSPropertyOp18
 70
     1
102
RTVSPropertyOp19
 70
     1
102
RTVSPropertyOp20
 70
     1
102
RTVSPropertyOp21
 70
     1
102
RTVSPropertyOp22
 70
     1
102
RTVSPropertyOp23
 70
     1
102
RTVSPropertyOp24
 70
     1
102
RTVSPropertyOp25
 70
     1
102
RTVSPropertyOp26
 70
     1
102
RTVSPropertyOp27
 70
     1
102
RTVSPropertyOp28
 70
     1
102
RTVSPropertyOp29
 70
     1
102
RTVSPropertyOp30
 70
     1
102
RTVSPropertyOp31
 70
     1
102
RTVSPropertyOp32
 70
     1
102
RTVSPropertyOp33
 70
     1
102
RTVSPropertyOp34
 70
     1
102
RTVSPropertyOp35
 70
     1
102
RTVSPropertyOp36
 70
     1
102
RTVSPropertyOp37
 70
     1
102
RTVSPropertyOp38
 70
     1
102
RTVSPropertyOp39
 70
     1
102
RTVSPropertyOp40
 70
     1
102
RTVSPropertyOp41
 70
     1
102
RTVSPropertyOp42
 70
     1
102
RTVSPropertyOp43
 70
     1
102
RTVSPropertyOp44
 70
     1
102
RTVSPropertyOp45
 70
     1
102
RTVSPropertyOp46
 70
     1
102
RTVSPropertyOp47
 70
     1
102
RTVSPropertyOp48
 70
     1
102
RTVSPropertyOp49
 70
     1
102
RTVSPropertyOp50
 70
     1
102
RTVSPropertyOp51
 70
     0
102
RTVSPropertyOp52
 70
     0
102
RTVSPropertyOp53
 70
     1
102
RTVSPropertyOp54
 70
     1
102
RTVSPropertyOp55
 70
     1
102
RTVSPropertyOp56
 70
     1
102
RTVSPropertyOp57
 70
     1
102
RTVSPost2010Prop28
280
     0
102
RTVSPost2010PropOp28
 70
     1
102
RTVSPost2010Prop29
280
     1
102
RTVSPost2010PropOp29
 70
     1
102
RTVSPost2010Prop30
280
     1
102
RTVSPost2010PropOp30
 70
     1
102
RTVSPost2010Prop31
280
     0
102
RTVSPost2010PropOp31
 70
     1
102
RTVSPost2010Prop32
280
     0
102
RTVSPost2010PropOp32
 70
     1
102
RTVSPost2010Prop33
280
     0
102
RTVSPost2010PropOp33
 70
     1
102
RTVSPost2010Prop34
280
     0
102
RTVSPost2010PropOp34
 70
     1
102
RTVSPost2010Prop35
280
     0
102
RTVSPost2010PropOp35
 70
     1
102
RTVSPost2010Prop36
280
     0
102
RTVSPost2010PropOp36
 70
     1
102
RTVSPost2010Prop37
 90
       50
102
RTVSPost2010PropOp37
 70
     1
102
RTVSPost2010Prop38
140
0.0
102
RTVSPost2010PropOp38
 70
     1
102
RTVSPost2010Prop39
140
1.0
102
RTVSPost2010PropOp39
 70
     1
102
RTVSPost2010Prop40
 90
        0
102
RTVSPost2010PropOp40
 70
     1
102
RTVSPost2010Prop41ColorIndex
 90
       18
102
RTVSPost2010Prop41ColorRGB
 90
        0
102
RTVSPost2010PropOp41
 70
     1
102
RTVSPost2010Prop42
 90
       50
102
RTVSPost2010PropOp42
 70
     1
102
RTVSPost2010Prop43
 90
        3
102
RTVSPost2010PropOp43
 70
     1
102
RTVSPost2010Prop44ColorIndex
 90
        5
102
RTVSPost2010Prop44ColorRGB
 90
      255
102
RTVSPost2010PropOp44
 70
     1
102
RTVSPost2010Prop45
280
     0
102
RTVSPost2010PropOp45
 70
     1
102
RTVSPost2010Prop46
 90
       50
102
RTVSPost2010PropOp46
 70
     1
102
RTVSPost2010Prop47
 90
       50
102
RTVSPost2010PropOp47
 70
     1
102
RTVSPost2010Prop48
 90
       50
102
RTVSPost2010PropOp48
 70
     1
102
RTVSPost2010Prop49
280
     0
102
RTVSPost2010PropOp49
 70
     1
102
RTVSPost2010Prop50
 90
       50
102
RTVSPost2010PropOp50
 70
     1
102
RTVSPost2010Prop51ColorIndex
 90
      256
102
RTVSPost2010Prop51ColorRGB
 90
-16777216
102
RTVSPost2010PropOp51
 70
     0
102
RTVSPost2010Prop52
140
1.0
102
RTVSPost2010PropOp52
 70
     0
102
RTVSPost2010Prop53
 90
        2
102
RTVSPost2010PropOp53
 70
     1
102
RTVSPost2010Prop54
  1
strokes_ogs.tif
102
RTVSPost2010PropOp54
 70
     1
102
RTVSPost2010Prop55
280
     0
102
RTVSPost2010PropOp55
 70
     1
102
RTVSPost2010Prop56
140
1.0
102
RTVSPost2010PropOp56
 70
     1
102
RTVSPost2010Prop57
140
1.0
102
RTVSPost2010PropOp57
 70
     1
  0
XRECORD
  5
38B
102
{ACAD_REACTORS
330
38A
102
}
330
38A
100
AcDbXrecord
280
     1
102
RTVSPropertyOp0
 70
     1
102
RTVSPropertyOp1
 70
     1
102
RTVSPropertyOp2
 70
     1
102
RTVSPropertyOp3
 70
     1
102
RTVSPropertyOp4
 70
     1
102
RTVSPropertyOp5
 70
     1
102
RTVSPropertyOp6
 70
     1
102
RTVSPropertyOp7
 70
     1
102
RTVSPropertyOp8
 70
     1
102
RTVSPropertyOp9
 70
     1
102
RTVSPropertyOp10
 70
     1
102
RTVSPropertyOp11
 70
     1
102
RTVSPropertyOp12
 70
     1
102
RTVSPropertyOp13
 70
     1
102
RTVSPropertyOp14
 70
     1
102
RTVSPropertyOp15
 70
     1
102
RTVSPropertyOp16
 70
     1
102
RTVSPropertyOp17
 70
     1
102
RTVSPropertyOp18
 70
     1
102
RTVSPropertyOp19
 70
     1
102
RTVSPropertyOp20
 70
     1
102
RTVSPropertyOp21
 70
     1
102
RTVSPropertyOp22
 70
     1
102
RTVSPropertyOp23
 70
     1
102
RTVSPropertyOp24
 70
     1
102
RTVSPropertyOp25
 70
     1
102
RTVSPropertyOp26
 70
     1
102
RTVSPropertyOp27
 70
     1
102
RTVSPropertyOp28
 70
     1
102
RTVSPropertyOp29
 70
     1
102
RTVSPropertyOp30
 70
     1
102
RTVSPropertyOp31
 70
     1
102
RTVSPropertyOp32
 70
     1
102
RTVSPropertyOp33
 70
     1
102
RTVSPropertyOp34
 70
     1
102
RTVSPropertyOp35
 70
     1
102
RTVSPropertyOp36
 70
     1
102
RTVSPropertyOp37
 70
     1
102
RTVSPropertyOp38
 70
     1
102
RTVSPropertyOp39
 70
     1
102
RTVSPropertyOp40
 70
     1
102
RTVSPropertyOp41
 70
     1
102
RTVSPropertyOp42
 70
     1
102
RTVSPropertyOp43
 70
     1
102
RTVSPropertyOp44
 70
     1
102
RTVSPropertyOp45
 70
     1
102
RTVSPropertyOp46
 70
     1
102
RTVSPropertyOp47
 70
     1
102
RTVSPropertyOp48
 70
     1
102
RTVSPropertyOp49
 70
     1
102
RTVSPropertyOp50
 70
     1
102
RTVSPropertyOp51
 70
     0
102
RTVSPropertyOp52
 70
     0
102
RTVSPropertyOp53
 70
     1
102
RTVSPropertyOp54
 70
     1
102
RTVSPropertyOp55
 70
     1
102
RTVSPropertyOp56
 70
     1
102
RTVSPropertyOp57
 70
     1
102
RTVSPost2010Prop28
280
     0
102
RTVSPost2010PropOp28
 70
     1
102
RTVSPost2010Prop29
280
     1
102
RTVSPost2010PropOp29
 70
     1
102
RTVSPost2010Prop30
280
     1
102
RTVSPost2010PropOp30
 70
     1
102
RTVSPost2010Prop31
280
     0
102
RTVSPost2010PropOp31
 70
     1
102
RTVSPost2010Prop32
280
     0
102
RTVSPost2010PropOp32
 70
     1
102
RTVSPost2010Prop33
280
     0
102
RTVSPost2010PropOp33
 70
     1
102
RTVSPost2010Prop34
280
     0
102
RTVSPost2010PropOp34
 70
     1
102
RTVSPost2010Prop35
280
     0
102
RTVSPost2010PropOp35
 70
     1
102
RTVSPost2010Prop36
280
     0
102
RTVSPost2010PropOp36
 70
     1
102
RTVSPost2010Prop37
 90
       50
102
RTVSPost2010PropOp37
 70
     1
102
RTVSPost2010Prop38
140
0.0
102
RTVSPost2010PropOp38
 70
     1
102
RTVSPost2010Prop39
140
1.0
102
RTVSPost2010PropOp39
 70
     1
102
RTVSPost2010Prop40
 90
        0
102
RTVSPost2010PropOp40
 70
     1
102
RTVSPost2010Prop41ColorIndex
 90
       18
102
RTVSPost2010Prop41ColorRGB
 90
        0
102
RTVSPost2010PropOp41
 70
     1
102
RTVSPost2010Prop42
 90
       50
102
RTVSPost2010PropOp42
 70
     1
102
RTVSPost2010Prop43
 90
        3
102
RTVSPost2010PropOp43
 70
     1
102
RTVSPost2010Prop44ColorIndex
 90
        5
102
RTVSPost2010Prop44ColorRGB
 90
      255
102
RTVSPost2010PropOp44
 70
     1
102
RTVSPost2010Prop45
280
     0
102
RTVSPost2010PropOp45
 70
     1
102
RTVSPost2010Prop46
 90
       50
102
RTVSPost2010PropOp46
 70
     1
102
RTVSPost2010Prop47
 90
       50
102
RTVSPost2010PropOp47
 70
     1
102
RTVSPost2010Prop48
 90
       50
102
RTVSPost2010PropOp48
 70
     1
102
RTVSPost2010Prop49
280
     0
102
RTVSPost2010PropOp49
 70
     1
102
RTVSPost2010Prop50
 90
       50
102
RTVSPost2010PropOp50
 70
     1
102
RTVSPost2010Prop51ColorIndex
 90
      256
102
RTVSPost2010Prop51ColorRGB
 90
-16777216
102
RTVSPost2010PropOp51
 70
     0
102
RTVSPost2010Prop52
140
1.0
102
RTVSPost2010PropOp52
 70
     0
102
RTVSPost2010Prop53
 90
        2
102
RTVSPost2010PropOp53
 70
     1
102
RTVSPost2010Prop54
  1
strokes_ogs.tif
102
RTVSPost2010PropOp54
 70
     1
102
RTVSPost2010Prop55
280
     0
102
RTVSPost2010PropOp55
 70
     1
102
RTVSPost2010Prop56
140
1.0
102
RTVSPost2010PropOp56
 70
     1
102
RTVSPost2010Prop57
140
1.0
102
RTVSPost2010PropOp57
 70
     1
  0
XRECORD
  5
385
102
{ACAD_REACTORS
330
384
102
}
330
384
100
AcDbXrecord
280
     1
102
RTVSPropertyOp0
 70
     1
102
RTVSPropertyOp1
 70
     1
102
RTVSPropertyOp2
 70
     1
102
RTVSPropertyOp3
 70
     1
102
RTVSPropertyOp4
 70
     1
102
RTVSPropertyOp5
 70
     1
102
RTVSPropertyOp6
 70
     1
102
RTVSPropertyOp7
 70
     1
102
RTVSPropertyOp8
 70
     1
102
RTVSPropertyOp9
 70
     1
102
RTVSPropertyOp10
 70
     1
102
RTVSPropertyOp11
 70
     1
102
RTVSPropertyOp12
 70
     1
102
RTVSPropertyOp13
 70
     1
102
RTVSPropertyOp14
 70
     1
102
RTVSPropertyOp15
 70
     1
102
RTVSPropertyOp16
 70
     1
102
RTVSPropertyOp17
 70
     1
102
RTVSPropertyOp18
 70
     1
102
RTVSPropertyOp19
 70
     1
102
RTVSPropertyOp20
 70
     1
102
RTVSPropertyOp21
 70
     1
102
RTVSPropertyOp22
 70
     1
102
RTVSPropertyOp23
 70
     1
102
RTVSPropertyOp24
 70
     1
102
RTVSPropertyOp25
 70
     1
102
RTVSPropertyOp26
 70
     1
102
RTVSPropertyOp27
 70
     1
102
RTVSPropertyOp28
 70
     1
102
RTVSPropertyOp29
 70
     1
102
RTVSPropertyOp30
 70
     1
102
RTVSPropertyOp31
 70
     1
102
RTVSPropertyOp32
 70
     1
102
RTVSPropertyOp33
 70
     1
102
RTVSPropertyOp34
 70
     1
102
RTVSPropertyOp35
 70
     1
102
RTVSPropertyOp36
 70
     1
102
RTVSPropertyOp37
 70
     1
102
RTVSPropertyOp38
 70
     1
102
RTVSPropertyOp39
 70
     1
102
RTVSPropertyOp40
 70
     1
102
RTVSPropertyOp41
 70
     1
102
RTVSPropertyOp42
 70
     1
102
RTVSPropertyOp43
 70
     1
102
RTVSPropertyOp44
 70
     1
102
RTVSPropertyOp45
 70
     1
102
RTVSPropertyOp46
 70
     1
102
RTVSPropertyOp47
 70
     1
102
RTVSPropertyOp48
 70
     1
102
RTVSPropertyOp49
 70
     1
102
RTVSPropertyOp50
 70
     1
102
RTVSPropertyOp51
 70
     0
102
RTVSPropertyOp52
 70
     0
102
RTVSPropertyOp53
 70
     1
102
RTVSPropertyOp54
 70
     1
102
RTVSPropertyOp55
 70
     1
102
RTVSPropertyOp56
 70
     1
102
RTVSPropertyOp57
 70
     1
102
RTVSPost2010Prop28
280
     0
102
RTVSPost2010PropOp28
 70
     1
102
RTVSPost2010Prop29
280
     1
102
RTVSPost2010PropOp29
 70
     1
102
RTVSPost2010Prop30
280
     1
102
RTVSPost2010PropOp30
 70
     1
102
RTVSPost2010Prop31
280
     0
102
RTVSPost2010PropOp31
 70
     1
102
RTVSPost2010Prop32
280
     0
102
RTVSPost2010PropOp32
 70
     1
102
RTVSPost2010Prop33
280
     0
102
RTVSPost2010PropOp33
 70
     1
102
RTVSPost2010Prop34
280
     0
102
RTVSPost2010PropOp34
 70
     1
102
RTVSPost2010Prop35
280
     0
102
RTVSPost2010PropOp35
 70
     1
102
RTVSPost2010Prop36
280
     0
102
RTVSPost2010PropOp36
 70
     1
102
RTVSPost2010Prop37
 90
       50
102
RTVSPost2010PropOp37
 70
     1
102
RTVSPost2010Prop38
140
0.0
102
RTVSPost2010PropOp38
 70
     1
102
RTVSPost2010Prop39
140
1.0
102
RTVSPost2010PropOp39
 70
     1
102
RTVSPost2010Prop40
 90
        0
102
RTVSPost2010PropOp40
 70
     1
102
RTVSPost2010Prop41ColorIndex
 90
       18
102
RTVSPost2010Prop41ColorRGB
 90
        0
102
RTVSPost2010PropOp41
 70
     1
102
RTVSPost2010Prop42
 90
       50
102
RTVSPost2010PropOp42
 70
     1
102
RTVSPost2010Prop43
 90
        3
102
RTVSPost2010PropOp43
 70
     1
102
RTVSPost2010Prop44ColorIndex
 90
        5
102
RTVSPost2010Prop44ColorRGB
 90
      255
102
RTVSPost2010PropOp44
 70
     1
102
RTVSPost2010Prop45
280
     0
102
RTVSPost2010PropOp45
 70
     1
102
RTVSPost2010Prop46
 90
       50
102
RTVSPost2010PropOp46
 70
     1
102
RTVSPost2010Prop47
 90
       50
102
RTVSPost2010PropOp47
 70
     1
102
RTVSPost2010Prop48
 90
       50
102
RTVSPost2010PropOp48
 70
     1
102
RTVSPost2010Prop49
280
     0
102
RTVSPost2010PropOp49
 70
     1
102
RTVSPost2010Prop50
 90
       50
102
RTVSPost2010PropOp50
 70
     1
102
RTVSPost2010Prop51ColorIndex
 90
      256
102
RTVSPost2010Prop51ColorRGB
 90
-16777216
102
RTVSPost2010PropOp51
 70
     0
102
RTVSPost2010Prop52
140
1.0
102
RTVSPost2010PropOp52
 70
     0
102
RTVSPost2010Prop53
 90
        2
102
RTVSPost2010PropOp53
 70
     1
102
RTVSPost2010Prop54
  1
strokes_ogs.tif
102
RTVSPost2010PropOp54
 70
     1
102
RTVSPost2010Prop55
280
     0
102
RTVSPost2010PropOp55
 70
     1
102
RTVSPost2010Prop56
140
1.0
102
RTVSPost2010PropOp56
 70
     1
102
RTVSPost2010Prop57
140
1.0
102
RTVSPost2010PropOp57
 70
     1
  0
XRECORD
  5
387
102
{ACAD_REACTORS
330
386
102
}
330
386
100
AcDbXrecord
280
     1
102
RTVSPropertyOp0
 70
     1
102
RTVSPropertyOp1
 70
     1
102
RTVSPropertyOp2
 70
     1
102
RTVSPropertyOp3
 70
     1
102
RTVSPropertyOp4
 70
     1
102
RTVSPropertyOp5
 70
     1
102
RTVSPropertyOp6
 70
     1
102
RTVSPropertyOp7
 70
     1
102
RTVSPropertyOp8
 70
     1
102
RTVSPropertyOp9
 70
     1
102
RTVSPropertyOp10
 70
     1
102
RTVSPropertyOp11
 70
     1
102
RTVSPropertyOp12
 70
     1
102
RTVSPropertyOp13
 70
     1
102
RTVSPropertyOp14
 70
     1
102
RTVSPropertyOp15
 70
     1
102
RTVSPropertyOp16
 70
     1
102
RTVSPropertyOp17
 70
     1
102
RTVSPropertyOp18
 70
     1
102
RTVSPropertyOp19
 70
     1
102
RTVSPropertyOp20
 70
     1
102
RTVSPropertyOp21
 70
     1
102
RTVSPropertyOp22
 70
     1
102
RTVSPropertyOp23
 70
     1
102
RTVSPropertyOp24
 70
     1
102
RTVSPropertyOp25
 70
     1
102
RTVSPropertyOp26
 70
     1
102
RTVSPropertyOp27
 70
     1
102
RTVSPropertyOp28
 70
     1
102
RTVSPropertyOp29
 70
     1
102
RTVSPropertyOp30
 70
     1
102
RTVSPropertyOp31
 70
     1
102
RTVSPropertyOp32
 70
     1
102
RTVSPropertyOp33
 70
     1
102
RTVSPropertyOp34
 70
     1
102
RTVSPropertyOp35
 70
     1
102
RTVSPropertyOp36
 70
     1
102
RTVSPropertyOp37
 70
     1
102
RTVSPropertyOp38
 70
     1
102
RTVSPropertyOp39
 70
     1
102
RTVSPropertyOp40
 70
     1
102
RTVSPropertyOp41
 70
     1
102
RTVSPropertyOp42
 70
     1
102
RTVSPropertyOp43
 70
     1
102
RTVSPropertyOp44
 70
     1
102
RTVSPropertyOp45
 70
     1
102
RTVSPropertyOp46
 70
     1
102
RTVSPropertyOp47
 70
     1
102
RTVSPropertyOp48
 70
     1
102
RTVSPropertyOp49
 70
     1
102
RTVSPropertyOp50
 70
     1
102
RTVSPropertyOp51
 70
     0
102
RTVSPropertyOp52
 70
     0
102
RTVSPropertyOp53
 70
     1
102
RTVSPropertyOp54
 70
     1
102
RTVSPropertyOp55
 70
     1
102
RTVSPropertyOp56
 70
     1
102
RTVSPropertyOp57
 70
     1
102
RTVSPost2010Prop28
280
     0
102
RTVSPost2010PropOp28
 70
     1
102
RTVSPost2010Prop29
280
     1
102
RTVSPost2010PropOp29
 70
     1
102
RTVSPost2010Prop30
280
     1
102
RTVSPost2010PropOp30
 70
     1
102
RTVSPost2010Prop31
280
     0
102
RTVSPost2010PropOp31
 70
     1
102
RTVSPost2010Prop32
280
     0
102
RTVSPost2010PropOp32
 70
     1
102
RTVSPost2010Prop33
280
     0
102
RTVSPost2010PropOp33
 70
     1
102
RTVSPost2010Prop34
280
     0
102
RTVSPost2010PropOp34
 70
     1
102
RTVSPost2010Prop35
280
     0
102
RTVSPost2010PropOp35
 70
     1
102
RTVSPost2010Prop36
280
     0
102
RTVSPost2010PropOp36
 70
     1
102
RTVSPost2010Prop37
 90
       50
102
RTVSPost2010PropOp37
 70
     1
102
RTVSPost2010Prop38
140
0.0
102
RTVSPost2010PropOp38
 70
     1
102
RTVSPost2010Prop39
140
1.0
102
RTVSPost2010PropOp39
 70
     1
102
RTVSPost2010Prop40
 90
        0
102
RTVSPost2010PropOp40
 70
     1
102
RTVSPost2010Prop41ColorIndex
 90
       18
102
RTVSPost2010Prop41ColorRGB
 90
        0
102
RTVSPost2010PropOp41
 70
     1
102
RTVSPost2010Prop42
 90
       50
102
RTVSPost2010PropOp42
 70
     1
102
RTVSPost2010Prop43
 90
        3
102
RTVSPost2010PropOp43
 70
     1
102
RTVSPost2010Prop44ColorIndex
 90
        5
102
RTVSPost2010Prop44ColorRGB
 90
      255
102
RTVSPost2010PropOp44
 70
     1
102
RTVSPost2010Prop45
280
     0
102
RTVSPost2010PropOp45
 70
     1
102
RTVSPost2010Prop46
 90
       50
102
RTVSPost2010PropOp46
 70
     1
102
RTVSPost2010Prop47
 90
       50
102
RTVSPost2010PropOp47
 70
     1
102
RTVSPost2010Prop48
 90
       50
102
RTVSPost2010PropOp48
 70
     1
102
RTVSPost2010Prop49
280
     0
102
RTVSPost2010PropOp49
 70
     1
102
RTVSPost2010Prop50
 90
       50
102
RTVSPost2010PropOp50
 70
     1
102
RTVSPost2010Prop51ColorIndex
 90
      256
102
RTVSPost2010Prop51ColorRGB
 90
-16777216
102
RTVSPost2010PropOp51
 70
     0
102
RTVSPost2010Prop52
140
1.0
102
RTVSPost2010PropOp52
 70
     0
102
RTVSPost2010Prop53
 90
        2
102
RTVSPost2010PropOp53
 70
     1
102
RTVSPost2010Prop54
  1
strokes_ogs.tif
102
RTVSPost2010PropOp54
 70
     1
102
RTVSPost2010Prop55
280
     0
102
RTVSPost2010PropOp55
 70
     1
102
RTVSPost2010Prop56
140
1.0
102
RTVSPost2010PropOp56
 70
     1
102
RTVSPost2010Prop57
140
1.0
102
RTVSPost2010PropOp57
 70
     1
  0
XRECORD
  5
377
102
{ACAD_REACTORS
330
376
102
}
330
376
100
AcDbXrecord
280
     1
102
RTVSPropertyOp0
 70
     1
102
RTVSPropertyOp1
 70
     1
102
RTVSPropertyOp2
 70
     1
102
RTVSPropertyOp3
 70
     1
102
RTVSPropertyOp4
 70
     1
102
RTVSPropertyOp5
 70
     1
102
RTVSPropertyOp6
 70
     1
102
RTVSPropertyOp7
 70
     1
102
RTVSPropertyOp8
 70
     1
102
RTVSPropertyOp9
 70
     1
102
RTVSPropertyOp10
 70
     1
102
RTVSPropertyOp11
 70
     1
102
RTVSPropertyOp12
 70
     1
102
RTVSPropertyOp13
 70
     1
102
RTVSPropertyOp14
 70
     1
102
RTVSPropertyOp15
 70
     1
102
RTVSPropertyOp16
 70
     1
102
RTVSPropertyOp17
 70
     1
102
RTVSPropertyOp18
 70
     1
102
RTVSPropertyOp19
 70
     1
102
RTVSPropertyOp20
 70
     1
102
RTVSPropertyOp21
 70
     1
102
RTVSPropertyOp22
 70
     1
102
RTVSPropertyOp23
 70
     1
102
RTVSPropertyOp24
 70
     1
102
RTVSPropertyOp25
 70
     1
102
RTVSPropertyOp26
 70
     1
102
RTVSPropertyOp27
 70
     1
102
RTVSPropertyOp28
 70
     1
102
RTVSPropertyOp29
 70
     1
102
RTVSPropertyOp30
 70
     1
102
RTVSPropertyOp31
 70
     1
102
RTVSPropertyOp32
 70
     1
102
RTVSPropertyOp33
 70
     1
102
RTVSPropertyOp34
 70
     1
102
RTVSPropertyOp35
 70
     1
102
RTVSPropertyOp36
 70
     1
102
RTVSPropertyOp37
 70
     1
102
RTVSPropertyOp38
 70
     1
102
RTVSPropertyOp39
 70
     1
102
RTVSPropertyOp40
 70
     1
102
RTVSPropertyOp41
 70
     1
102
RTVSPropertyOp42
 70
     1
102
RTVSPropertyOp43
 70
     1
102
RTVSPropertyOp44
 70
     1
102
RTVSPropertyOp45
 70
     1
102
RTVSPropertyOp46
 70
     1
102
RTVSPropertyOp47
 70
     1
102
RTVSPropertyOp48
 70
     1
102
RTVSPropertyOp49
 70
     1
102
RTVSPropertyOp50
 70
     1
102
RTVSPropertyOp51
 70
     0
102
RTVSPropertyOp52
 70
     0
102
RTVSPropertyOp53
 70
     1
102
RTVSPropertyOp54
 70
     1
102
RTVSPropertyOp55
 70
     1
102
RTVSPropertyOp56
 70
     1
102
RTVSPropertyOp57
 70
     1
102
RTVSPost2010Prop28
280
     0
102
RTVSPost2010PropOp28
 70
     1
102
RTVSPost2010Prop29
280
     1
102
RTVSPost2010PropOp29
 70
     1
102
RTVSPost2010Prop30
280
     1
102
RTVSPost2010PropOp30
 70
     1
102
RTVSPost2010Prop31
280
     0
102
RTVSPost2010PropOp31
 70
     1
102
RTVSPost2010Prop32
280
     0
102
RTVSPost2010PropOp32
 70
     1
102
RTVSPost2010Prop33
280
     0
102
RTVSPost2010PropOp33
 70
     1
102
RTVSPost2010Prop34
280
     0
102
RTVSPost2010PropOp34
 70
     1
102
RTVSPost2010Prop35
280
     0
102
RTVSPost2010PropOp35
 70
     1
102
RTVSPost2010Prop36
280
     0
102
RTVSPost2010PropOp36
 70
     1
102
RTVSPost2010Prop37
 90
       50
102
RTVSPost2010PropOp37
 70
     1
102
RTVSPost2010Prop38
140
0.0
102
RTVSPost2010PropOp38
 70
     1
102
RTVSPost2010Prop39
140
1.0
102
RTVSPost2010PropOp39
 70
     1
102
RTVSPost2010Prop40
 90
        0
102
RTVSPost2010PropOp40
 70
     1
102
RTVSPost2010Prop41ColorIndex
 90
       18
102
RTVSPost2010Prop41ColorRGB
 90
        0
102
RTVSPost2010PropOp41
 70
     1
102
RTVSPost2010Prop42
 90
       50
102
RTVSPost2010PropOp42
 70
     1
102
RTVSPost2010Prop43
 90
        3
102
RTVSPost2010PropOp43
 70
     1
102
RTVSPost2010Prop44ColorIndex
 90
        5
102
RTVSPost2010Prop44ColorRGB
 90
      255
102
RTVSPost2010PropOp44
 70
     1
102
RTVSPost2010Prop45
280
     0
102
RTVSPost2010PropOp45
 70
     1
102
RTVSPost2010Prop46
 90
       50
102
RTVSPost2010PropOp46
 70
     1
102
RTVSPost2010Prop47
 90
       50
102
RTVSPost2010PropOp47
 70
     1
102
RTVSPost2010Prop48
 90
       50
102
RTVSPost2010PropOp48
 70
     1
102
RTVSPost2010Prop49
280
     0
102
RTVSPost2010PropOp49
 70
     1
102
RTVSPost2010Prop50
 90
       50
102
RTVSPost2010PropOp50
 70
     1
102
RTVSPost2010Prop51ColorIndex
 90
      256
102
RTVSPost2010Prop51ColorRGB
 90
-16777216
102
RTVSPost2010PropOp51
 70
     0
102
RTVSPost2010Prop52
140
1.0
102
RTVSPost2010PropOp52
 70
     0
102
RTVSPost2010Prop53
 90
        2
102
RTVSPost2010PropOp53
 70
     1
102
RTVSPost2010Prop54
  1
strokes_ogs.tif
102
RTVSPost2010PropOp54
 70
     1
102
RTVSPost2010Prop55
280
     0
102
RTVSPost2010PropOp55
 70
     1
102
RTVSPost2010Prop56
140
1.0
102
RTVSPost2010PropOp56
 70
     1
102
RTVSPost2010Prop57
140
1.0
102
RTVSPost2010PropOp57
 70
     1
  0
XRECORD
  5
369
102
{ACAD_REACTORS
330
368
102
}
330
368
100
AcDbXrecord
280
     1
102
RTVSPropertyOp0
 70
     1
102
RTVSPropertyOp1
 70
     1
102
RTVSPropertyOp2
 70
     1
102
RTVSPropertyOp3
 70
     1
102
RTVSPropertyOp4
 70
     1
102
RTVSPropertyOp5
 70
     1
102
RTVSPropertyOp6
 70
     1
102
RTVSPropertyOp7
 70
     1
102
RTVSPropertyOp8
 70
     1
102
RTVSPropertyOp9
 70
     1
102
RTVSPropertyOp10
 70
     1
102
RTVSPropertyOp11
 70
     1
102
RTVSPropertyOp12
 70
     1
102
RTVSPropertyOp13
 70
     1
102
RTVSPropertyOp14
 70
     1
102
RTVSPropertyOp15
 70
     1
102
RTVSPropertyOp16
 70
     1
102
RTVSPropertyOp17
 70
     1
102
RTVSPropertyOp18
 70
     1
102
RTVSPropertyOp19
 70
     1
102
RTVSPropertyOp20
 70
     1
102
RTVSPropertyOp21
 70
     1
102
RTVSPropertyOp22
 70
     1
102
RTVSPropertyOp23
 70
     1
102
RTVSPropertyOp24
 70
     1
102
RTVSPropertyOp25
 70
     1
102
RTVSPropertyOp26
 70
     1
102
RTVSPropertyOp27
 70
     1
102
RTVSPropertyOp28
 70
     1
102
RTVSPropertyOp29
 70
     1
102
RTVSPropertyOp30
 70
     1
102
RTVSPropertyOp31
 70
     1
102
RTVSPropertyOp32
 70
     1
102
RTVSPropertyOp33
 70
     1
102
RTVSPropertyOp34
 70
     1
102
RTVSPropertyOp35
 70
     1
102
RTVSPropertyOp36
 70
     1
102
RTVSPropertyOp37
 70
     1
102
RTVSPropertyOp38
 70
     1
102
RTVSPropertyOp39
 70
     1
102
RTVSPropertyOp40
 70
     1
102
RTVSPropertyOp41
 70
     1
102
RTVSPropertyOp42
 70
     1
102
RTVSPropertyOp43
 70
     1
102
RTVSPropertyOp44
 70
     1
102
RTVSPropertyOp45
 70
     1
102
RTVSPropertyOp46
 70
     1
102
RTVSPropertyOp47
 70
     1
102
RTVSPropertyOp48
 70
     1
102
RTVSPropertyOp49
 70
     1
102
RTVSPropertyOp50
 70
     1
102
RTVSPropertyOp51
 70
     0
102
RTVSPropertyOp52
 70
     0
102
RTVSPropertyOp53
 70
     1
102
RTVSPropertyOp54
 70
     1
102
RTVSPropertyOp55
 70
     1
102
RTVSPropertyOp56
 70
     1
102
RTVSPropertyOp57
 70
     1
102
RTVSPost2010Prop28
280
     0
102
RTVSPost2010PropOp28
 70
     1
102
RTVSPost2010Prop29
280
     1
102
RTVSPost2010PropOp29
 70
     1
102
RTVSPost2010Prop30
280
     1
102
RTVSPost2010PropOp30
 70
     1
102
RTVSPost2010Prop31
280
     0
102
RTVSPost2010PropOp31
 70
     1
102
RTVSPost2010Prop32
280
     0
102
RTVSPost2010PropOp32
 70
     1
102
RTVSPost2010Prop33
280
     0
102
RTVSPost2010PropOp33
 70
     1
102
RTVSPost2010Prop34
280
     0
102
RTVSPost2010PropOp34
 70
     1
102
RTVSPost2010Prop35
280
     0
102
RTVSPost2010PropOp35
 70
     1
102
RTVSPost2010Prop36
280
     0
102
RTVSPost2010PropOp36
 70
     1
102
RTVSPost2010Prop37
 90
       50
102
RTVSPost2010PropOp37
 70
     1
102
RTVSPost2010Prop38
140
0.0
102
RTVSPost2010PropOp38
 70
     1
102
RTVSPost2010Prop39
140
1.0
102
RTVSPost2010PropOp39
 70
     1
102
RTVSPost2010Prop40
 90
        0
102
RTVSPost2010PropOp40
 70
     1
102
RTVSPost2010Prop41ColorIndex
 90
       18
102
RTVSPost2010Prop41ColorRGB
 90
        0
102
RTVSPost2010PropOp41
 70
     1
102
RTVSPost2010Prop42
 90
       50
102
RTVSPost2010PropOp42
 70
     1
102
RTVSPost2010Prop43
 90
        3
102
RTVSPost2010PropOp43
 70
     1
102
RTVSPost2010Prop44ColorIndex
 90
        5
102
RTVSPost2010Prop44ColorRGB
 90
      255
102
RTVSPost2010PropOp44
 70
     1
102
RTVSPost2010Prop45
280
     0
102
RTVSPost2010PropOp45
 70
     1
102
RTVSPost2010Prop46
 90
       50
102
RTVSPost2010PropOp46
 70
     1
102
RTVSPost2010Prop47
 90
       50
102
RTVSPost2010PropOp47
 70
     1
102
RTVSPost2010Prop48
 90
       50
102
RTVSPost2010PropOp48
 70
     1
102
RTVSPost2010Prop49
280
     0
102
RTVSPost2010PropOp49
 70
     1
102
RTVSPost2010Prop50
 90
       50
102
RTVSPost2010PropOp50
 70
     1
102
RTVSPost2010Prop51ColorIndex
 90
      256
102
RTVSPost2010Prop51ColorRGB
 90
-16777216
102
RTVSPost2010PropOp51
 70
     0
102
RTVSPost2010Prop52
140
1.0
102
RTVSPost2010PropOp52
 70
     0
102
RTVSPost2010Prop53
 90
        2
102
RTVSPost2010PropOp53
 70
     1
102
RTVSPost2010Prop54
  1
strokes_ogs.tif
102
RTVSPost2010PropOp54
 70
     1
102
RTVSPost2010Prop55
280
     0
102
RTVSPost2010PropOp55
 70
     1
102
RTVSPost2010Prop56
140
1.0
102
RTVSPost2010PropOp56
 70
     1
102
RTVSPost2010Prop57
140
1.0
102
RTVSPost2010PropOp57
 70
     1
  0
XRECORD
  5
389
102
{ACAD_REACTORS
330
388
102
}
330
388
100
AcDbXrecord
280
     1
102
RTVSPropertyOp0
 70
     1
102
RTVSPropertyOp1
 70
     1
102
RTVSPropertyOp2
 70
     1
102
RTVSPropertyOp3
 70
     1
102
RTVSPropertyOp4
 70
     1
102
RTVSPropertyOp5
 70
     1
102
RTVSPropertyOp6
 70
     1
102
RTVSPropertyOp7
 70
     1
102
RTVSPropertyOp8
 70
     1
102
RTVSPropertyOp9
 70
     1
102
RTVSPropertyOp10
 70
     1
102
RTVSPropertyOp11
 70
     1
102
RTVSPropertyOp12
 70
     1
102
RTVSPropertyOp13
 70
     1
102
RTVSPropertyOp14
 70
     1
102
RTVSPropertyOp15
 70
     1
102
RTVSPropertyOp16
 70
     1
102
RTVSPropertyOp17
 70
     1
102
RTVSPropertyOp18
 70
     1
102
RTVSPropertyOp19
 70
     1
102
RTVSPropertyOp20
 70
     1
102
RTVSPropertyOp21
 70
     1
102
RTVSPropertyOp22
 70
     1
102
RTVSPropertyOp23
 70
     1
102
RTVSPropertyOp24
 70
     1
102
RTVSPropertyOp25
 70
     1
102
RTVSPropertyOp26
 70
     1
102
RTVSPropertyOp27
 70
     1
102
RTVSPropertyOp28
 70
     1
102
RTVSPropertyOp29
 70
     1
102
RTVSPropertyOp30
 70
     1
102
RTVSPropertyOp31
 70
     1
102
RTVSPropertyOp32
 70
     1
102
RTVSPropertyOp33
 70
     1
102
RTVSPropertyOp34
 70
     1
102
RTVSPropertyOp35
 70
     1
102
RTVSPropertyOp36
 70
     1
102
RTVSPropertyOp37
 70
     1
102
RTVSPropertyOp38
 70
     1
102
RTVSPropertyOp39
 70
     1
102
RTVSPropertyOp40
 70
     1
102
RTVSPropertyOp41
 70
     1
102
RTVSPropertyOp42
 70
     1
102
RTVSPropertyOp43
 70
     1
102
RTVSPropertyOp44
 70
     1
102
RTVSPropertyOp45
 70
     1
102
RTVSPropertyOp46
 70
     1
102
RTVSPropertyOp47
 70
     1
102
RTVSPropertyOp48
 70
     1
102
RTVSPropertyOp49
 70
     1
102
RTVSPropertyOp50
 70
     1
102
RTVSPropertyOp51
 70
     0
102
RTVSPropertyOp52
 70
     0
102
RTVSPropertyOp53
 70
     1
102
RTVSPropertyOp54
 70
     1
102
RTVSPropertyOp55
 70
     1
102
RTVSPropertyOp56
 70
     1
102
RTVSPropertyOp57
 70
     1
102
RTVSPost2010Prop28
280
     0
102
RTVSPost2010PropOp28
 70
     1
102
RTVSPost2010Prop29
280
     1
102
RTVSPost2010PropOp29
 70
     1
102
RTVSPost2010Prop30
280
     1
102
RTVSPost2010PropOp30
 70
     1
102
RTVSPost2010Prop31
280
     0
102
RTVSPost2010PropOp31
 70
     1
102
RTVSPost2010Prop32
280
     0
102
RTVSPost2010PropOp32
 70
     1
102
RTVSPost2010Prop33
280
     0
102
RTVSPost2010PropOp33
 70
     1
102
RTVSPost2010Prop34
280
     0
102
RTVSPost2010PropOp34
 70
     1
102
RTVSPost2010Prop35
280
     0
102
RTVSPost2010PropOp35
 70
     1
102
RTVSPost2010Prop36
280
     0
102
RTVSPost2010PropOp36
 70
     1
102
RTVSPost2010Prop37
 90
       50
102
RTVSPost2010PropOp37
 70
     1
102
RTVSPost2010Prop38
140
0.0
102
RTVSPost2010PropOp38
 70
     1
102
RTVSPost2010Prop39
140
1.0
102
RTVSPost2010PropOp39
 70
     1
102
RTVSPost2010Prop40
 90
        0
102
RTVSPost2010PropOp40
 70
     1
102
RTVSPost2010Prop41ColorIndex
 90
       18
102
RTVSPost2010Prop41ColorRGB
 90
        0
102
RTVSPost2010PropOp41
 70
     1
102
RTVSPost2010Prop42
 90
       50
102
RTVSPost2010PropOp42
 70
     1
102
RTVSPost2010Prop43
 90
        3
102
RTVSPost2010PropOp43
 70
     1
102
RTVSPost2010Prop44ColorIndex
 90
        5
102
RTVSPost2010Prop44ColorRGB
 90
      255
102
RTVSPost2010PropOp44
 70
     1
102
RTVSPost2010Prop45
280
     0
102
RTVSPost2010PropOp45
 70
     1
102
RTVSPost2010Prop46
 90
       50
102
RTVSPost2010PropOp46
 70
     1
102
RTVSPost2010Prop47
 90
       50
102
RTVSPost2010PropOp47
 70
     1
102
RTVSPost2010Prop48
 90
       50
102
RTVSPost2010PropOp48
 70
     1
102
RTVSPost2010Prop49
280
     0
102
RTVSPost2010PropOp49
 70
     1
102
RTVSPost2010Prop50
 90
       50
102
RTVSPost2010PropOp50
 70
     1
102
RTVSPost2010Prop51ColorIndex
 90
      256
102
RTVSPost2010Prop51ColorRGB
 90
-16777216
102
RTVSPost2010PropOp51
 70
     0
102
RTVSPost2010Prop52
140
1.0
102
RTVSPost2010PropOp52
 70
     0
102
RTVSPost2010Prop53
 90
        2
102
RTVSPost2010PropOp53
 70
     1
102
RTVSPost2010Prop54
  1
strokes_ogs.tif
102
RTVSPost2010PropOp54
 70
     1
102
RTVSPost2010Prop55
280
     0
102
RTVSPost2010PropOp55
 70
     1
102
RTVSPost2010Prop56
140
1.0
102
RTVSPost2010PropOp56
 70
     1
102
RTVSPost2010Prop57
140
1.0
102
RTVSPost2010PropOp57
 70
     1
  0
ENDSEC
  0
EOF
