  0
SECTION
  2
HEADER
  9
$ACADVER
  1
AC1015
  9
$ACADMAINTVER
 70
     6
  9
$DWGCODEPAGE
  3
ANSI_932
  9
$INSBASE
 10
0.0
 20
0.0
 30
0.0
  9
$EXTMIN
 10
-67.79
 20
-24.5443355089935
 30
0.0
  9
$EXTMAX
 10
81.1163585417703
 20
71.7888571845651
 30
0.0
  9
$LIMMIN
 10
0.0
 20
0.0
  9
$LIMMAX
 10
12.0
 20
9.0
  9
$ORTHOMODE
 70
     0
  9
$REGENMODE
 70
     1
  9
$FILLMODE
 70
     1
  9
$QTEXTMODE
 70
     0
  9
$MIRRTEXT
 70
     1
  9
$LTSCALE
 40
1.0
  9
$ATTMODE
 70
     1
  9
$TEXTSIZE
 40
0.2
  9
$TRACEWID
 40
0.05
  9
$TEXTSTYLE
  7
Standard
  9
$CLAYER
  8
0
  9
$CELTYPE
  6
ByLayer
  9
$CECOLOR
 62
   256
  9
$CELTSCALE
 40
1.0
  9
$DISPSILH
 70
     0
  9
$DIMSCALE
 40
1.0
  9
$DIMASZ
 40
0.18
  9
$DIMEXO
 40
0.0625
  9
$DIMDLI
 40
0.38
  9
$DIMRND
 40
0.0
  9
$DIMDLE
 40
0.0
  9
$DIMEXE
 40
0.18
  9
$DIMTP
 40
0.0
  9
$DIMTM
 40
0.0
  9
$DIMTXT
 40
0.18
  9
$DIMCEN
 40
0.09
  9
$DIMTSZ
 40
0.0
  9
$DIMTOL
 70
     0
  9
$DIMLIM
 70
     0
  9
$DIMTIH
 70
     1
  9
$DIMTOH
 70
     1
  9
$DIMSE1
 70
     0
  9
$DIMSE2
 70
     0
  9
$DIMTAD
 70
     0
  9
$DIMZIN
 70
     0
  9
$DIMBLK
  1

  9
$DIMASO
 70
     1
  9
$DIMSHO
 70
     1
  9
$DIMPOST
  1

  9
$DIMAPOST
  1

  9
$DIMALT
 70
     0
  9
$DIMALTD
 70
     2
  9
$DIMALTF
 40
25.4
  9
$DIMLFAC
 40
1.0
  9
$DIMTOFL
 70
     0
  9
$DIMTVP
 40
0.0
  9
$DIMTIX
 70
     0
  9
$DIMSOXD
 70
     0
  9
$DIMSAH
 70
     0
  9
$DIMBLK1
  1

  9
$DIMBLK2
  1

  9
$DIMSTYLE
  2
Standard
  9
$DIMCLRD
 70
     0
  9
$DIMCLRE
 70
     0
  9
$DIMCLRT
 70
     0
  9
$DIMTFAC
 40
1.0
  9
$DIMGAP
 40
0.09
  9
$DIMJUST
 70
     0
  9
$DIMSD1
 70
     0
  9
$DIMSD2
 70
     0
  9
$DIMTOLJ
 70
     1
  9
$DIMTZIN
 70
     0
  9
$DIMALTZ
 70
     0
  9
$DIMALTTZ
 70
     0
  9
$DIMUPT
 70
     0
  9
$DIMDEC
 70
     4
  9
$DIMTDEC
 70
     4
  9
$DIMALTU
 70
     2
  9
$DIMALTTD
 70
     2
  9
$DIMTXSTY
  7
Standard
  9
$DIMAUNIT
 70
     0
  9
$DIMADEC
 70
     0
  9
$DIMALTRND
 40
0.0
  9
$DIMAZIN
 70
     0
  9
$DIMDSEP
 70
    46
  9
$DIMATFIT
 70
     3
  9
$DIMFRAC
 70
     0
  9
$DIMLDRBLK
  1

  9
$DIMLUNIT
 70
     2
  9
$DIMLWD
 70
    -2
  9
$DIMLWE
 70
    -2
  9
$DIMTMOVE
 70
     0
  9
$LUNITS
 70
     2
  9
$LUPREC
 70
     4
  9
$SKETCHINC
 40
0.1
  9
$FILLETRAD
 40
0.5
  9
$AUNITS
 70
     0
  9
$AUPREC
 70
     0
  9
$MENU
  1
.
  9
$ELEVATION
 40
0.0
  9
$PELEVATION
 40
0.0
  9
$THICKNESS
 40
0.0
  9
$LIMCHECK
 70
     0
  9
$CHAMFERA
 40
0.0
  9
$CHAMFERB
 40
0.0
  9
$CHAMFERC
 40
0.0
  9
$CHAMFERD
 40
0.0
  9
$SKPOLY
 70
     0
  9
$TDCREATE
 40
2458080.423538727
  9
$TDUCREATE
 40
2458080.048538727
  9
$TDUPDATE
 40
2458080.423539988
  9
$TDUUPDATE
 40
2458080.048539988
  9
$TDINDWG
 40
0.0000000116
  9
$TDUSRTIMER
 40
0.0000000116
  9
$USRTIMER
 70
     1
  9
$ANGBASE
 50
0.0
  9
$ANGDIR
 70
     0
  9
$PDMODE
 70
     0
  9
$PDSIZE
 40
0.0
  9
$PLINEWID
 40
0.0
  9
$SPLFRAME
 70
     0
  9
$SPLINETYPE
 70
     6
  9
$SPLINESEGS
 70
     8
  9
$HANDSEED
  5
3C3
  9
$SURFTAB1
 70
     6
  9
$SURFTAB2
 70
     6
  9
$SURFTYPE
 70
     6
  9
$SURFU
 70
     6
  9
$SURFV
 70
     6
  9
$UCSBASE
  2

  9
$UCSNAME
  2

  9
$UCSORG
 10
0.0
 20
0.0
 30
0.0
  9
$UCSXDIR
 10
1.0
 20
0.0
 30
0.0
  9
$UCSYDIR
 10
0.0
 20
1.0
 30
0.0
  9
$UCSORTHOREF
  2

  9
$UCSORTHOVIEW
 70
     0
  9
$UCSORGTOP
 10
0.0
 20
0.0
 30
0.0
  9
$UCSORGBOTTOM
 10
0.0
 20
0.0
 30
0.0
  9
$UCSORGLEFT
 10
0.0
 20
0.0
 30
0.0
  9
$UCSORGRIGHT
 10
0.0
 20
0.0
 30
0.0
  9
$UCSORGFRONT
 10
0.0
 20
0.0
 30
0.0
  9
$UCSORGBACK
 10
0.0
 20
0.0
 30
0.0
  9
$PUCSBASE
  2

  9
$PUCSNAME
  2

  9
$PUCSORG
 10
0.0
 20
0.0
 30
0.0
  9
$PUCSXDIR
 10
1.0
 20
0.0
 30
0.0
  9
$PUCSYDIR
 10
0.0
 20
1.0
 30
0.0
  9
$PUCSORTHOREF
  2

  9
$PUCSORTHOVIEW
 70
     0
  9
$PUCSORGTOP
 10
0.0
 20
0.0
 30
0.0
  9
$PUCSORGBOTTOM
 10
0.0
 20
0.0
 30
0.0
  9
$PUCSORGLEFT
 10
0.0
 20
0.0
 30
0.0
  9
$PUCSORGRIGHT
 10
0.0
 20
0.0
 30
0.0
  9
$PUCSORGFRONT
 10
0.0
 20
0.0
 30
0.0
  9
$PUCSORGBACK
 10
0.0
 20
0.0
 30
0.0
  9
$USERI1
 70
     0
  9
$USERI2
 70
     0
  9
$USERI3
 70
     0
  9
$USERI4
 70
     0
  9
$USERI5
 70
     0
  9
$USERR1
 40
19.0
  9
$USERR2
 40
0.0
  9
$USERR3
 40
0.0
  9
$USERR4
 40
0.0
  9
$USERR5
 40
0.0
  9
$WORLDVIEW
 70
     1
  9
$SHADEDGE
 70
     3
  9
$SHADEDIF
 70
    70
  9
$TILEMODE
 70
     1
  9
$MAXACTVP
 70
    64
  9
$PINSBASE
 10
0.0
 20
0.0
 30
0.0
  9
$PLIMCHECK
 70
     0
  9
$PEXTMIN
 10
1.00000000000000E+20
 20
1.00000000000000E+20
 30
1.00000000000000E+20
  9
$PEXTMAX
 10
-1.00000000000000E+20
 20
-1.00000000000000E+20
 30
-1.00000000000000E+20
  9
$PLIMMIN
 10
0.0
 20
0.0
  9
$PLIMMAX
 10
12.0
 20
9.0
  9
$UNITMODE
 70
     0
  9
$VISRETAIN
 70
     1
  9
$PLINEGEN
 70
     0
  9
$PSLTSCALE
 70
     1
  9
$TREEDEPTH
 70
  3020
  9
$CMLSTYLE
  2
Standard
  9
$CMLJUST
 70
     0
  9
$CMLSCALE
 40
1.0
  9
$PROXYGRAPHICS
 70
     1
  9
$MEASUREMENT
 70
     1
  9
$CELWEIGHT
370
    -1
  9
$ENDCAPS
280
     0
  9
$JOINSTYLE
280
     0
  9
$LWDISPLAY
290
     0
  9
$INSUNITS
 70
     4
  9
$HYPERLINKBASE
  1

  9
$STYLESHEET
  1

  9
$XEDIT
290
     1
  9
$CEPSNTYPE
380
     0
  9
$PSTYLEMODE
290
     1
  9
$FINGERPRINTGUID
  2
{A7AFA76C-10C4-4CBD-9413-D13EBEB882A5}
  9
$VERSIONGUID
  2
{FAEB1C32-E019-11D5-929B-00C0DF256EC4}
  9
$EXTNAMES
290
     1
  9
$PSVPSCALE
 40
0.0
  9
$OLESTARTUP
290
     0
  0
ENDSEC
  0
SECTION
  2
CLASSES
  0
CLASS
  1
ACDBDICTIONARYWDFLT
  2
AcDbDictionaryWithDefault
  3
ObjectDBX Classes
 90
        0
280
     0
281
     0
  0
CLASS
  1
VISUALSTYLE
  2
AcDbVisualStyle
  3
ObjectDBX Classes
 90
     4095
280
     0
281
     0
  0
CLASS
  1
MATERIAL
  2
AcDbMaterial
  3
ObjectDBX Classes
 90
     1153
280
     0
281
     0
  0
CLASS
  1
SCALE
  2
AcDbScale
  3
ObjectDBX Classes
 90
     1153
280
     0
281
     0
  0
CLASS
  1
SUN
  2
AcDbSun
  3
SCENEOE
 90
     1153
280
     0
281
     0
  0
CLASS
  1
DICTIONARYVAR
  2
AcDbDictionaryVar
  3
ObjectDBX Classes
 90
        0
280
     0
281
     0
  0
CLASS
  1
ACDBPLACEHOLDER
  2
AcDbPlaceHolder
  3
ObjectDBX Classes
 90
        0
280
     0
281
     0
  0
CLASS
  1
LAYOUT
  2
AcDbLayout
  3
ObjectDBX Classes
 90
        0
280
     0
281
     0
  0
ENDSEC
  0
SECTION
  2
TABLES
  0
TABLE
  2
VPORT
  5
8
330
0
100
AcDbSymbolTable
 70
     1
  0
VPORT
  5
29
330
8
100
AcDbSymbolTableRecord
100
AcDbViewportTableRecord
  2
*Active
 70
     0
 10
0.0
 20
0.0
 11
1.0
 21
1.0
 12
6.66317927088514
 22
23.6222608377858
 13
0.0
 23
0.0
 14
0.5
 24
0.5
 15
0.5
 25
0.5
 16
0.0
 26
0.0
 36
1.0
 17
0.0
 27
0.0
 37
0.0
 40
105.9665119629145
 41
1.60267857142857
 42
50.0
 43
0.0
 44
0.0
 50
0.0
 51
0.0
 71
     0
 72
   100
 73
     1
 74
     3
 75
     0
 76
     0
 77
     0
 78
     0
281
     0
 65
     1
110
0.0
120
0.0
130
0.0
111
1.0
121
0.0
131
0.0
112
0.0
122
1.0
132
0.0
 79
     0
146
0.0
  0
ENDTAB
  0
TABLE
  2
LTYPE
  5
5
330
0
100
AcDbSymbolTable
 70
     8
  0
LTYPE
  5
14
330
5
100
AcDbSymbolTableRecord
100
AcDbLinetypeTableRecord
  2
ByBlock
 70
     0
  3

 72
    65
 73
     0
 40
0.0
  0
LTYPE
  5
15
330
5
100
AcDbSymbolTableRecord
100
AcDbLinetypeTableRecord
  2
ByLayer
 70
     0
  3

 72
    65
 73
     0
 40
0.0
  0
LTYPE
  5
16
330
5
100
AcDbSymbolTableRecord
100
AcDbLinetypeTableRecord
  2
Continuous
 70
     0
  3
Solid line
 72
    65
 73
     0
 40
0.0
  0
LTYPE
  5
6A
330
5
100
AcDbSymbolTableRecord
100
AcDbLinetypeTableRecord
  2
DASHED
 70
     0
  3
Dashed
 72
    65
 73
     2
 40
15.0
 49
7.0
 74
     0
 49
-8.0
 74
     0
  0
LTYPE
  5
6B
330
5
100
AcDbSymbolTableRecord
100
AcDbLinetypeTableRecord
  2
DOTTED
 70
     0
  3
Dotted
 72
    65
 73
     2
 40
1.0
 49
0.0
 74
     0
 49
-1.0
 74
     0
  0
LTYPE
  5
6C
330
5
100
AcDbSymbolTableRecord
100
AcDbLinetypeTableRecord
  2
DOT_CENTER
 70
     0
  3
Dot_Center
 72
    65
 73
     4
 40
14.0
 49
12.0
 74
     0
 49
-1.0
 74
     0
 49
0.0
 74
     0
 49
-1.0
 74
     0
  0
LTYPE
  5
6D
330
5
100
AcDbSymbolTableRecord
100
AcDbLinetypeTableRecord
  2
LONG_DASHED
 70
     0
  3
Long_Dashed
 72
    65
 73
     2
 40
15.0
 49
10.0
 74
     0
 49
-5.0
 74
     0
  0
LTYPE
  5
6E
330
5
100
AcDbSymbolTableRecord
100
AcDbLinetypeTableRecord
  2
DASH_CENTER
 70
     0
  3
Dash_Center
 72
    65
 73
     4
 40
14.0
 49
11.0
 74
     0
 49
-1.0
 74
     0
 49
1.0
 74
     0
 49
-1.0
 74
     0
  0
LTYPE
  5
6F
330
5
100
AcDbSymbolTableRecord
100
AcDbLinetypeTableRecord
  2
PHANTOM
 70
     0
  3
Phantom
 72
    65
 73
     6
 40
13.0
 49
10.0
 74
     0
 49
-1.0
 74
     0
 49
0.0
 74
     0
 49
-1.0
 74
     0
 49
0.0
 74
     0
 49
-1.0
 74
     0
  0
LTYPE
  5
70
330
5
100
AcDbSymbolTableRecord
100
AcDbLinetypeTableRecord
  2
CENTER_DASH_DASH
 70
     0
  3
Center_Dash_Dash
 72
    65
 73
     6
 40
14.0
 49
9.0
 74
     0
 49
-1.0
 74
     0
 49
1.0
 74
     0
 49
-1.0
 74
     0
 49
1.0
 74
     0
 49
-1.0
 74
     0
  0
ENDTAB
  0
TABLE
  2
LAYER
  5
2
330
0
100
AcDbSymbolTable
 70
     2
  0
LAYER
  5
10
330
2
100
AcDbSymbolTableRecord
100
AcDbLayerTableRecord
  2
0
 70
     0
 62
     7
  6
Continuous
370
    -3
390
F
  0
LAYER
  5
71
330
2
100
AcDbSymbolTableRecord
100
AcDbLayerTableRecord
  2
1
 70
     0
 62
     7
  6
Continuous
370
    -3
390
F
  0
ENDTAB
  0
TABLE
  2
STYLE
  5
3
330
0
100
AcDbSymbolTable
 70
     1
  0
STYLE
  5
11
330
3
100
AcDbSymbolTableRecord
100
AcDbTextStyleTableRecord
  2
Standard
 70
     0
 40
0.0
 41
1.0
 50
0.0
 71
     0
 42
0.2
  3
txt
  4

  0
ENDTAB
  0
TABLE
  2
VIEW
  5
6
330
0
100
AcDbSymbolTable
 70
     0
  0
ENDTAB
  0
TABLE
  2
UCS
  5
7
330
0
100
AcDbSymbolTable
 70
     0
  0
ENDTAB
  0
TABLE
  2
APPID
  5
9
330
0
100
AcDbSymbolTable
 70
     1
  0
APPID
  5
12
330
9
100
AcDbSymbolTableRecord
100
AcDbRegAppTableRecord
  2
ACAD
 70
     0
  0
ENDTAB
  0
TABLE
  2
DIMSTYLE
  5
A
330
0
100
AcDbSymbolTable
 70
     1
100
AcDbDimStyleTable
  0
DIMSTYLE
105
27
330
A
100
AcDbSymbolTableRecord
100
AcDbDimStyleTableRecord
  2
Standard
 70
     0
178
     0
340
11
  0
ENDTAB
  0
TABLE
  2
BLOCK_RECORD
  5
1
330
0
100
AcDbSymbolTable
 70
     1
  0
BLOCK_RECORD
  5
1F
330
1
100
AcDbSymbolTableRecord
100
AcDbBlockTableRecord
  2
*Model_Space
340
22
  0
BLOCK_RECORD
  5
1B
330
1
100
AcDbSymbolTableRecord
100
AcDbBlockTableRecord
  2
*Paper_Space
340
1E
  0
BLOCK_RECORD
  5
23
330
1
100
AcDbSymbolTableRecord
100
AcDbBlockTableRecord
  2
*Paper_Space0
340
26
  0
ENDTAB
  0
ENDSEC
  0
SECTION
  2
BLOCKS
  0
BLOCK
  5
20
330
1F
100
AcDbEntity
  8
0
100
AcDbBlockBegin
  2
*Model_Space
 70
     0
 10
0.0
 20
0.0
 30
0.0
  3
*Model_Space
  1
*Model_Space
  0
ENDBLK
  5
21
330
1F
100
AcDbEntity
  8
0
100
AcDbBlockEnd
  0
BLOCK
  5
1C
330
1B
100
AcDbEntity
 67
     1
  8
0
100
AcDbBlockBegin
  2
*Paper_Space
 70
     0
 10
0.0
 20
0.0
 30
0.0
  3
*Paper_Space
  1
*Paper_Space
  0
ENDBLK
  5
1D
330
1B
100
AcDbEntity
 67
     1
  8
0
100
AcDbBlockEnd
  0
BLOCK
  5
24
330
23
100
AcDbEntity
  8
0
100
AcDbBlockBegin
  2
*Paper_Space0
 70
     0
 10
0.0
 20
0.0
 30
0.0
  3
*Paper_Space0
  1
*Paper_Space0
  0
ENDBLK
  5
25
330
23
100
AcDbEntity
  8
0
100
AcDbBlockEnd
  0
ENDSEC
  0
SECTION
  2
ENTITIES
  0
POINT
  5
72
330
1F
100
AcDbEntity
  8
1
 62
     3
 60
     1
100
AcDbPoint
 10
-20.76469256391273
 20
64.062177826491
 30
0.0
  0
POINT
  5
73
330
1F
100
AcDbEntity
  8
1
 62
     3
 60
     1
100
AcDbPoint
 10
-20.76469256391282
 20
51.937822173509
 30
0.0
  0
POINT
  5
74
330
1F
100
AcDbEntity
  8
1
 62
     3
 60
     1
100
AcDbPoint
 10
-21.7
 20
58.0
 30
0.0
  0
LINE
  5
75
330
1F
100
AcDbEntity
  8
1
  6
Continuous
 62
     3
100
AcDbLine
 10
26.2786833025771
 20
49.1514718625761
 30
0.0
 11
48.26181544267979
 21
47.2309716734508
 31
0.0
  0
LINE
  5
76
330
1F
100
AcDbEntity
  8
1
  6
Continuous
 62
     3
100
AcDbLine
 10
29.58081867740542
 20
63.1514718625761
 30
0.0
 11
29.58081867740542
 21
51.1514718625761
 31
0.0
  0
LINE
  5
77
330
1F
100
AcDbEntity
  8
1
  6
Continuous
 62
     3
100
AcDbLine
 10
48.26181544267979
 20
67.0719720517013
 30
0.0
 11
26.2786833025771
 21
65.1514718625761
 31
0.0
  0
LINE
  5
78
330
1F
100
AcDbEntity
  8
1
  6
Continuous
 62
     3
100
AcDbLine
 10
28.1350429769226
 20
33.5081016691808
 30
0.0
 11
27.9766973122043
 21
33.30619395741671
 31
0.0
  0
LINE
  5
79
330
1F
100
AcDbEntity
  8
1
  6
Continuous
 62
     3
100
AcDbLine
 10
23.1001274418646
 20
26.8064886622634
 30
0.0
 11
27.9766973122043
 21
33.30619395741671
 31
0.0
  0
LINE
  5
7A
330
1F
100
AcDbEntity
  8
1
  6
Continuous
 62
     3
100
AcDbLine
 10
78.06380318368771
 20
35.76736063959881
 30
0.0
 11
32.5778168364282
 21
31.69564310852171
 31
0.0
  0
LINE
  5
7B
330
1F
100
AcDbEntity
  8
1
  6
Continuous
 62
     3
100
AcDbLine
 10
32.2531280314772
 20
35.68251586908819
 30
0.0
 11
77.9494341106955
 21
39.75706866626921
 31
0.0
  0
LINE
  5
84
102
{ACAD_REACTORS
330
375
102
}
330
1F
100
AcDbEntity
  8
1
  6
Continuous
 62
     3
100
AcDbLine
 10
60.929674386728
 20
57.6246481433761
 30
0.0
 11
60.929674386728
 21
56.3004314305763
 31
0.0
  0
LINE
  5
85
102
{ACAD_REACTORS
330
36D
102
}
330
1F
100
AcDbEntity
  8
1
  6
Continuous
 62
     3
100
AcDbLine
 10
36.8577921234711
 20
60.1696703344096
 30
0.0
 11
37.3053054455343
 21
60.2762211253773
 31
0.0
  0
LINE
  5
86
102
{ACAD_REACTORS
330
36C
102
}
330
1F
100
AcDbEntity
  8
1
  6
Continuous
 62
     3
100
AcDbLine
 10
33.4363585417702
 20
61.5914718625761
 30
0.0
 11
35.9163585417704
 21
61.5914718625761
 31
0.0
  0
LINE
  5
87
102
{ACAD_REACTORS
330
36C
102
}
330
1F
100
AcDbEntity
  8
1
  6
Continuous
 62
     3
100
AcDbLine
 10
33.1163585417703
 20
61.2714718625762
 30
0.0
 11
33.1163585417703
 21
60.7114718625762
 31
0.0
  0
LINE
  5
88
102
{ACAD_REACTORS
330
36C
102
}
330
1F
100
AcDbEntity
  8
1
  6
Continuous
 62
     3
100
AcDbLine
 10
33.4363585417702
 20
60.3914718625763
 30
0.0
 11
35.9163585417704
 21
60.3914718625763
 31
0.0
  0
LINE
  5
89
102
{ACAD_REACTORS
330
36C
102
}
330
1F
100
AcDbEntity
  8
1
  6
Continuous
 62
     3
100
AcDbLine
 10
36.2363585417703
 20
61.2714718625762
 30
0.0
 11
36.2363585417703
 21
60.7114718625762
 31
0.0
  0
LINE
  5
8A
102
{ACAD_REACTORS
330
36B
102
}
330
1F
100
AcDbEntity
  8
1
  6
Continuous
 62
     3
100
AcDbLine
 10
33.4363585417702
 20
53.911471862576
 30
0.0
 11
34.1464277620826
 21
53.9114718625763
 31
0.0
  0
LINE
  5
8B
102
{ACAD_REACTORS
330
36B
102
}
330
1F
100
AcDbEntity
  8
1
  6
Continuous
 62
     3
100
AcDbLine
 10
33.1163585417703
 20
53.5914718625761
 30
0.0
 11
33.1163585417703
 21
53.0314718625761
 31
0.0
  0
LINE
  5
8C
102
{ACAD_REACTORS
330
36B
102
}
330
1F
100
AcDbEntity
  8
1
  6
Continuous
 62
     3
100
AcDbLine
 10
36.2363585417703
 20
53.5914718625761
 30
0.0
 11
36.2363585417703
 21
53.0314718625761
 31
0.0
  0
LINE
  5
8D
102
{ACAD_REACTORS
330
36B
102
}
330
1F
100
AcDbEntity
  8
1
  6
Continuous
 62
     3
100
AcDbLine
 10
34.911062929818
 20
53.9114718625763
 30
0.0
 11
35.9163585417704
 21
53.911471862576
 31
0.0
  0
LINE
  5
8E
102
{ACAD_REACTORS
330
36D
102
}
330
1F
100
AcDbEntity
  8
1
  6
Continuous
 62
     3
100
AcDbLine
 10
37.3053054455343
 20
54.0267225997752
 30
0.0
 11
36.8698026793893
 21
54.1304137345714
 31
0.0
  0
LINE
  5
8F
102
{ACAD_REACTORS
330
36C
102
}
330
1F
100
AcDbEntity
  8
1
  6
Continuous
 62
     3
100
AcDbLine
 10
33.6513585417704
 20
61.356471862576
 30
0.0
 11
35.7013585417703
 21
61.356471862576
 31
0.0
  0
LINE
  5
90
102
{ACAD_REACTORS
330
36C
102
}
330
1F
100
AcDbEntity
  8
1
  6
Continuous
 62
     3
100
AcDbLine
 10
33.6513585417704
 20
60.6264718625762
 30
0.0
 11
35.7013585417703
 21
60.6264718625762
 31
0.0
  0
LINE
  5
91
102
{ACAD_REACTORS
330
36C
102
}
330
1F
100
AcDbEntity
  8
1
  6
Continuous
 62
     3
100
AcDbLine
 10
36.0013585417703
 20
61.0564718625763
 30
0.0
 11
36.0013585417703
 21
60.9264718625761
 31
0.0
  0
LINE
  5
92
102
{ACAD_REACTORS
330
36C
102
}
330
1F
100
AcDbEntity
  8
1
  6
Continuous
 62
     3
100
AcDbLine
 10
33.3513585417705
 20
61.0564718625763
 30
0.0
 11
33.3513585417705
 21
60.9264718625761
 31
0.0
  0
LINE
  5
93
102
{ACAD_REACTORS
330
36B
102
}
330
1F
100
AcDbEntity
  8
1
  6
Continuous
 62
     3
100
AcDbLine
 10
33.6513585417704
 20
53.6764718625764
 30
0.0
 11
34.1464277620826
 21
53.6764718625764
 31
0.0
  0
LINE
  5
94
102
{ACAD_REACTORS
330
36B
102
}
330
1F
100
AcDbEntity
  8
1
  6
Continuous
 62
     3
100
AcDbLine
 10
35.7013585417703
 20
52.9464718625764
 30
0.0
 11
35.1577246182096
 21
52.9464718625764
 31
0.0
  0
LINE
  5
95
102
{ACAD_REACTORS
330
36B
102
}
330
1F
100
AcDbEntity
  8
1
  6
Continuous
 62
     3
100
AcDbLine
 10
36.0013585417703
 20
53.3764718625759
 30
0.0
 11
36.0013585417703
 21
53.2464718625761
 31
0.0
  0
LINE
  5
96
102
{ACAD_REACTORS
330
36B
102
}
330
1F
100
AcDbEntity
  8
1
  6
Continuous
 62
     3
100
AcDbLine
 10
33.3513585417705
 20
53.3764718625759
 30
0.0
 11
33.3513585417705
 21
53.2464718625761
 31
0.0
  0
LINE
  5
97
102
{ACAD_REACTORS
330
36B
102
}
330
1F
100
AcDbEntity
  8
1
  6
Continuous
 62
     3
100
AcDbLine
 10
34.8946735095531
 20
53.6075855012734
 30
0.0
 11
34.3717413633956
 21
52.7941354961399
 31
0.0
  0
LINE
  5
98
102
{ACAD_REACTORS
330
36B
102
}
330
1F
100
AcDbEntity
  8
1
  6
Continuous
 62
     3
100
AcDbLine
 10
35.0208502808597
 20
53.6764718625764
 30
0.0
 11
35.7013585417703
 21
53.6764718625764
 31
0.0
  0
LINE
  5
99
102
{ACAD_REACTORS
330
36B
102
}
330
1F
100
AcDbEntity
  8
1
  6
Continuous
 62
     3
100
AcDbLine
 10
34.1084858195782
 20
52.9464718625764
 30
0.0
 11
33.6513585417704
 21
52.9464718625764
 31
0.0
  0
LINE
  5
9A
102
{ACAD_REACTORS
330
36B
102
}
330
1F
100
AcDbEntity
  8
1
  6
Continuous
 62
     3
100
AcDbLine
 10
34.2203292378279
 20
52.7114718625762
 30
0.0
 11
33.4363585417702
 21
52.7114718625762
 31
0.0
  0
LINE
  5
9B
102
{ACAD_REACTORS
330
36B
102
}
330
1F
100
AcDbEntity
  8
1
  6
Continuous
 62
     3
100
AcDbLine
 10
34.911062929818
 20
53.9114718625763
 30
0.0
 11
34.909911941166
 21
53.9114718625763
 31
0.0
  0
LINE
  5
9C
102
{ACAD_REACTORS
330
36B
102
}
330
1F
100
AcDbEntity
  8
1
  6
Continuous
 62
     3
100
AcDbLine
 10
34.7585764448127
 20
53.828927326987
 30
0.0
 11
34.234598733206
 21
53.0152589755673
 31
0.0
  0
LINE
  5
9D
102
{ACAD_REACTORS
330
36B
102
}
330
1F
100
AcDbEntity
  8
1
  6
Continuous
 62
     3
100
AcDbLine
 10
34.1464277620826
 20
53.9114718625763
 30
0.0
 11
34.1464277620826
 21
53.6764718625764
 31
0.0
  0
LINE
  5
9E
102
{ACAD_REACTORS
330
36B
102
}
330
1F
100
AcDbEntity
  8
1
  6
Continuous
 62
     3
100
AcDbLine
 10
35.1577246182096
 20
52.9464718625764
 30
0.0
 11
35.1577246182096
 21
52.7114718625762
 31
0.0
  0
LINE
  5
9F
102
{ACAD_REACTORS
330
36B
102
}
330
1F
100
AcDbEntity
  8
1
  6
Continuous
 62
     3
100
AcDbLine
 10
35.1577246182096
 20
52.7114718625762
 30
0.0
 11
35.9163585417704
 21
52.7114718625762
 31
0.0
  0
LINE
  5
A0
102
{ACAD_REACTORS
330
36D
102
}
330
1F
100
AcDbEntity
  8
1
  6
Continuous
 62
     3
100
AcDbLine
 10
36.6563585417704
 20
61.8695513418349
 30
0.0
 11
36.8577921234711
 21
60.1696703344096
 31
0.0
  0
LINE
  5
A1
102
{ACAD_REACTORS
330
36D
102
}
330
1F
100
AcDbEntity
  8
1
  6
Continuous
 62
     3
100
AcDbLine
 10
36.8698026793893
 20
54.1304137345714
 30
0.0
 11
36.6563585417704
 21
52.4333923833176
 31
0.0
  0
LINE
  5
A2
102
{ACAD_REACTORS
330
375
102
}
330
1F
100
AcDbEntity
  8
1
  6
Continuous
 62
     3
100
AcDbLine
 10
60.3036339547278
 20
57.6246481433761
 30
0.0
 11
60.3036339547278
 21
56.3004314305763
 31
0.0
  0
LINE
  5
A3
102
{ACAD_REACTORS
330
375
102
}
330
1F
100
AcDbEntity
  8
1
  6
Continuous
 62
     3
100
AcDbLine
 10
60.3036339547278
 20
57.6246481433761
 30
0.0
 11
60.929674386728
 21
57.6246481433761
 31
0.0
  0
LINE
  5
A4
102
{ACAD_REACTORS
330
374
102
}
330
1F
100
AcDbEntity
  8
1
  6
Continuous
 62
     3
100
AcDbLine
 10
59.9015749232757
 20
56.3004314305763
 30
0.0
 11
58.8803264048756
 21
58.002512294576
 31
0.0
  0
LINE
  5
A5
102
{ACAD_REACTORS
330
374
102
}
330
1F
100
AcDbEntity
  8
1
  6
Continuous
 62
     3
100
AcDbLine
 10
58.968943992411
 20
56.640847603376
 30
0.0
 11
57.5093631336993
 21
56.640847603376
 31
0.0
  0
LINE
  5
A6
102
{ACAD_REACTORS
330
374
102
}
330
1F
100
AcDbEntity
  8
1
  6
Continuous
 62
     3
100
AcDbLine
 10
58.7899743195372
 20
56.9387117545759
 30
0.0
 11
58.2818707519919
 21
57.7843625033222
 31
0.0
  0
LINE
  5
A7
102
{ACAD_REACTORS
330
374
102
}
330
1F
100
AcDbEntity
  8
1
  6
Continuous
 62
     3
100
AcDbLine
 10
57.7105868571759
 20
56.9387117545759
 30
0.0
 11
58.7899743195372
 21
56.9387117545759
 31
0.0
  0
LINE
  5
A8
102
{ACAD_REACTORS
330
374
102
}
330
1F
100
AcDbEntity
  8
1
  6
Continuous
 62
     3
100
AcDbLine
 10
59.1734807614096
 20
56.3004314305763
 30
0.0
 11
58.968943992411
 21
56.640847603376
 31
0.0
  0
LINE
  5
A9
102
{ACAD_REACTORS
330
374
102
}
330
1F
100
AcDbEntity
  8
1
  6
Continuous
 62
     3
100
AcDbLine
 10
59.1734807614096
 20
56.3004314305763
 30
0.0
 11
59.9015749232757
 21
56.3004314305763
 31
0.0
  0
LINE
  5
AA
102
{ACAD_REACTORS
330
374
102
}
330
1F
100
AcDbEntity
  8
1
  6
Continuous
 62
     3
100
AcDbLine
 10
56.7993729400345
 20
56.3004314305763
 30
0.0
 11
57.9057255016345
 21
58.002512294576
 31
0.0
  0
LINE
  5
AB
102
{ACAD_REACTORS
330
374
102
}
330
1F
100
AcDbEntity
  8
1
  6
Continuous
 62
     3
100
AcDbLine
 10
57.9057255016345
 20
58.002512294576
 30
0.0
 11
58.8803264048756
 21
58.002512294576
 31
0.0
  0
LINE
  5
AC
102
{ACAD_REACTORS
330
374
102
}
330
1F
100
AcDbEntity
  8
1
  6
Continuous
 62
     3
100
AcDbLine
 10
56.7993729400345
 20
56.3004314305763
 30
0.0
 11
57.2793931640119
 21
56.3004314305763
 31
0.0
  0
LINE
  5
AD
102
{ACAD_REACTORS
330
374
102
}
330
1F
100
AcDbEntity
  8
1
  6
Continuous
 62
     3
100
AcDbLine
 10
57.7105868571759
 20
56.9387117545759
 30
0.0
 11
58.2818707519919
 21
57.7843625033222
 31
0.0
  0
LINE
  5
AE
102
{ACAD_REACTORS
330
374
102
}
330
1F
100
AcDbEntity
  8
1
  6
Continuous
 62
     3
100
AcDbLine
 10
57.5093631336993
 20
56.640847603376
 30
0.0
 11
57.2793931640119
 21
56.3004314305763
 31
0.0
  0
LINE
  5
AF
102
{ACAD_REACTORS
330
372
102
}
330
1F
100
AcDbEntity
  8
1
  6
Continuous
 62
     3
100
AcDbLine
 10
52.9230433808757
 20
56.3004314305763
 30
0.0
 11
51.9017948624755
 21
58.002512294576
 31
0.0
  0
LINE
  5
B0
102
{ACAD_REACTORS
330
373
102
}
330
1F
100
AcDbEntity
  8
1
  6
Continuous
 62
     3
100
AcDbLine
 10
56.4215087888344
 20
56.3004314305763
 30
0.0
 11
56.4215087888344
 21
58.002512294576
 31
0.0
  0
LINE
  5
B1
102
{ACAD_REACTORS
330
372
102
}
330
1F
100
AcDbEntity
  8
1
  6
Continuous
 62
     3
100
AcDbLine
 10
51.990412450011
 20
56.640847603376
 30
0.0
 11
50.5308315912993
 21
56.640847603376
 31
0.0
  0
LINE
  5
B2
102
{ACAD_REACTORS
330
372
102
}
330
1F
100
AcDbEntity
  8
1
  6
Continuous
 62
     3
100
AcDbLine
 10
51.8114427771372
 20
56.9387117545759
 30
0.0
 11
51.3033392095916
 21
57.7843625033222
 31
0.0
  0
LINE
  5
B3
102
{ACAD_REACTORS
330
372
102
}
330
1F
100
AcDbEntity
  8
1
  6
Continuous
 62
     3
100
AcDbLine
 10
50.7320553147758
 20
56.9387117545759
 30
0.0
 11
51.8114427771372
 21
56.9387117545759
 31
0.0
  0
LINE
  5
B4
102
{ACAD_REACTORS
330
372
102
}
330
1F
100
AcDbEntity
  8
1
  6
Continuous
 62
     3
100
AcDbLine
 10
52.1949492190095
 20
56.3004314305763
 30
0.0
 11
51.990412450011
 21
56.640847603376
 31
0.0
  0
LINE
  5
B5
102
{ACAD_REACTORS
330
372
102
}
330
1F
100
AcDbEntity
  8
1
  6
Continuous
 62
     3
100
AcDbLine
 10
52.1949492190095
 20
56.3004314305763
 30
0.0
 11
52.9230433808757
 21
56.3004314305763
 31
0.0
  0
LINE
  5
B6
102
{ACAD_REACTORS
330
373
102
}
330
1F
100
AcDbEntity
  8
1
  6
Continuous
 62
     3
100
AcDbLine
 10
53.3050031256346
 20
56.3004314305763
 30
0.0
 11
53.7707314280345
 21
56.3004314305763
 31
0.0
  0
LINE
  5
B7
102
{ACAD_REACTORS
330
373
102
}
330
1F
100
AcDbEntity
  8
1
  6
Continuous
 62
     3
100
AcDbLine
 10
53.3050031256346
 20
58.002512294576
 30
0.0
 11
54.3516578300939
 21
58.002512294576
 31
0.0
  0
LINE
  5
B8
102
{ACAD_REACTORS
330
373
102
}
330
1F
100
AcDbEntity
  8
1
  6
Continuous
 62
     3
100
AcDbLine
 10
53.3050031256346
 20
58.002512294576
 30
0.0
 11
53.3050031256346
 21
56.3004314305763
 31
0.0
  0
LINE
  5
B9
102
{ACAD_REACTORS
330
370
102
}
330
1F
100
AcDbEntity
  8
1
  6
Continuous
 62
     3
100
AcDbLine
 10
45.6563585417704
 20
58.951471862576
 30
0.0
 11
45.6563585417704
 21
55.3514718625761
 31
0.0
  0
LINE
  5
BA
102
{ACAD_REACTORS
330
36E
102
}
330
1F
100
AcDbEntity
  8
1
  6
Continuous
 62
     3
100
AcDbLine
 10
40.6163585417704
 20
58.951471862576
 30
0.0
 11
40.6163585417704
 21
55.3514718625761
 31
0.0
  0
LINE
  5
BB
102
{ACAD_REACTORS
330
36E
102
}
330
1F
100
AcDbEntity
  8
1
  6
Continuous
 62
     3
100
AcDbLine
 10
40.6163585417704
 20
58.951471862576
 30
0.0
 11
41.7663585417704
 21
58.951471862576
 31
0.0
  0
LINE
  5
BC
102
{ACAD_REACTORS
330
36E
102
}
330
1F
100
AcDbEntity
  8
1
  6
Continuous
 62
     3
100
AcDbLine
 10
40.6163585417704
 20
55.3514718625761
 30
0.0
 11
41.7663585417704
 21
55.3514718625761
 31
0.0
  0
LINE
  5
BD
102
{ACAD_REACTORS
330
371
102
}
330
1F
100
AcDbEntity
  8
1
  6
Continuous
 62
     3
100
AcDbLine
 10
46.8597519072346
 20
58.002512294576
 30
0.0
 11
46.8597519072346
 21
56.3004314305763
 31
0.0
  0
LINE
  5
BE
102
{ACAD_REACTORS
330
371
102
}
330
1F
100
AcDbEntity
  8
1
  6
Continuous
 62
     3
100
AcDbLine
 10
49.4979772464344
 20
58.002512294576
 30
0.0
 11
49.4979772464344
 21
56.3004314305763
 31
0.0
  0
LINE
  5
BF
102
{ACAD_REACTORS
330
372
102
}
330
1F
100
AcDbEntity
  8
1
  6
Continuous
 62
     3
100
AcDbLine
 10
49.8208413976345
 20
56.3004314305763
 30
0.0
 11
50.9271939592344
 21
58.002512294576
 31
0.0
  0
LINE
  5
C0
102
{ACAD_REACTORS
330
372
102
}
330
1F
100
AcDbEntity
  8
1
  6
Continuous
 62
     3
100
AcDbLine
 10
50.9271939592344
 20
58.002512294576
 30
0.0
 11
51.9017948624755
 21
58.002512294576
 31
0.0
  0
LINE
  5
C1
102
{ACAD_REACTORS
330
372
102
}
330
1F
100
AcDbEntity
  8
1
  6
Continuous
 62
     3
100
AcDbLine
 10
49.8208413976345
 20
56.3004314305763
 30
0.0
 11
50.3008616216118
 21
56.3004314305763
 31
0.0
  0
LINE
  5
C2
102
{ACAD_REACTORS
330
370
102
}
330
1F
100
AcDbEntity
  8
1
  6
Continuous
 62
     3
100
AcDbLine
 10
45.6563585417704
 20
58.951471862576
 30
0.0
 11
44.5063585417703
 21
58.951471862576
 31
0.0
  0
LINE
  5
C3
102
{ACAD_REACTORS
330
370
102
}
330
1F
100
AcDbEntity
  8
1
  6
Continuous
 62
     3
100
AcDbLine
 10
45.6563585417704
 20
55.3514718625761
 30
0.0
 11
44.5063585417703
 21
55.3514718625761
 31
0.0
  0
LINE
  5
C4
102
{ACAD_REACTORS
330
373
102
}
330
1F
100
AcDbEntity
  8
1
  6
Continuous
 62
     3
100
AcDbLine
 10
55.7004683568343
 20
57.5344400569763
 30
0.0
 11
55.7004683568343
 21
56.3004314305763
 31
0.0
  0
LINE
  5
C5
102
{ACAD_REACTORS
330
373
102
}
330
1F
100
AcDbEntity
  8
1
  6
Continuous
 62
     3
100
AcDbLine
 10
55.7004683568343
 20
56.3004314305763
 30
0.0
 11
56.4215087888344
 21
56.3004314305763
 31
0.0
  0
LINE
  5
C6
102
{ACAD_REACTORS
330
373
102
}
330
1F
100
AcDbEntity
  8
1
  6
Continuous
 62
     3
100
AcDbLine
 10
53.7707314280345
 20
57.5344400569763
 30
0.0
 11
53.7707314280345
 21
56.3004314305763
 31
0.0
  0
LINE
  5
C7
102
{ACAD_REACTORS
330
370
102
}
330
1F
100
AcDbEntity
  8
1
  6
Continuous
 62
     3
100
AcDbLine
 10
44.5063585417703
 20
58.951471862576
 30
0.0
 11
44.5063585417703
 21
55.3514718625761
 31
0.0
  0
LINE
  5
C8
102
{ACAD_REACTORS
330
36E
102
}
330
1F
100
AcDbEntity
  8
1
  6
Continuous
 62
     3
100
AcDbLine
 10
41.7663585417704
 20
58.951471862576
 30
0.0
 11
41.7663585417704
 21
55.3514718625761
 31
0.0
  0
LINE
  5
C9
102
{ACAD_REACTORS
330
36F
102
}
330
1F
100
AcDbEntity
  8
1
  6
Continuous
 62
     3
100
AcDbLine
 10
43.7113585417704
 20
55.3514718625761
 30
0.0
 11
43.7113585417704
 21
58.951471862576
 31
0.0
  0
LINE
  5
CA
102
{ACAD_REACTORS
330
36F
102
}
330
1F
100
AcDbEntity
  8
1
  6
Continuous
 62
     3
100
AcDbLine
 10
42.5613585417705
 20
55.3514718625761
 30
0.0
 11
42.5613585417705
 21
58.951471862576
 31
0.0
  0
LINE
  5
CB
102
{ACAD_REACTORS
330
36F
102
}
330
1F
100
AcDbEntity
  8
1
  6
Continuous
 62
     3
100
AcDbLine
 10
42.5613585417705
 20
55.3514718625761
 30
0.0
 11
43.7113585417704
 21
55.3514718625761
 31
0.0
  0
LINE
  5
CC
102
{ACAD_REACTORS
330
36F
102
}
330
1F
100
AcDbEntity
  8
1
  6
Continuous
 62
     3
100
AcDbLine
 10
42.5613585417705
 20
58.951471862576
 30
0.0
 11
43.7113585417704
 21
58.951471862576
 31
0.0
  0
LINE
  5
CD
102
{ACAD_REACTORS
330
371
102
}
330
1F
100
AcDbEntity
  8
1
  6
Continuous
 62
     3
100
AcDbLine
 10
48.7594368144345
 20
58.002512294576
 30
0.0
 11
49.4979772464344
 21
58.002512294576
 31
0.0
  0
LINE
  5
CE
102
{ACAD_REACTORS
330
371
102
}
330
1F
100
AcDbEntity
  8
1
  6
Continuous
 62
     3
100
AcDbLine
 10
47.5982923392346
 20
58.002512294576
 30
0.0
 11
46.8597519072346
 21
58.002512294576
 31
0.0
  0
LINE
  5
CF
102
{ACAD_REACTORS
330
371
102
}
330
1F
100
AcDbEntity
  8
1
  6
Continuous
 62
     3
100
AcDbLine
 10
47.5982923392346
 20
56.3004314305763
 30
0.0
 11
46.8597519072346
 21
56.3004314305763
 31
0.0
  0
LINE
  5
D0
102
{ACAD_REACTORS
330
371
102
}
330
1F
100
AcDbEntity
  8
1
  6
Continuous
 62
     3
100
AcDbLine
 10
48.7594368144345
 20
56.3004314305763
 30
0.0
 11
49.4979772464344
 21
56.3004314305763
 31
0.0
  0
LINE
  5
D1
102
{ACAD_REACTORS
330
371
102
}
330
1F
100
AcDbEntity
  8
1
  6
Continuous
 62
     3
100
AcDbLine
 10
48.7594368144345
 20
56.3004314305763
 30
0.0
 11
48.7594368144345
 21
56.9987117545761
 31
0.0
  0
LINE
  5
D2
102
{ACAD_REACTORS
330
371
102
}
330
1F
100
AcDbEntity
  8
1
  6
Continuous
 62
     3
100
AcDbLine
 10
48.7594368144345
 20
56.9987117545761
 30
0.0
 11
47.5982923392346
 21
56.9987117545761
 31
0.0
  0
LINE
  5
D3
102
{ACAD_REACTORS
330
371
102
}
330
1F
100
AcDbEntity
  8
1
  6
Continuous
 62
     3
100
AcDbLine
 10
48.7594368144345
 20
57.3042319705762
 30
0.0
 11
48.7594368144345
 21
58.002512294576
 31
0.0
  0
LINE
  5
D4
102
{ACAD_REACTORS
330
371
102
}
330
1F
100
AcDbEntity
  8
1
  6
Continuous
 62
     3
100
AcDbLine
 10
48.7594368144345
 20
57.3042319705762
 30
0.0
 11
47.5982923392346
 21
57.3042319705762
 31
0.0
  0
LINE
  5
D5
102
{ACAD_REACTORS
330
371
102
}
330
1F
100
AcDbEntity
  8
1
  6
Continuous
 62
     3
100
AcDbLine
 10
47.5982923392346
 20
58.002512294576
 30
0.0
 11
47.5982923392346
 21
57.3042319705762
 31
0.0
  0
LINE
  5
D6
102
{ACAD_REACTORS
330
371
102
}
330
1F
100
AcDbEntity
  8
1
  6
Continuous
 62
     3
100
AcDbLine
 10
47.5982923392346
 20
56.9987117545761
 30
0.0
 11
47.5982923392346
 21
56.3004314305763
 31
0.0
  0
LINE
  5
D7
102
{ACAD_REACTORS
330
372
102
}
330
1F
100
AcDbEntity
  8
1
  6
Continuous
 62
     3
100
AcDbLine
 10
50.7320553147758
 20
56.9387117545759
 30
0.0
 11
51.3033392095916
 21
57.7843625033222
 31
0.0
  0
LINE
  5
D8
102
{ACAD_REACTORS
330
372
102
}
330
1F
100
AcDbEntity
  8
1
  6
Continuous
 62
     3
100
AcDbLine
 10
50.5308315912993
 20
56.640847603376
 30
0.0
 11
50.3008616216118
 21
56.3004314305763
 31
0.0
  0
LINE
  5
D9
102
{ACAD_REACTORS
330
373
102
}
330
1F
100
AcDbEntity
  8
1
  6
Continuous
 62
     3
100
AcDbLine
 10
55.7004683568343
 20
57.5344400569763
 30
0.0
 11
55.0735140956508
 21
56.3004314305763
 31
0.0
  0
LINE
  5
DA
102
{ACAD_REACTORS
330
373
102
}
330
1F
100
AcDbEntity
  8
1
  6
Continuous
 62
     3
100
AcDbLine
 10
55.0735140956508
 20
56.3004314305763
 30
0.0
 11
54.4421560376422
 21
56.3004314305763
 31
0.0
  0
LINE
  5
DB
102
{ACAD_REACTORS
330
373
102
}
330
1F
100
AcDbEntity
  8
1
  6
Continuous
 62
     3
100
AcDbLine
 10
54.4421560376422
 20
56.3004314305763
 30
0.0
 11
53.7707314280345
 21
57.5344400569763
 31
0.0
  0
LINE
  5
DC
102
{ACAD_REACTORS
330
373
102
}
330
1F
100
AcDbEntity
  8
1
  6
Continuous
 62
     3
100
AcDbLine
 10
54.8648205665328
 20
56.9387117545759
 30
0.0
 11
54.3516578300939
 21
58.002512294576
 31
0.0
  0
LINE
  5
DD
102
{ACAD_REACTORS
330
373
102
}
330
1F
100
AcDbEntity
  8
1
  6
Continuous
 62
     3
100
AcDbLine
 10
54.8648205665328
 20
56.9387117545759
 30
0.0
 11
55.3403199828677
 21
58.002512294576
 31
0.0
  0
LINE
  5
DE
102
{ACAD_REACTORS
330
373
102
}
330
1F
100
AcDbEntity
  8
1
  6
Continuous
 62
     3
100
AcDbLine
 10
55.3403199828677
 20
58.002512294576
 30
0.0
 11
56.4215087888344
 21
58.002512294576
 31
0.0
  0
LINE
  5
DF
102
{ACAD_REACTORS
330
375
102
}
330
1F
100
AcDbEntity
  8
1
  6
Continuous
 62
     3
100
AcDbLine
 10
60.3036339547278
 20
56.3004314305763
 30
0.0
 11
60.929674386728
 21
56.3004314305763
 31
0.0
  0
LINE
  5
E0
102
{ACAD_REACTORS
330
380
102
}
330
1F
100
AcDbEntity
  8
1
  6
Continuous
 62
     3
100
AcDbLine
 10
67.1205741167661
 20
59.0809147505664
 30
0.0
 11
67.1205741167661
 21
59.3792285205683
 31
0.0
  0
LINE
  5
E1
102
{ACAD_REACTORS
330
380
102
}
330
1F
100
AcDbEntity
  8
1
  6
Continuous
 62
     3
100
AcDbLine
 10
67.8365271647704
 20
59.0809147505664
 30
0.0
 11
67.1205741167661
 21
59.0809147505664
 31
0.0
  0
LINE
  5
E2
102
{ACAD_REACTORS
330
380
102
}
330
1F
100
AcDbEntity
  8
1
  6
Continuous
 62
     3
100
AcDbLine
 10
67.8365271647704
 20
59.3792285205683
 30
0.0
 11
67.8365271647704
 21
59.0809147505664
 31
0.0
  0
LINE
  5
E3
102
{ACAD_REACTORS
330
380
102
}
330
1F
100
AcDbEntity
  8
1
  6
Continuous
 62
     3
100
AcDbLine
 10
67.1205741167661
 20
59.3792285205683
 30
0.0
 11
67.8365271647704
 21
59.3792285205683
 31
0.0
  0
LINE
  5
E4
102
{ACAD_REACTORS
330
382
102
}
330
1F
100
AcDbEntity
  8
1
  6
Continuous
 62
     3
100
AcDbLine
 10
70.2230373247841
 20
58.2456361945616
 30
0.0
 11
70.2230373247841
 21
60.2145070765731
 31
0.0
  0
LINE
  5
E5
102
{ACAD_REACTORS
330
382
102
}
330
1F
100
AcDbEntity
  8
1
  6
Continuous
 62
     3
100
AcDbLine
 10
70.5213510947859
 20
58.0666479325606
 30
0.0
 11
70.4020255867852
 21
58.0666479325606
 31
0.0
  0
LINE
  5
E6
102
{ACAD_REACTORS
330
382
102
}
330
1F
100
AcDbEntity
  8
1
  6
Continuous
 62
     3
100
AcDbLine
 10
70.7003393567868
 20
60.2145070765731
 30
0.0
 11
70.7003393567868
 21
58.2456361945616
 31
0.0
  0
LINE
  5
E7
102
{ACAD_REACTORS
330
382
102
}
330
1F
100
AcDbEntity
  8
1
  6
Continuous
 62
     3
100
AcDbLine
 10
70.4020255867852
 20
60.3934953385741
 30
0.0
 11
70.5213510947859
 21
60.3934953385741
 31
0.0
  0
LINE
  5
E8
102
{ACAD_REACTORS
330
382
102
}
330
1F
100
AcDbEntity
  8
1
  6
Continuous
 62
     3
100
AcDbLine
 10
69.865060800782
 20
58.0666479325606
 30
0.0
 11
69.865060800782
 21
60.3934953385741
 31
0.0
  0
LINE
  5
E9
102
{ACAD_REACTORS
330
382
102
}
330
1F
100
AcDbEntity
  8
1
  6
Continuous
 62
     3
100
AcDbLine
 10
70.7003393567868
 20
57.7086714085586
 30
0.0
 11
70.2230373247841
 21
57.7086714085586
 31
0.0
  0
LINE
  5
EA
102
{ACAD_REACTORS
330
382
102
}
330
1F
100
AcDbEntity
  8
1
  6
Continuous
 62
     3
100
AcDbLine
 10
71.0583158807889
 20
60.3934953385741
 30
0.0
 11
71.0583158807889
 21
58.0666479325606
 31
0.0
  0
LINE
  5
EB
102
{ACAD_REACTORS
330
382
102
}
330
1F
100
AcDbEntity
  8
1
  6
Continuous
 62
     3
100
AcDbLine
 10
70.2230373247841
 20
60.7514718625761
 30
0.0
 11
70.7003393567868
 21
60.7514718625761
 31
0.0
  0
LINE
  5
EC
102
{ACAD_REACTORS
330
383
102
}
330
1F
100
AcDbEntity
  8
1
  6
Continuous
 62
     3
100
AcDbLine
 10
71.7742689287929
 20
58.2456361945616
 30
0.0
 11
71.7742689287929
 21
60.2145070765731
 31
0.0
  0
LINE
  5
ED
102
{ACAD_REACTORS
330
383
102
}
330
1F
100
AcDbEntity
  8
1
  6
Continuous
 62
     3
100
AcDbLine
 10
72.0725826987948
 20
58.0666479325606
 30
0.0
 11
71.9532571907941
 21
58.0666479325606
 31
0.0
  0
LINE
  5
EE
102
{ACAD_REACTORS
330
383
102
}
330
1F
100
AcDbEntity
  8
1
  6
Continuous
 62
     3
100
AcDbLine
 10
72.2515709607958
 20
60.2145070765731
 30
0.0
 11
72.2515709607958
 21
58.2456361945616
 31
0.0
  0
LINE
  5
EF
102
{ACAD_REACTORS
330
383
102
}
330
1F
100
AcDbEntity
  8
1
  6
Continuous
 62
     3
100
AcDbLine
 10
71.9532571907941
 20
60.3934953385741
 30
0.0
 11
72.0725826987948
 21
60.3934953385741
 31
0.0
  0
LINE
  5
F0
102
{ACAD_REACTORS
330
383
102
}
330
1F
100
AcDbEntity
  8
1
  6
Continuous
 62
     3
100
AcDbLine
 10
71.416292404791
 20
58.0666479325606
 30
0.0
 11
71.416292404791
 21
60.3934953385741
 31
0.0
  0
LINE
  5
F1
102
{ACAD_REACTORS
330
383
102
}
330
1F
100
AcDbEntity
  8
1
  6
Continuous
 62
     3
100
AcDbLine
 10
72.2515709607958
 20
57.7086714085586
 30
0.0
 11
71.7742689287929
 21
57.7086714085586
 31
0.0
  0
LINE
  5
F2
102
{ACAD_REACTORS
330
383
102
}
330
1F
100
AcDbEntity
  8
1
  6
Continuous
 62
     3
100
AcDbLine
 10
72.6095474847978
 20
60.3934953385741
 30
0.0
 11
72.6095474847978
 21
58.0666479325606
 31
0.0
  0
LINE
  5
F3
102
{ACAD_REACTORS
330
383
102
}
330
1F
100
AcDbEntity
  8
1
  6
Continuous
 62
     3
100
AcDbLine
 10
71.7742689287929
 20
60.7514718625761
 30
0.0
 11
72.2515709607958
 21
60.7514718625761
 31
0.0
  0
LINE
  5
F4
102
{ACAD_REACTORS
330
37F
102
}
330
1F
100
AcDbEntity
  8
1
  6
Continuous
 62
     3
100
AcDbLine
 10
66.404621068762
 20
58.7527696035646
 30
0.0
 11
66.404621068762
 21
58.1263106865609
 31
0.0
  0
LINE
  5
F5
102
{ACAD_REACTORS
330
37F
102
}
330
1F
100
AcDbEntity
  8
1
  6
Continuous
 62
     3
100
AcDbLine
 10
66.2852955607613
 20
58.8720951115653
 30
0.0
 11
66.225632806761
 21
58.8720951115653
 31
0.0
  0
LINE
  5
F6
102
{ACAD_REACTORS
330
37F
102
}
330
1F
100
AcDbEntity
  8
1
  6
Continuous
 62
     3
100
AcDbLine
 10
66.1063072987602
 20
59.2897343895678
 30
0.0
 11
66.1063072987602
 21
59.6775422905699
 31
0.0
  0
LINE
  5
F7
102
{ACAD_REACTORS
330
37F
102
}
330
1F
100
AcDbEntity
  8
1
  6
Continuous
 62
     3
100
AcDbLine
 10
66.225632806761
 20
59.1704088815669
 30
0.0
 11
66.2852955607613
 21
59.1704088815669
 31
0.0
  0
LINE
  5
F8
102
{ACAD_REACTORS
330
37F
102
}
330
1F
100
AcDbEntity
  8
1
  6
Continuous
 62
     3
100
AcDbLine
 10
66.7029348387637
 20
59.2002402585671
 30
0.0
 11
66.7029348387637
 21
59.8565305525709
 31
0.0
  0
LINE
  5
F9
102
{ACAD_REACTORS
330
37F
102
}
330
1F
100
AcDbEntity
  8
1
  6
Continuous
 62
     3
100
AcDbLine
 10
65.8079935287586
 20
58.8422637345651
 30
0.0
 11
65.8079935287586
 21
57.94732242456
 31
0.0
  0
LINE
  5
FA
102
{ACAD_REACTORS
330
37F
102
}
330
1F
100
AcDbEntity
  8
1
  6
Continuous
 62
     3
100
AcDbLine
 10
65.8079935287586
 20
59.8565305525709
 30
0.0
 11
65.8079935287586
 21
59.2002402585671
 31
0.0
  0
LINE
  5
FB
102
{ACAD_REACTORS
330
37F
102
}
330
1F
100
AcDbEntity
  8
1
  6
Continuous
 62
     3
100
AcDbLine
 10
66.1063072987602
 20
58.1263106865609
 30
0.0
 11
66.1063072987602
 21
58.7527696035646
 31
0.0
  0
LINE
  5
FC
102
{ACAD_REACTORS
330
37F
102
}
330
1F
100
AcDbEntity
  8
1
  6
Continuous
 62
     3
100
AcDbLine
 10
66.2852955607613
 20
58.0069851785603
 30
0.0
 11
66.225632806761
 21
58.0069851785603
 31
0.0
  0
LINE
  5
FD
102
{ACAD_REACTORS
330
37F
102
}
330
1F
100
AcDbEntity
  8
1
  6
Continuous
 62
     3
100
AcDbLine
 10
66.404621068762
 20
59.6775422905699
 30
0.0
 11
66.404621068762
 21
59.2897343895678
 31
0.0
  0
LINE
  5
FE
102
{ACAD_REACTORS
330
37F
102
}
330
1F
100
AcDbEntity
  8
1
  6
Continuous
 62
     3
100
AcDbLine
 10
66.225632806761
 20
59.7968677985706
 30
0.0
 11
66.2852955607613
 21
59.7968677985706
 31
0.0
  0
LINE
  5
FF
102
{ACAD_REACTORS
330
37F
102
}
330
1F
100
AcDbEntity
  8
1
  6
Continuous
 62
     3
100
AcDbLine
 10
66.7029348387637
 20
57.94732242456
 30
0.0
 11
66.7029348387637
 21
58.8422637345651
 31
0.0
  0
LINE
  5
100
102
{ACAD_REACTORS
330
37F
102
}
330
1F
100
AcDbEntity
  8
1
  6
Continuous
 62
     3
100
AcDbLine
 10
66.0466445447598
 20
57.7086714085586
 30
0.0
 11
66.4642838227624
 21
57.7086714085586
 31
0.0
  0
LINE
  5
101
102
{ACAD_REACTORS
330
37F
102
}
330
1F
100
AcDbEntity
  8
1
  6
Continuous
 62
     3
100
AcDbLine
 10
66.4642838227624
 20
60.0951815685722
 30
0.0
 11
66.0466445447598
 21
60.0951815685722
 31
0.0
  0
LINE
  5
102
102
{ACAD_REACTORS
330
37E
102
}
330
1F
100
AcDbEntity
  8
1
  6
Continuous
 62
     3
100
AcDbLine
 10
65.9869817907595
 20
60.7514718625761
 30
0.0
 11
64.1374364167489
 21
57.7086714085586
 31
0.0
  0
LINE
  5
103
102
{ACAD_REACTORS
330
37E
102
}
330
1F
100
AcDbEntity
  8
1
  6
Continuous
 62
     3
100
AcDbLine
 10
65.6886680207579
 20
60.7514718625761
 30
0.0
 11
65.9869817907595
 21
60.7514718625761
 31
0.0
  0
LINE
  5
104
102
{ACAD_REACTORS
330
37E
102
}
330
1F
100
AcDbEntity
  8
1
  6
Continuous
 62
     3
100
AcDbLine
 10
63.8391226467472
 20
57.7086714085586
 30
0.0
 11
65.6886680207579
 21
60.7514718625761
 31
0.0
  0
LINE
  5
105
102
{ACAD_REACTORS
330
37E
102
}
330
1F
100
AcDbEntity
  8
1
  6
Continuous
 62
     3
100
AcDbLine
 10
63.8391226467472
 20
57.7086714085586
 30
0.0
 11
64.1374364167489
 21
57.7086714085586
 31
0.0
  0
LINE
  5
106
102
{ACAD_REACTORS
330
37D
102
}
330
1F
100
AcDbEntity
  8
1
  6
Continuous
 62
     3
100
AcDbLine
 10
64.0181109087482
 20
59.4687226515688
 30
0.0
 11
64.0181109087482
 21
58.6036127185638
 31
0.0
  0
LINE
  5
107
102
{ACAD_REACTORS
330
37D
102
}
330
1F
100
AcDbEntity
  8
1
  6
Continuous
 62
     3
100
AcDbLine
 10
63.7197971387465
 20
59.3792285205683
 30
0.0
 11
63.7197971387465
 21
58.7826009805648
 31
0.0
  0
LINE
  5
108
102
{ACAD_REACTORS
330
37D
102
}
330
1F
100
AcDbEntity
  8
1
  6
Continuous
 62
     3
100
AcDbLine
 10
63.4214833687447
 20
59.4985540285689
 30
0.0
 11
63.6004716307457
 21
59.4985540285689
 31
0.0
  0
LINE
  5
109
102
{ACAD_REACTORS
330
37D
102
}
330
1F
100
AcDbEntity
  8
1
  6
Continuous
 62
     3
100
AcDbLine
 10
63.4214833687447
 20
59.7968677985706
 30
0.0
 11
63.4214833687447
 21
59.4985540285689
 31
0.0
  0
LINE
  5
10A
102
{ACAD_REACTORS
330
37D
102
}
330
1F
100
AcDbEntity
  8
1
  6
Continuous
 62
     3
100
AcDbLine
 10
63.6004716307457
 20
59.7968677985706
 30
0.0
 11
63.4214833687447
 21
59.7968677985706
 31
0.0
  0
LINE
  5
10B
102
{ACAD_REACTORS
330
37D
102
}
330
1F
100
AcDbEntity
  8
1
  6
Continuous
 62
     3
100
AcDbLine
 10
63.7197971387465
 20
60.3338325845738
 30
0.0
 11
63.7197971387465
 21
59.9161933065713
 31
0.0
  0
LINE
  5
10C
102
{ACAD_REACTORS
330
37D
102
}
330
1F
100
AcDbEntity
  8
1
  6
Continuous
 62
     3
100
AcDbLine
 10
63.5408088767455
 20
58.6632754725641
 30
0.0
 11
63.6004716307457
 21
58.6632754725641
 31
0.0
  0
LINE
  5
10D
102
{ACAD_REACTORS
330
37D
102
}
330
1F
100
AcDbEntity
  8
1
  6
Continuous
 62
     3
100
AcDbLine
 10
63.4214833687447
 20
59.2599030125676
 30
0.0
 11
63.4214833687447
 21
58.7826009805648
 31
0.0
  0
LINE
  5
10E
102
{ACAD_REACTORS
330
37D
102
}
330
1F
100
AcDbEntity
  8
1
  6
Continuous
 62
     3
100
AcDbLine
 10
63.5408088767455
 20
60.4531580925744
 30
0.0
 11
63.6004716307457
 21
60.4531580925744
 31
0.0
  0
LINE
  5
10F
102
{ACAD_REACTORS
330
37D
102
}
330
1F
100
AcDbEntity
  8
1
  6
Continuous
 62
     3
100
AcDbLine
 10
63.4214833687447
 20
60.0355188145719
 30
0.0
 11
63.4214833687447
 21
60.3338325845738
 31
0.0
  0
LINE
  5
110
102
{ACAD_REACTORS
330
37D
102
}
330
1F
100
AcDbEntity
  8
1
  6
Continuous
 62
     3
100
AcDbLine
 10
63.1231695987431
 20
59.2599030125676
 30
0.0
 11
63.4214833687447
 21
59.2599030125676
 31
0.0
  0
LINE
  5
111
102
{ACAD_REACTORS
330
37D
102
}
330
1F
100
AcDbEntity
  8
1
  6
Continuous
 62
     3
100
AcDbLine
 10
63.1231695987431
 20
60.0355188145719
 30
0.0
 11
63.1231695987431
 21
60.5128208465748
 31
0.0
  0
LINE
  5
112
102
{ACAD_REACTORS
330
37D
102
}
330
1F
100
AcDbEntity
  8
1
  6
Continuous
 62
     3
100
AcDbLine
 10
63.1231695987431
 20
60.0355188145719
 30
0.0
 11
63.4214833687447
 21
60.0355188145719
 31
0.0
  0
LINE
  5
113
102
{ACAD_REACTORS
330
37D
102
}
330
1F
100
AcDbEntity
  8
1
  6
Continuous
 62
     3
100
AcDbLine
 10
63.1231695987431
 20
58.6036127185638
 30
0.0
 11
63.1231695987431
 21
59.2599030125676
 31
0.0
  0
LINE
  5
114
102
{ACAD_REACTORS
330
37D
102
}
330
1F
100
AcDbEntity
  8
1
  6
Continuous
 62
     3
100
AcDbLine
 10
63.7794598927468
 20
58.3649617025623
 30
0.0
 11
63.3618206147444
 21
58.3649617025623
 31
0.0
  0
LINE
  5
115
102
{ACAD_REACTORS
330
37D
102
}
330
1F
100
AcDbEntity
  8
1
  6
Continuous
 62
     3
100
AcDbLine
 10
64.0181109087482
 20
60.5128208465748
 30
0.0
 11
64.0181109087482
 21
59.8266991755708
 31
0.0
  0
LINE
  5
116
102
{ACAD_REACTORS
330
37D
102
}
330
1F
100
AcDbEntity
  8
1
  6
Continuous
 62
     3
100
AcDbLine
 10
63.3618206147444
 20
60.7514718625761
 30
0.0
 11
63.7794598927468
 21
60.7514718625761
 31
0.0
  0
LINE
  5
117
102
{ACAD_REACTORS
330
379
102
}
330
1F
100
AcDbEntity
  8
1
  6
Continuous
 62
     3
100
AcDbLine
 10
68.6754298377389
 20
56.591471862576
 30
0.0
 11
69.1522925828368
 21
56.591471862576
 31
0.0
  0
LINE
  5
118
102
{ACAD_REACTORS
330
379
102
}
330
1F
100
AcDbEntity
  8
1
  6
Continuous
 62
     3
100
AcDbLine
 10
69.5099396416605
 20
56.2338248037526
 30
0.0
 11
69.5099396416605
 21
55.5781385292427
 31
0.0
  0
LINE
  5
119
102
{ACAD_REACTORS
330
379
102
}
330
1F
100
AcDbEntity
  8
1
  6
Continuous
 62
     3
100
AcDbLine
 10
69.1522925828368
 20
53.551471862576
 30
0.0
 11
68.6754298377389
 21
53.551471862576
 31
0.0
  0
LINE
  5
11A
102
{ACAD_REACTORS
330
379
102
}
330
1F
100
AcDbEntity
  8
1
  6
Continuous
 62
     3
100
AcDbLine
 10
68.3177827789152
 20
53.9091189213994
 30
0.0
 11
68.3177827789152
 21
54.7436287253211
 31
0.0
  0
LINE
  5
11B
102
{ACAD_REACTORS
330
379
102
}
330
1F
100
AcDbEntity
  8
1
  6
Continuous
 62
     3
100
AcDbLine
 10
68.8542533671507
 20
56.2338248037526
 30
0.0
 11
68.9734690534252
 21
56.2338248037526
 31
0.0
  0
LINE
  5
11C
102
{ACAD_REACTORS
330
379
102
}
330
1F
100
AcDbEntity
  8
1
  6
Continuous
 62
     3
100
AcDbLine
 10
69.1522925828368
 20
56.0550012743408
 30
0.0
 11
69.1522925828368
 21
55.5781385292427
 31
0.0
  0
LINE
  5
11D
102
{ACAD_REACTORS
330
379
102
}
330
1F
100
AcDbEntity
  8
1
  6
Continuous
 62
     3
100
AcDbLine
 10
68.9734690534252
 20
53.9091189213994
 30
0.0
 11
68.8542533671507
 21
53.9091189213994
 31
0.0
  0
LINE
  5
11E
102
{ACAD_REACTORS
330
379
102
}
330
1F
100
AcDbEntity
  8
1
  6
Continuous
 62
     3
100
AcDbLine
 10
68.6754298377389
 20
54.0879424508113
 30
0.0
 11
68.6754298377389
 21
54.7436287253211
 31
0.0
  0
LINE
  5
11F
102
{ACAD_REACTORS
330
379
102
}
330
1F
100
AcDbEntity
  8
1
  6
Continuous
 62
     3
100
AcDbLine
 10
68.3177827789152
 20
54.7436287253211
 30
0.0
 11
68.6754298377389
 21
54.7436287253211
 31
0.0
  0
LINE
  5
120
102
{ACAD_REACTORS
330
379
102
}
330
1F
100
AcDbEntity
  8
1
  6
Continuous
 62
     3
100
AcDbLine
 10
68.3177827789152
 20
55.6377463723799
 30
0.0
 11
68.6754298377389
 21
55.6377463723799
 31
0.0
  0
LINE
  5
121
102
{ACAD_REACTORS
330
379
102
}
330
1F
100
AcDbEntity
  8
1
  6
Continuous
 62
     3
100
AcDbLine
 10
68.3177827789152
 20
55.6377463723799
 30
0.0
 11
68.3177827789152
 21
56.2338248037526
 31
0.0
  0
LINE
  5
122
102
{ACAD_REACTORS
330
379
102
}
330
1F
100
AcDbEntity
  8
1
  6
Continuous
 62
     3
100
AcDbLine
 10
68.6754298377389
 20
55.6377463723799
 30
0.0
 11
68.6754298377389
 21
56.0550012743408
 31
0.0
  0
LINE
  5
123
102
{ACAD_REACTORS
330
379
102
}
330
1F
100
AcDbEntity
  8
1
  6
Continuous
 62
     3
100
AcDbLine
 10
68.9734690534252
 20
55.3993149998309
 30
0.0
 11
68.7350376808761
 21
55.3993149998309
 31
0.0
  0
LINE
  5
124
102
{ACAD_REACTORS
330
379
102
}
330
1F
100
AcDbEntity
  8
1
  6
Continuous
 62
     3
100
AcDbLine
 10
68.7350376808761
 20
55.3993149998309
 30
0.0
 11
68.7350376808761
 21
55.0416679410073
 31
0.0
  0
LINE
  5
125
102
{ACAD_REACTORS
330
379
102
}
330
1F
100
AcDbEntity
  8
1
  6
Continuous
 62
     3
100
AcDbLine
 10
68.7350376808761
 20
55.0416679410073
 30
0.0
 11
68.9734690534252
 21
55.0416679410073
 31
0.0
  0
LINE
  5
126
102
{ACAD_REACTORS
330
379
102
}
330
1F
100
AcDbEntity
  8
1
  6
Continuous
 62
     3
100
AcDbLine
 10
69.1522925828368
 20
54.8628444115955
 30
0.0
 11
69.1522925828368
 21
54.0879424508113
 31
0.0
  0
LINE
  5
127
102
{ACAD_REACTORS
330
379
102
}
330
1F
100
AcDbEntity
  8
1
  6
Continuous
 62
     3
100
AcDbLine
 10
69.5099396416605
 20
54.8628444115955
 30
0.0
 11
69.5099396416605
 21
53.9091189213994
 31
0.0
  0
LINE
  5
128
102
{ACAD_REACTORS
330
377
102
}
330
1F
100
AcDbEntity
  8
1
  6
Continuous
 62
     3
100
AcDbLine
 10
71.7750376808763
 20
56.591471862576
 30
0.0
 11
72.2519004259743
 21
56.591471862576
 31
0.0
  0
LINE
  5
129
102
{ACAD_REACTORS
330
377
102
}
330
1F
100
AcDbEntity
  8
1
  6
Continuous
 62
     3
100
AcDbLine
 10
72.6095474847978
 20
56.2338248037526
 30
0.0
 11
72.6095474847978
 21
55.8600743733151
 31
0.0
  0
LINE
  5
12A
102
{ACAD_REACTORS
330
377
102
}
330
1F
100
AcDbEntity
  8
1
  6
Continuous
 62
     3
100
AcDbLine
 10
72.2519004259743
 20
53.551471862576
 30
0.0
 11
71.7750376808763
 21
53.551471862576
 31
0.0
  0
LINE
  5
12B
102
{ACAD_REACTORS
330
377
102
}
330
1F
100
AcDbEntity
  8
1
  6
Continuous
 62
     3
100
AcDbLine
 10
71.4173906220527
 20
53.9091189213994
 30
0.0
 11
71.4173906220527
 21
56.2338248037526
 31
0.0
  0
LINE
  5
12C
102
{ACAD_REACTORS
330
377
102
}
330
1F
100
AcDbEntity
  8
1
  6
Continuous
 62
     3
100
AcDbLine
 10
71.9538612102881
 20
56.2338248037526
 30
0.0
 11
72.0730768965626
 21
56.2338248037526
 31
0.0
  0
LINE
  5
12D
102
{ACAD_REACTORS
330
377
102
}
330
1F
100
AcDbEntity
  8
1
  6
Continuous
 62
     3
100
AcDbLine
 10
72.2519004259743
 20
56.0550012743408
 30
0.0
 11
72.2519004259743
 21
55.8600743733151
 31
0.0
  0
LINE
  5
12E
102
{ACAD_REACTORS
330
377
102
}
330
1F
100
AcDbEntity
  8
1
  6
Continuous
 62
     3
100
AcDbLine
 10
72.0730768965626
 20
53.9091189213994
 30
0.0
 11
71.9538612102881
 21
53.9091189213994
 31
0.0
  0
LINE
  5
12F
102
{ACAD_REACTORS
330
377
102
}
330
1F
100
AcDbEntity
  8
1
  6
Continuous
 62
     3
100
AcDbLine
 10
71.7750376808763
 20
54.0879424508113
 30
0.0
 11
71.7750376808763
 21
54.7138248037526
 31
0.0
  0
LINE
  5
130
102
{ACAD_REACTORS
330
377
102
}
330
1F
100
AcDbEntity
  8
1
  6
Continuous
 62
     3
100
AcDbLine
 10
72.2519004259743
 20
55.8600743733151
 30
0.0
 11
72.6095474847978
 21
55.8600743733151
 31
0.0
  0
LINE
  5
131
102
{ACAD_REACTORS
330
377
102
}
330
1F
100
AcDbEntity
  8
1
  6
Continuous
 62
     3
100
AcDbLine
 10
72.6095474847978
 20
54.311471862576
 30
0.0
 11
72.6095474847978
 21
53.9091189213994
 31
0.0
  0
LINE
  5
132
102
{ACAD_REACTORS
330
377
102
}
330
1F
100
AcDbEntity
  8
1
  6
Continuous
 62
     3
100
AcDbLine
 10
72.2519004259743
 20
54.311471862576
 30
0.0
 11
72.2519004259743
 21
54.0879424508113
 31
0.0
  0
LINE
  5
133
102
{ACAD_REACTORS
330
377
102
}
330
1F
100
AcDbEntity
  8
1
  6
Continuous
 62
     3
100
AcDbLine
 10
72.6095474847978
 20
54.8926483331643
 30
0.0
 11
72.6095474847978
 21
54.311471862576
 31
0.0
  0
LINE
  5
134
102
{ACAD_REACTORS
330
377
102
}
330
1F
100
AcDbEntity
  8
1
  6
Continuous
 62
     3
100
AcDbLine
 10
72.2519004259743
 20
54.7138248037526
 30
0.0
 11
72.2519004259743
 21
54.311471862576
 31
0.0
  0
LINE
  5
135
102
{ACAD_REACTORS
330
377
102
}
330
1F
100
AcDbEntity
  8
1
  6
Continuous
 62
     3
100
AcDbLine
 10
71.953861210288
 20
54.8926483331643
 30
0.0
 11
72.0730768965626
 21
54.8926483331643
 31
0.0
  0
LINE
  5
136
102
{ACAD_REACTORS
330
377
102
}
330
1F
100
AcDbEntity
  8
1
  6
Continuous
 62
     3
100
AcDbLine
 10
71.7750376808763
 20
55.2804459278685
 30
0.0
 11
71.7750376808763
 21
56.0550012743408
 31
0.0
  0
LINE
  5
137
102
{ACAD_REACTORS
330
378
102
}
330
1F
100
AcDbEntity
  8
1
  6
Continuous
 62
     3
100
AcDbLine
 10
70.4631815840585
 20
53.551471862576
 30
0.0
 11
70.4631815840585
 21
55.7489103728475
 31
0.0
  0
LINE
  5
138
102
{ACAD_REACTORS
330
378
102
}
330
1F
100
AcDbEntity
  8
1
  6
Continuous
 62
     3
100
AcDbLine
 10
70.820828642882
 20
53.551471862576
 30
0.0
 11
70.820828642882
 21
56.591471862576
 31
0.0
  0
LINE
  5
139
102
{ACAD_REACTORS
330
378
102
}
330
1F
100
AcDbEntity
  8
1
  6
Continuous
 62
     3
100
AcDbLine
 10
70.820828642882
 20
56.591471862576
 30
0.0
 11
70.4631815840585
 21
56.591471862576
 31
0.0
  0
LINE
  5
13A
102
{ACAD_REACTORS
330
378
102
}
330
1F
100
AcDbEntity
  8
1
  6
Continuous
 62
     3
100
AcDbLine
 10
70.105534525235
 20
55.7489103728475
 30
0.0
 11
70.4631815840585
 21
55.7489103728475
 31
0.0
  0
LINE
  5
13B
102
{ACAD_REACTORS
330
378
102
}
330
1F
100
AcDbEntity
  8
1
  6
Continuous
 62
     3
100
AcDbLine
 10
70.105534525235
 20
55.7489103728475
 30
0.0
 11
70.105534525235
 21
56.1701911177117
 31
0.0
  0
LINE
  5
13C
102
{ACAD_REACTORS
330
378
102
}
330
1F
100
AcDbEntity
  8
1
  6
Continuous
 62
     3
100
AcDbLine
 10
70.4631815840585
 20
53.551471862576
 30
0.0
 11
70.820828642882
 21
53.551471862576
 31
0.0
  0
LINE
  5
13D
102
{ACAD_REACTORS
330
37A
102
}
330
1F
100
AcDbEntity
  8
1
  6
Continuous
 62
     3
100
AcDbLine
 10
66.5748726427222
 20
56.591471862576
 30
0.0
 11
67.0517353878203
 21
56.591471862576
 31
0.0
  0
LINE
  5
13E
102
{ACAD_REACTORS
330
37A
102
}
330
1F
100
AcDbEntity
  8
1
  6
Continuous
 62
     3
100
AcDbLine
 10
66.2172255838987
 20
55.6564319822202
 30
0.0
 11
66.2172255838987
 21
56.2338248037526
 31
0.0
  0
LINE
  5
13F
102
{ACAD_REACTORS
330
37A
102
}
330
1F
100
AcDbEntity
  8
1
  6
Continuous
 62
     3
100
AcDbLine
 10
67.0517353878203
 20
53.551471862576
 30
0.0
 11
66.5748726427222
 21
53.551471862576
 31
0.0
  0
LINE
  5
140
102
{ACAD_REACTORS
330
37A
102
}
330
1F
100
AcDbEntity
  8
1
  6
Continuous
 62
     3
100
AcDbLine
 10
66.2172255838987
 20
53.9091189213994
 30
0.0
 11
66.2172255838987
 21
54.7436287253211
 31
0.0
  0
LINE
  5
141
102
{ACAD_REACTORS
330
37A
102
}
330
1F
100
AcDbEntity
  8
1
  6
Continuous
 62
     3
100
AcDbLine
 10
66.753696172134
 20
56.2338248037526
 30
0.0
 11
66.8729118584087
 21
56.2338248037526
 31
0.0
  0
LINE
  5
142
102
{ACAD_REACTORS
330
37A
102
}
330
1F
100
AcDbEntity
  8
1
  6
Continuous
 62
     3
100
AcDbLine
 10
66.5748726427222
 20
55.6545070614326
 30
0.0
 11
66.5748726427222
 21
56.0550012743408
 31
0.0
  0
LINE
  5
143
102
{ACAD_REACTORS
330
37A
102
}
330
1F
100
AcDbEntity
  8
1
  6
Continuous
 62
     3
100
AcDbLine
 10
66.8729118584087
 20
53.9091189213994
 30
0.0
 11
66.753696172134
 21
53.9091189213994
 31
0.0
  0
LINE
  5
144
102
{ACAD_REACTORS
330
37A
102
}
330
1F
100
AcDbEntity
  8
1
  6
Continuous
 62
     3
100
AcDbLine
 10
66.5748726427222
 20
54.0879424508113
 30
0.0
 11
66.5748726427222
 21
54.7436287253211
 31
0.0
  0
LINE
  5
145
102
{ACAD_REACTORS
330
37A
102
}
330
1F
100
AcDbEntity
  8
1
  6
Continuous
 62
     3
100
AcDbLine
 10
66.2172255838987
 20
54.7436287253211
 30
0.0
 11
66.5748726427222
 21
54.7436287253211
 31
0.0
  0
LINE
  5
146
102
{ACAD_REACTORS
330
37A
102
}
330
1F
100
AcDbEntity
  8
1
  6
Continuous
 62
     3
100
AcDbLine
 10
67.0517353878203
 20
55.6377463723799
 30
0.0
 11
67.4093824466438
 21
55.6377463723799
 31
0.0
  0
LINE
  5
147
102
{ACAD_REACTORS
330
37A
102
}
330
1F
100
AcDbEntity
  8
1
  6
Continuous
 62
     3
100
AcDbLine
 10
67.4093824466438
 20
56.2338248037526
 30
0.0
 11
67.4093824466438
 21
55.6377463723799
 31
0.0
  0
LINE
  5
148
102
{ACAD_REACTORS
330
37A
102
}
330
1F
100
AcDbEntity
  8
1
  6
Continuous
 62
     3
100
AcDbLine
 10
67.0517353878203
 20
56.0550012743408
 30
0.0
 11
67.0517353878203
 21
55.6377463723799
 31
0.0
  0
LINE
  5
149
102
{ACAD_REACTORS
330
37A
102
}
330
1F
100
AcDbEntity
  8
1
  6
Continuous
 62
     3
100
AcDbLine
 10
67.0517353878203
 20
54.7268680362685
 30
0.0
 11
67.0517353878203
 21
54.0879424508113
 31
0.0
  0
LINE
  5
14A
102
{ACAD_REACTORS
330
37A
102
}
330
1F
100
AcDbEntity
  8
1
  6
Continuous
 62
     3
100
AcDbLine
 10
67.4093824466438
 20
54.7249431154808
 30
0.0
 11
67.4093824466438
 21
53.9091189213994
 31
0.0
  0
LINE
  5
14B
102
{ACAD_REACTORS
330
37A
102
}
330
1F
100
AcDbEntity
  8
1
  6
Continuous
 62
     3
100
AcDbLine
 10
66.6427184924627
 20
55.5248987914325
 30
0.0
 11
67.1888834349874
 21
55.146169992981
 31
0.0
  0
LINE
  5
14C
102
{ACAD_REACTORS
330
37A
102
}
330
1F
100
AcDbEntity
  8
1
  6
Continuous
 62
     3
100
AcDbLine
 10
66.4377245955551
 20
55.23520510472
 30
0.0
 11
66.9838895380798
 21
54.8564763062685
 31
0.0
  0
LINE
  5
14D
102
{ACAD_REACTORS
330
37C
102
}
330
1F
100
AcDbEntity
  8
1
  6
Continuous
 62
     3
100
AcDbLine
 10
63.4808166575667
 20
56.591471862576
 30
0.0
 11
63.9576794026648
 21
56.591471862576
 31
0.0
  0
LINE
  5
14E
102
{ACAD_REACTORS
330
37C
102
}
330
1F
100
AcDbEntity
  8
1
  6
Continuous
 62
     3
100
AcDbLine
 10
63.1231695987431
 20
55.6564319822202
 30
0.0
 11
63.1231695987431
 21
56.2338248037526
 31
0.0
  0
LINE
  5
14F
102
{ACAD_REACTORS
330
37C
102
}
330
1F
100
AcDbEntity
  8
1
  6
Continuous
 62
     3
100
AcDbLine
 10
63.9576794026648
 20
53.551471862576
 30
0.0
 11
63.4808166575667
 21
53.551471862576
 31
0.0
  0
LINE
  5
150
102
{ACAD_REACTORS
330
37C
102
}
330
1F
100
AcDbEntity
  8
1
  6
Continuous
 62
     3
100
AcDbLine
 10
63.1231695987431
 20
53.9091189213994
 30
0.0
 11
63.1231695987431
 21
54.7436287253211
 31
0.0
  0
LINE
  5
151
102
{ACAD_REACTORS
330
37C
102
}
330
1F
100
AcDbEntity
  8
1
  6
Continuous
 62
     3
100
AcDbLine
 10
63.6596401869786
 20
56.2338248037526
 30
0.0
 11
63.7788558732532
 21
56.2338248037526
 31
0.0
  0
LINE
  5
152
102
{ACAD_REACTORS
330
37C
102
}
330
1F
100
AcDbEntity
  8
1
  6
Continuous
 62
     3
100
AcDbLine
 10
63.4808166575667
 20
55.6545070614326
 30
0.0
 11
63.4808166575667
 21
56.0550012743408
 31
0.0
  0
LINE
  5
153
102
{ACAD_REACTORS
330
37C
102
}
330
1F
100
AcDbEntity
  8
1
  6
Continuous
 62
     3
100
AcDbLine
 10
63.7788558732532
 20
53.9091189213994
 30
0.0
 11
63.6596401869786
 21
53.9091189213994
 31
0.0
  0
LINE
  5
154
102
{ACAD_REACTORS
330
37C
102
}
330
1F
100
AcDbEntity
  8
1
  6
Continuous
 62
     3
100
AcDbLine
 10
63.4808166575667
 20
54.0879424508113
 30
0.0
 11
63.4808166575667
 21
54.7436287253211
 31
0.0
  0
LINE
  5
155
102
{ACAD_REACTORS
330
37C
102
}
330
1F
100
AcDbEntity
  8
1
  6
Continuous
 62
     3
100
AcDbLine
 10
63.1231695987431
 20
54.7436287253211
 30
0.0
 11
63.4808166575667
 21
54.7436287253211
 31
0.0
  0
LINE
  5
156
102
{ACAD_REACTORS
330
37C
102
}
330
1F
100
AcDbEntity
  8
1
  6
Continuous
 62
     3
100
AcDbLine
 10
63.9576794026648
 20
55.6377463723799
 30
0.0
 11
64.3153264614883
 21
55.6377463723799
 31
0.0
  0
LINE
  5
157
102
{ACAD_REACTORS
330
37C
102
}
330
1F
100
AcDbEntity
  8
1
  6
Continuous
 62
     3
100
AcDbLine
 10
64.3153264614883
 20
56.2338248037526
 30
0.0
 11
64.3153264614883
 21
55.6377463723799
 31
0.0
  0
LINE
  5
158
102
{ACAD_REACTORS
330
37C
102
}
330
1F
100
AcDbEntity
  8
1
  6
Continuous
 62
     3
100
AcDbLine
 10
63.9576794026648
 20
56.0550012743408
 30
0.0
 11
63.9576794026648
 21
55.6377463723799
 31
0.0
  0
LINE
  5
159
102
{ACAD_REACTORS
330
37C
102
}
330
1F
100
AcDbEntity
  8
1
  6
Continuous
 62
     3
100
AcDbLine
 10
63.9576794026648
 20
54.7268680362685
 30
0.0
 11
63.9576794026648
 21
54.0879424508113
 31
0.0
  0
LINE
  5
15A
102
{ACAD_REACTORS
330
37C
102
}
330
1F
100
AcDbEntity
  8
1
  6
Continuous
 62
     3
100
AcDbLine
 10
64.3153264614883
 20
54.7249431154808
 30
0.0
 11
64.3153264614883
 21
53.9091189213994
 31
0.0
  0
LINE
  5
15B
102
{ACAD_REACTORS
330
37C
102
}
330
1F
100
AcDbEntity
  8
1
  6
Continuous
 62
     3
100
AcDbLine
 10
63.5486625073072
 20
55.5248987914325
 30
0.0
 11
64.0948274498319
 21
55.146169992981
 31
0.0
  0
LINE
  5
15C
102
{ACAD_REACTORS
330
37C
102
}
330
1F
100
AcDbEntity
  8
1
  6
Continuous
 62
     3
100
AcDbLine
 10
63.3436686103995
 20
55.23520510472
 30
0.0
 11
63.8898335529243
 21
54.8564763062685
 31
0.0
  0
LINE
  5
15D
102
{ACAD_REACTORS
330
37B
102
}
330
1F
100
AcDbEntity
  8
1
  6
Continuous
 62
     3
100
AcDbLine
 10
64.6701975913209
 20
53.9091189213994
 30
0.0
 11
64.6701975913209
 21
56.591471862576
 31
0.0
  0
LINE
  5
15E
102
{ACAD_REACTORS
330
37B
102
}
330
1F
100
AcDbEntity
  8
1
  6
Continuous
 62
     3
100
AcDbLine
 10
65.3258838658309
 20
53.9091189213994
 30
0.0
 11
65.2066681795563
 21
53.9091189213994
 31
0.0
  0
LINE
  5
15F
102
{ACAD_REACTORS
330
37B
102
}
330
1F
100
AcDbEntity
  8
1
  6
Continuous
 62
     3
100
AcDbLine
 10
65.0278446501445
 20
54.0879424508113
 30
0.0
 11
65.0278446501444
 21
56.591471862576
 31
0.0
  0
LINE
  5
160
102
{ACAD_REACTORS
330
37B
102
}
330
1F
100
AcDbEntity
  8
1
  6
Continuous
 62
     3
100
AcDbLine
 10
64.6701975913209
 20
56.591471862576
 30
0.0
 11
65.0278446501444
 21
56.591471862576
 31
0.0
  0
LINE
  5
161
102
{ACAD_REACTORS
330
37B
102
}
330
1F
100
AcDbEntity
  8
1
  6
Continuous
 62
     3
100
AcDbLine
 10
65.5047073952425
 20
56.5747111735234
 30
0.0
 11
65.5047073952425
 21
54.0879424508113
 31
0.0
  0
LINE
  5
162
102
{ACAD_REACTORS
330
37B
102
}
330
1F
100
AcDbEntity
  8
1
  6
Continuous
 62
     3
100
AcDbLine
 10
65.5047073952425
 20
53.551471862576
 30
0.0
 11
65.0278446501445
 21
53.551471862576
 31
0.0
  0
LINE
  5
163
102
{ACAD_REACTORS
330
37B
102
}
330
1F
100
AcDbEntity
  8
1
  6
Continuous
 62
     3
100
AcDbLine
 10
65.5047073952425
 20
56.5747111735234
 30
0.0
 11
65.8623544540661
 21
56.5747111735234
 31
0.0
  0
LINE
  5
164
102
{ACAD_REACTORS
330
37B
102
}
330
1F
100
AcDbEntity
  8
1
  6
Continuous
 62
     3
100
AcDbLine
 10
65.8623544540661
 20
56.5747111735234
 30
0.0
 11
65.8623544540661
 21
53.9091189213994
 31
0.0
  0
LINE
  5
165
102
{ACAD_REACTORS
330
381
102
}
330
1F
100
AcDbEntity
  8
1
  6
Continuous
 62
     3
100
AcDbLine
 10
68.6718057207751
 20
60.7486714085586
 30
0.0
 11
69.1486684658732
 21
60.7486714085586
 31
0.0
  0
LINE
  5
166
102
{ACAD_REACTORS
330
381
102
}
330
1F
100
AcDbEntity
  8
1
  6
Continuous
 62
     3
100
AcDbLine
 10
69.5063155246967
 20
60.3910243497352
 30
0.0
 11
69.5063155246967
 21
60.0172739192976
 31
0.0
  0
LINE
  5
167
102
{ACAD_REACTORS
330
381
102
}
330
1F
100
AcDbEntity
  8
1
  6
Continuous
 62
     3
100
AcDbLine
 10
69.1486684658732
 20
57.7086714085586
 30
0.0
 11
68.6718057207751
 21
57.7086714085586
 31
0.0
  0
LINE
  5
168
102
{ACAD_REACTORS
330
381
102
}
330
1F
100
AcDbEntity
  8
1
  6
Continuous
 62
     3
100
AcDbLine
 10
68.3141586619516
 20
58.066318467382
 30
0.0
 11
68.3141586619516
 21
60.3910243497352
 31
0.0
  0
LINE
  5
169
102
{ACAD_REACTORS
330
381
102
}
330
1F
100
AcDbEntity
  8
1
  6
Continuous
 62
     3
100
AcDbLine
 10
68.8506292501869
 20
60.3910243497352
 30
0.0
 11
68.9698449364615
 21
60.3910243497352
 31
0.0
  0
LINE
  5
16A
102
{ACAD_REACTORS
330
381
102
}
330
1F
100
AcDbEntity
  8
1
  6
Continuous
 62
     3
100
AcDbLine
 10
69.1486684658732
 20
60.2122008203235
 30
0.0
 11
69.1486684658732
 21
60.0172739192976
 31
0.0
  0
LINE
  5
16B
102
{ACAD_REACTORS
330
381
102
}
330
1F
100
AcDbEntity
  8
1
  6
Continuous
 62
     3
100
AcDbLine
 10
68.9698449364615
 20
58.066318467382
 30
0.0
 11
68.8506292501869
 21
58.066318467382
 31
0.0
  0
LINE
  5
16C
102
{ACAD_REACTORS
330
381
102
}
330
1F
100
AcDbEntity
  8
1
  6
Continuous
 62
     3
100
AcDbLine
 10
68.6718057207751
 20
58.2451419967938
 30
0.0
 11
68.6718057207751
 21
58.8710243497351
 31
0.0
  0
LINE
  5
16D
102
{ACAD_REACTORS
330
381
102
}
330
1F
100
AcDbEntity
  8
1
  6
Continuous
 62
     3
100
AcDbLine
 10
69.1486684658732
 20
60.0172739192976
 30
0.0
 11
69.5063155246967
 21
60.0172739192976
 31
0.0
  0
LINE
  5
16E
102
{ACAD_REACTORS
330
381
102
}
330
1F
100
AcDbEntity
  8
1
  6
Continuous
 62
     3
100
AcDbLine
 10
69.5063155246967
 20
58.4686714085585
 30
0.0
 11
69.5063155246967
 21
58.066318467382
 31
0.0
  0
LINE
  5
16F
102
{ACAD_REACTORS
330
381
102
}
330
1F
100
AcDbEntity
  8
1
  6
Continuous
 62
     3
100
AcDbLine
 10
69.1486684658732
 20
58.4686714085585
 30
0.0
 11
69.1486684658732
 21
58.2451419967938
 31
0.0
  0
LINE
  5
170
102
{ACAD_REACTORS
330
381
102
}
330
1F
100
AcDbEntity
  8
1
  6
Continuous
 62
     3
100
AcDbLine
 10
69.5063155246967
 20
59.0498478791468
 30
0.0
 11
69.5063155246967
 21
58.4686714085585
 31
0.0
  0
LINE
  5
171
102
{ACAD_REACTORS
330
381
102
}
330
1F
100
AcDbEntity
  8
1
  6
Continuous
 62
     3
100
AcDbLine
 10
69.1486684658732
 20
58.8710243497351
 30
0.0
 11
69.1486684658732
 21
58.4686714085585
 31
0.0
  0
LINE
  5
172
102
{ACAD_REACTORS
330
381
102
}
330
1F
100
AcDbEntity
  8
1
  6
Continuous
 62
     3
100
AcDbLine
 10
68.8506292501869
 20
59.0498478791468
 30
0.0
 11
68.9698449364615
 21
59.0498478791468
 31
0.0
  0
LINE
  5
173
102
{ACAD_REACTORS
330
381
102
}
330
1F
100
AcDbEntity
  8
1
  6
Continuous
 62
     3
100
AcDbLine
 10
68.6718057207751
 20
59.437645473851
 30
0.0
 11
68.6718057207751
 21
60.2122008203235
 31
0.0
  0
LINE
  5
174
330
1F
100
AcDbEntity
  8
1
  6
Continuous
 62
     3
100
AcDbLine
 10
21.1163585417704
 20
50.1514718625761
 30
0.0
 11
10.6464871085566
 21
50.1514718625761
 31
0.0
  0
LINE
  5
175
330
1F
100
AcDbEntity
  8
1
  6
Continuous
 62
     3
100
AcDbLine
 10
21.1163585417704
 20
64.1514718625761
 30
0.0
 11
10.6464871085566
 21
64.1514718625761
 31
0.0
  0
LINE
  5
176
330
1F
100
AcDbEntity
  8
1
  6
DOT_CENTER
 62
     4
100
AcDbLine
 10
74.1689400510625
 20
58.0
 30
0.0
 11
81.1163585417703
 21
58.0
 31
0.0
  0
LINE
  5
177
330
1F
100
AcDbEntity
  8
1
  6
Continuous
 62
     3
100
AcDbLine
 10
22.1163585417704
 20
65.1514718625761
 30
0.0
 11
26.2786833025771
 21
65.1514718625761
 31
0.0
  0
LINE
  5
178
330
1F
100
AcDbEntity
  8
1
  6
Continuous
 62
     3
100
AcDbLine
 10
22.1163585417704
 20
63.1514718625761
 30
0.0
 11
22.1163585417704
 21
51.1514718625761
 31
0.0
  0
LINE
  5
179
330
1F
100
AcDbEntity
  8
1
  6
Continuous
 62
     3
100
AcDbLine
 10
26.2786833025771
 20
49.1514718625761
 30
0.0
 11
22.1163585417704
 21
49.1514718625761
 31
0.0
  0
LINE
  5
17A
330
1F
100
AcDbEntity
  8
1
  6
DOT_CENTER
 62
     4
100
AcDbLine
 10
0.0
 20
71.0
 30
0.0
 11
0.0
 21
45.0
 31
0.0
  0
LINE
  5
17B
330
1F
100
AcDbEntity
  8
1
  6
Continuous
 62
     3
100
AcDbLine
 10
-10.3088053093084
 20
64.062177826491
 30
0.0
 11
-12.37863041789
 21
66.1320029350727
 31
0.0
  0
LINE
  5
17C
330
1F
100
AcDbEntity
  8
1
  6
Continuous
 62
     3
100
AcDbLine
 10
-10.2213258632604
 20
63.974698380443
 30
0.0
 11
-10.3088053093084
 21
64.062177826491
 31
0.0
  0
LINE
  5
17D
330
1F
100
AcDbEntity
  8
1
  6
Continuous
 62
     3
100
AcDbLine
 10
-7.8813461085785
 20
70.1199999999999
 30
0.0
 11
21.88777443158014
 21
70.1199999999999
 31
0.0
  0
LINE
  5
17E
330
1F
100
AcDbEntity
  8
1
  6
Continuous
 62
     3
100
AcDbLine
 10
22.8230818676673
 20
65.1504905438767
 30
0.0
 11
22.8230818676673
 21
68.4999999999999
 31
0.0
  0
LINE
  5
17F
330
1F
100
AcDbEntity
  8
1
  6
Continuous
 62
     3
100
AcDbLine
 10
-12.37863041789
 20
66.1320029350727
 30
0.0
 11
-13.7928439802631
 21
67.5462164974458
 31
0.0
  0
LINE
  5
180
330
1F
100
AcDbEntity
  8
1
  6
Continuous
 62
     3
100
AcDbLine
 10
-8.13598973077069
 20
70.3746436221921
 30
0.0
 11
-9.55020329314382
 21
71.7888571845651
 31
0.0
  0
LINE
  5
181
330
1F
100
AcDbEntity
  8
1
  6
LONG_DASHED
 62
     4
100
AcDbLine
 10
-8.13598973077069
 20
70.3746436221921
 30
0.0
 11
-12.37863041789
 21
66.1320029350727
 31
0.0
  0
LINE
  5
182
330
1F
100
AcDbEntity
  8
1
  6
Continuous
 62
     3
100
AcDbLine
 10
15.8442663902984
 20
63.1152940276483
 30
0.0
 11
15.8442663902984
 21
51.4052044877695
 31
0.0
  0
LINE
  5
183
330
1F
100
AcDbEntity
  8
1
  6
Continuous
 62
     3
100
AcDbLine
 10
-5.97868517614112
 20
68.2173390675625
 30
0.0
 11
-8.13598973077069
 21
70.3746436221921
 31
0.0
  0
LINE
  5
184
330
1F
100
AcDbEntity
  8
1
  6
Continuous
 62
     3
100
AcDbLine
 10
-9.55020329314382
 20
71.7888571845651
 30
0.0
 11
-13.7928439802631
 21
67.5462164974458
 31
0.0
  0
LINE
  5
185
330
1F
100
AcDbEntity
  8
1
  6
Continuous
 62
     3
100
AcDbLine
 10
-2.23606797749977
 20
60.0
 30
0.0
 11
2.23606797749977
 21
60.0
 31
0.0
  0
LINE
  5
186
330
1F
100
AcDbEntity
  8
1
  6
Continuous
 62
     3
100
AcDbLine
 10
-2.23606797749977
 20
56.0
 30
0.0
 11
2.23606797749977
 21
56.0
 31
0.0
  0
LINE
  5
187
330
1F
100
AcDbEntity
  8
1
  6
Continuous
 62
     3
100
AcDbLine
 10
-2.84371592002557
 20
63.0
 30
0.0
 11
2.83519242577478
 21
63.0
 31
0.0
  0
LINE
  5
188
330
1F
100
AcDbEntity
  8
1
  6
Continuous
 62
     3
100
AcDbLine
 10
-2.8675104011773
 20
53.0
 30
0.0
 11
2.85898690692642
 21
53.0
 31
0.0
  0
LINE
  5
189
330
1F
100
AcDbEntity
  8
1
  6
Continuous
 62
     3
100
AcDbLine
 10
-5.75426174712544
 20
58.0
 30
0.0
 11
-2.84371592002557
 21
63.0
 31
0.0
  0
LINE
  5
18A
330
1F
100
AcDbEntity
  8
1
  6
Continuous
 62
     3
100
AcDbLine
 10
-2.8675104011773
 20
53.0
 30
0.0
 11
-5.75426174712544
 21
58.0
 31
0.0
  0
LINE
  5
18B
330
1F
100
AcDbEntity
  8
1
  6
Continuous
 62
     3
100
AcDbLine
 10
5.74573825287456
 20
58.0
 30
0.0
 11
2.85898690692642
 21
53.0
 31
0.0
  0
LINE
  5
18C
330
1F
100
AcDbEntity
  8
1
  6
Continuous
 62
     3
100
AcDbLine
 10
2.83519242577478
 20
63.0
 30
0.0
 11
5.74573825287456
 21
58.0
 31
0.0
  0
LINE
  5
18D
330
1F
100
AcDbEntity
  8
1
  6
Continuous
 62
     3
100
AcDbLine
 10
-21.1137711970246
 20
69.5153780716135
 30
0.0
 11
-21.7
 21
68.4999999999999
 31
0.0
  0
LINE
  5
18E
330
1F
100
AcDbEntity
  8
1
  6
Continuous
 62
     3
100
AcDbLine
 10
-21.2774598665295
 20
46.7681390205923
 30
0.0
 11
-20.76469256391274
 21
45.88
 31
0.0
  0
LINE
  5
18F
330
1F
100
AcDbEntity
  8
1
  6
Continuous
 62
     3
100
AcDbLine
 10
-20.76469256391273
 20
64.062177826491
 30
0.0
 11
-10.3088053093084
 21
64.062177826491
 31
0.0
  0
LINE
  5
190
330
1F
100
AcDbEntity
  8
1
  6
Continuous
 62
     3
100
AcDbLine
 10
-20.76469256391273
 20
70.1199999999999
 30
0.0
 11
-11.21906047770901
 21
70.1199999999999
 31
0.0
  0
LINE
  5
191
330
1F
100
AcDbEntity
  8
1
  6
Continuous
 62
     3
100
AcDbLine
 10
-21.7
 20
47.5
 30
0.0
 11
-21.2774598665295
 21
46.7681390205923
 31
0.0
  0
LINE
  5
192
330
1F
100
AcDbEntity
  8
1
  6
Continuous
 62
     3
100
AcDbLine
 10
-20.76469256391273
 20
70.1199999999999
 30
0.0
 11
-21.1137711970246
 21
69.5153780716135
 31
0.0
  0
LINE
  5
193
330
1F
100
AcDbEntity
  8
1
  6
Continuous
 62
     3
100
AcDbLine
 10
22.8230818676673
 20
68.4999999999999
 30
0.0
 11
22.236853064692
 21
69.5153780716135
 31
0.0
  0
LINE
  5
194
330
1F
100
AcDbEntity
  8
1
  6
Continuous
 62
     3
100
AcDbLine
 10
21.9570564638829
 20
46.0
 30
0.0
 11
22.4005417341969
 21
46.7681390205923
 31
0.0
  0
LINE
  5
195
330
1F
100
AcDbEntity
  8
1
  6
Continuous
 62
     3
100
AcDbLine
 10
22.4005417341969
 20
46.7681390205923
 30
0.0
 11
22.8230818676673
 21
47.5
 31
0.0
  0
LINE
  5
196
330
1F
100
AcDbEntity
  8
1
  6
Continuous
 62
     3
100
AcDbLine
 10
22.8230818676673
 20
47.5
 30
0.0
 11
22.8230818676673
 21
49.1530030841305
 31
0.0
  0
LINE
  5
197
330
1F
100
AcDbEntity
  8
1
  6
Continuous
 62
     3
100
AcDbLine
 10
22.236853064692
 20
69.5153780716135
 30
0.0
 11
21.88777443158014
 21
70.1199999999999
 31
0.0
  0
LINE
  5
198
330
1F
100
AcDbEntity
  8
1
  6
DOT_CENTER
 62
     4
100
AcDbLine
 10
-22.7
 20
58.0
 30
0.0
 11
31.9835975008252
 21
58.0
 31
0.0
  0
LINE
  5
199
330
1F
100
AcDbEntity
  8
1
  6
Continuous
 62
     3
100
AcDbLine
 10
-20.76469256391282
 20
51.937822173509
 30
0.0
 11
-8.8415474548693
 21
51.937822173509
 31
0.0
  0
LINE
  5
19A
330
1F
100
AcDbEntity
  8
1
  6
Continuous
 62
     3
100
AcDbLine
 10
-21.7
 20
47.5
 30
0.0
 11
-21.7
 21
68.4999999999999
 31
0.0
  0
LINE
  5
19B
330
1F
100
AcDbEntity
  8
1
  6
Continuous
 62
     3
100
AcDbLine
 10
21.88777443158014
 20
45.88
 30
0.0
 11
-20.76469256391274
 21
45.88
 31
0.0
  0
LINE
  5
19C
330
1F
100
AcDbEntity
  8
1
  6
Continuous
 62
     3
100
AcDbLine
 10
22.8
 20
-10.5
 30
0.0
 11
-20.8339745962156
 21
-10.5
 31
0.0
  0
LINE
  5
19D
330
1F
100
AcDbEntity
  8
1
  6
Continuous
 62
     3
100
AcDbLine
 10
-21.7
 20
-10.5
 30
0.0
 11
-21.7
 21
10.5
 31
0.0
  0
LINE
  5
19E
330
1F
100
AcDbEntity
  8
1
  6
Continuous
 62
     3
100
AcDbLine
 10
22.8
 20
-10.5
 30
0.0
 11
22.8
 21
-8.60000000000002
 31
0.0
  0
LINE
  5
19F
330
1F
100
AcDbEntity
  8
1
  6
Continuous
 62
     3
100
AcDbLine
 10
22.8
 20
-10.5
 30
0.0
 11
22.8
 21
-8.60000000000002
 31
0.0
  0
LINE
  5
1A0
330
1F
100
AcDbEntity
  8
1
  6
Continuous
 62
     3
100
AcDbLine
 10
22.8
 20
-8.60000000000002
 30
0.0
 11
22.8
 21
10.5
 31
0.0
  0
LINE
  5
1A1
330
1F
100
AcDbEntity
  8
1
  6
Continuous
 62
     3
100
AcDbLine
 10
22.8
 20
10.5
 30
0.0
 11
-20.8339745962156
 21
10.5
 31
0.0
  0
LINE
  5
1A2
330
1F
100
AcDbEntity
  8
1
  6
DOT_CENTER
 62
     4
100
AcDbLine
 10
0.0
 20
-11.5
 30
0.0
 11
0.0
 21
21.0
 31
0.0
  0
LINE
  5
1A3
330
1F
100
AcDbEntity
  8
1
  6
Continuous
 62
     3
100
AcDbLine
 10
-1.13578166916003
 20
20.0
 30
0.0
 11
1.13578166916005
 21
20.0
 31
0.0
  0
LINE
  5
1A4
330
1F
100
AcDbEntity
  8
1
  6
Continuous
 62
     3
100
AcDbLine
 10
2.30000000000001
 20
20.0
 30
0.0
 11
2.37
 21
19.93
 31
0.0
  0
LINE
  5
1A5
330
1F
100
AcDbEntity
  8
1
  6
Continuous
 62
     3
100
AcDbLine
 10
-2.30000000000001
 20
20.0
 30
0.0
 11
-2.7009021627707
 21
19.5990978372293
 31
0.0
  0
LINE
  5
1A6
330
1F
100
AcDbEntity
  8
1
  6
Continuous
 62
     3
100
AcDbLine
 10
-2.30000000000001
 20
20.0
 30
0.0
 11
-1.13578166916003
 21
20.0
 31
0.0
  0
LINE
  5
1A7
330
1F
100
AcDbEntity
  8
1
  6
Continuous
 62
     3
100
AcDbLine
 10
1.13578166916005
 20
20.0
 30
0.0
 11
2.30000000000001
 21
20.0
 31
0.0
  0
LINE
  5
1A8
330
1F
100
AcDbEntity
  8
1
  6
Continuous
 62
     3
100
AcDbLine
 10
2.37
 20
19.93
 30
0.0
 11
2.70090216277069
 21
19.5990978372293
 31
0.0
  0
LINE
  5
1A9
330
1F
100
AcDbEntity
  8
1
  6
Continuous
 62
     3
100
AcDbLine
 10
-2.37
 20
19.93
 30
0.0
 11
-2.37
 21
19.5990978372293
 31
0.0
  0
LINE
  5
1AA
330
1F
100
AcDbEntity
  8
1
  6
Continuous
 62
     3
100
AcDbLine
 10
-9.74953559904036
 20
12.5
 30
0.0
 11
-9.74953559904036
 21
14.2747825227896
 31
0.0
  0
LINE
  5
1AB
330
1F
100
AcDbEntity
  8
1
  6
Continuous
 62
     3
100
AcDbLine
 10
-9.48680437304131
 20
14.4990978372293
 30
0.0
 11
-12.2885822331377
 21
14.4990978372293
 31
0.0
  0
LINE
  5
1AC
330
1F
100
AcDbEntity
  8
1
  6
Continuous
 62
     3
100
AcDbLine
 10
-9.48680437304131
 20
14.4990978372293
 30
0.0
 11
-0.6653476010507
 21
14.4990978372293
 31
0.0
  0
LINE
  5
1AD
330
1F
100
AcDbEntity
  8
1
  6
Continuous
 62
     3
100
AcDbLine
 10
-13.7885822331377
 20
12.9990978372293
 30
0.0
 11
-13.7885822331377
 21
10.5
 31
0.0
  0
LINE
  5
1AE
330
1F
100
AcDbEntity
  8
1
  6
Continuous
 62
     3
100
AcDbLine
 10
15.8485281374238
 20
12.5
 30
0.0
 11
-11.8743686707646
 21
12.5
 31
0.0
  0
LINE
  5
1AF
330
1F
100
AcDbEntity
  8
1
  6
Continuous
 62
     3
100
AcDbLine
 10
22.1163585417704
 20
20.4964536168907
 30
0.0
 11
17.4133357136799
 21
13.2521917861205
 31
0.0
  0
LINE
  5
1B0
330
1F
100
AcDbEntity
  8
1
  6
Continuous
 62
     3
100
AcDbLine
 10
16.2033588414398
 20
14.9720316958834
 30
0.0
 11
22.1163585417704
 21
23.8290035446818
 31
0.0
  0
LINE
  5
1B1
330
1F
100
AcDbEntity
  8
1
  6
Continuous
 62
     3
100
AcDbLine
 10
31.1763916893925
 20
30.9057865063819
 30
0.0
 11
23.6072448804242
 21
20.8172970758763
 31
0.0
  0
LINE
  5
1B2
330
1F
100
AcDbEntity
  8
1
  6
Continuous
 62
     3
100
AcDbLine
 10
22.1163585417704
 20
23.8560490200914
 30
0.0
 11
22.1163585417704
 21
20.4964536168907
 31
0.0
  0
LINE
  5
1B3
330
1F
100
AcDbEntity
  8
1
  6
Continuous
 62
     3
100
AcDbLine
 10
-13.7885822331377
 20
12.5306592142498
 30
0.0
 11
-13.7885822331377
 21
12.4697561879959
 31
0.0
  0
LINE
  5
1B4
330
1F
100
AcDbEntity
  8
1
  6
Continuous
 62
     3
100
AcDbLine
 10
-12.3743686707646
 20
11.9990978372293
 30
0.0
 11
-12.3743686707646
 21
10.5
 31
0.0
  0
LINE
  5
1B5
330
1F
100
AcDbEntity
  8
1
  6
Continuous
 62
     3
100
AcDbLine
 10
-8.13172798364528
 20
12.0
 30
0.0
 11
-8.13172798364528
 21
10.5
 31
0.0
  0
LINE
  5
1B6
330
1F
100
AcDbEntity
  8
1
  6
Continuous
 62
     3
100
AcDbLine
 10
3.05000000000001
 20
11.0
 30
0.0
 11
5.5
 21
11.0
 31
0.0
  0
LINE
  5
1B7
330
1F
100
AcDbEntity
  8
1
  6
Continuous
 62
     3
100
AcDbLine
 10
3.05000000000001
 20
12.0
 30
0.0
 11
3.10000000000002
 21
12.0
 31
0.0
  0
LINE
  5
1B8
330
1F
100
AcDbEntity
  8
1
  6
Continuous
 62
     3
100
AcDbLine
 10
-5.5
 20
12.0
 30
0.0
 11
-5.5
 21
11.0
 31
0.0
  0
LINE
  5
1B9
330
1F
100
AcDbEntity
  8
1
  6
Continuous
 62
     3
100
AcDbLine
 10
5.5
 20
12.0
 30
0.0
 11
5.5
 21
11.0
 31
0.0
  0
LINE
  5
1BA
330
1F
100
AcDbEntity
  8
1
  6
Continuous
 62
     3
100
AcDbLine
 10
-5.5
 20
11.0
 30
0.0
 11
-3.04999999999995
 21
11.0
 31
0.0
  0
LINE
  5
1BB
330
1F
100
AcDbEntity
  8
1
  6
Continuous
 62
     3
100
AcDbLine
 10
-5.5
 20
12.0
 30
0.0
 11
-3.04999999999995
 21
12.0
 31
0.0
  0
LINE
  5
1BC
330
1F
100
AcDbEntity
  8
1
  6
Continuous
 62
     3
100
AcDbLine
 10
-6.25
 20
12.5
 30
0.0
 11
-6.25
 21
12.0
 31
0.0
  0
LINE
  5
1BD
330
1F
100
AcDbEntity
  8
1
  6
Continuous
 62
     3
100
AcDbLine
 10
3.10000000000002
 20
12.0
 30
0.0
 11
6.25
 21
12.0
 31
0.0
  0
LINE
  5
1BE
330
1F
100
AcDbEntity
  8
1
  6
Continuous
 62
     3
100
AcDbLine
 10
6.25
 20
12.5
 30
0.0
 11
6.25
 21
12.0
 31
0.0
  0
LINE
  5
1BF
330
1F
100
AcDbEntity
  8
1
  6
Continuous
 62
     3
100
AcDbLine
 10
-6.25
 20
12.0
 30
0.0
 11
-3.09999999999999
 21
12.0
 31
0.0
  0
LINE
  5
1C0
330
1F
100
AcDbEntity
  8
1
  6
Continuous
 62
     3
100
AcDbLine
 10
-6.09999999999999
 20
15.9990978372293
 30
0.0
 11
1.24376587031428
 21
15.9990978372293
 31
0.0
  0
LINE
  5
1C1
330
1F
100
AcDbEntity
  8
1
  6
Continuous
 62
     3
100
AcDbLine
 10
6.10000000000002
 20
15.9990978372293
 30
0.0
 11
6.10000000000002
 21
14.4990978372293
 31
0.0
  0
LINE
  5
1C2
330
1F
100
AcDbEntity
  8
1
  6
Continuous
 62
     3
100
AcDbLine
 10
-6.09999999999999
 20
15.9990978372293
 30
0.0
 11
-6.09999999999999
 21
14.4990978372293
 31
0.0
  0
LINE
  5
1C3
330
1F
100
AcDbEntity
  8
1
  6
Continuous
 62
     3
100
AcDbLine
 10
5.75
 20
19.1083501084181
 30
0.0
 11
5.75
 21
16.4898455660406
 31
0.0
  0
LINE
  5
1C4
330
1F
100
AcDbEntity
  8
1
  6
Continuous
 62
     3
100
AcDbLine
 10
4.89999999999998
 20
19.5990978372293
 30
0.0
 11
5.75
 21
19.1083501084181
 31
0.0
  0
LINE
  5
1C5
330
1F
100
AcDbEntity
  8
1
  6
Continuous
 62
     3
100
AcDbLine
 10
-5.75
 20
19.1083501084181
 30
0.0
 11
-4.89999999999998
 21
19.5990978372293
 31
0.0
  0
LINE
  5
1C6
330
1F
100
AcDbEntity
  8
1
  6
Continuous
 62
     3
100
AcDbLine
 10
-5.75
 20
16.4898455660406
 30
0.0
 11
-5.75
 21
19.1083501084181
 31
0.0
  0
LINE
  5
1C7
330
1F
100
AcDbEntity
  8
1
  6
Continuous
 62
     3
100
AcDbLine
 10
-5.75
 20
16.4898455660406
 30
0.0
 11
-4.89999999999998
 21
15.9990978372293
 31
0.0
  0
LINE
  5
1C8
330
1F
100
AcDbEntity
  8
1
  6
Continuous
 62
     3
100
AcDbLine
 10
-4.89999999999998
 20
19.5990978372293
 30
0.0
 11
4.89999999999998
 21
19.5990978372293
 31
0.0
  0
LINE
  5
1C9
330
1F
100
AcDbEntity
  8
1
  6
Continuous
 62
     3
100
AcDbLine
 10
3.05000000000001
 20
11.0
 30
0.0
 11
5.5
 21
11.0
 31
0.0
  0
LINE
  5
1CA
330
1F
100
AcDbEntity
  8
1
  6
Continuous
 62
     3
100
AcDbLine
 10
-5.5
 20
11.0
 30
0.0
 11
-5.5
 21
10.5
 31
0.0
  0
LINE
  5
1CB
330
1F
100
AcDbEntity
  8
1
  6
Continuous
 62
     3
100
AcDbLine
 10
5.5
 20
11.0
 30
0.0
 11
5.5
 21
10.5
 31
0.0
  0
LINE
  5
1CC
330
1F
100
AcDbEntity
  8
1
  6
Continuous
 62
     3
100
AcDbLine
 10
-5.5
 20
11.0
 30
0.0
 11
-3.04999999999995
 21
11.0
 31
0.0
  0
LINE
  5
1CD
330
1F
100
AcDbEntity
  8
1
  6
DOT_CENTER
 62
     4
100
AcDbLine
 10
-23.4971803272366
 20
0.0
 30
0.0
 11
-20.8339745962156
 21
0.0
 31
0.0
  0
LINE
  5
1CE
330
1F
100
AcDbEntity
  8
1
  6
Continuous
 62
     3
100
AcDbLine
 10
6.10000000000002
 20
14.4990978372293
 30
0.0
 11
15.2572826189007
 21
14.4990978372293
 31
0.0
  0
LINE
  5
1CF
330
1F
100
AcDbEntity
  8
1
  6
Continuous
 62
     3
100
AcDbLine
 10
2.37
 20
19.5990978372293
 30
0.0
 11
2.37
 21
19.93
 31
0.0
  0
LINE
  5
1D0
330
1F
100
AcDbEntity
  8
1
  6
Continuous
 62
     3
100
AcDbLine
 10
-3.04999999999995
 20
12.0
 30
0.0
 11
3.10000000000002
 21
12.0
 31
0.0
  0
LINE
  5
1D1
330
1F
100
AcDbEntity
  8
1
  6
Continuous
 62
     3
100
AcDbLine
 10
3.10000000000002
 20
12.0
 30
0.0
 11
5.5
 21
12.0
 31
0.0
  0
LINE
  5
1D2
330
1F
100
AcDbEntity
  8
1
  6
Continuous
 62
     3
100
AcDbLine
 10
-3.04999999999995
 20
11.0
 30
0.0
 11
3.05000000000001
 21
11.0
 31
0.0
  0
LINE
  5
1D3
330
1F
100
AcDbEntity
  8
1
  6
Continuous
 62
     3
100
AcDbLine
 10
4.90000000000001
 20
15.9990978372293
 30
0.0
 11
5.75
 21
16.4898455660406
 31
0.0
  0
LINE
  5
1D4
330
1F
100
AcDbEntity
  8
1
  6
Continuous
 62
     3
100
AcDbLine
 10
-20.8339745962156
 20
10.5
 30
0.0
 11
-21.7
 21
10.5
 31
0.0
  0
LINE
  5
1D5
330
1F
100
AcDbEntity
  8
1
  6
Continuous
 62
     3
100
AcDbLine
 10
-20.8339745962156
 20
0.0
 30
0.0
 11
21.9339805066235
 21
0.0
 31
0.0
  0
LINE
  5
1D6
330
1F
100
AcDbEntity
  8
1
  6
Continuous
 62
     3
100
AcDbLine
 10
-20.8339745962156
 20
-10.5
 30
0.0
 11
-21.7
 21
-10.5
 31
0.0
  0
LINE
  5
1D7
330
1F
100
AcDbEntity
  8
1
  6
DOT_CENTER
 62
     4
100
AcDbLine
 10
21.9339805066235
 20
0.0
 30
0.0
 11
24.5028196727634
 21
0.0
 31
0.0
  0
LINE
  5
1D8
330
1F
100
AcDbEntity
  8
1
  6
Continuous
 62
     3
100
AcDbLine
 10
2.82901631902916
 20
19.1083501084181
 30
0.0
 11
2.82901631902916
 21
16.4898455660406
 31
0.0
  0
LINE
  5
1D9
330
1F
100
AcDbEntity
  8
1
  6
Continuous
 62
     3
100
AcDbLine
 10
-2.82901631902917
 20
19.1083501084181
 30
0.0
 11
-2.82901631902917
 21
16.4898455660406
 31
0.0
  0
LINE
  5
1DA
330
1F
100
AcDbEntity
  8
1
  6
Continuous
 62
     3
100
AcDbLine
 10
-0.6653476010507
 20
14.4990978372293
 30
0.0
 11
6.10000000000002
 21
14.4990978372293
 31
0.0
  0
LINE
  5
1DB
330
1F
100
AcDbEntity
  8
1
  6
Continuous
 62
     3
100
AcDbLine
 10
1.24376587031428
 20
15.9990978372293
 30
0.0
 11
6.10000000000002
 21
15.9990978372293
 31
0.0
  0
LINE
  5
1DC
330
1F
100
AcDbEntity
  8
1
  6
Continuous
 62
     3
100
AcDbLine
 10
-59.5
 20
11.0
 30
0.0
 11
-57.05
 21
11.0
 31
0.0
  0
LINE
  5
1DD
330
1F
100
AcDbEntity
  8
1
  6
Continuous
 62
     3
100
AcDbLine
 10
-48.5
 20
11.0
 30
0.0
 11
-48.5
 21
10.5
 31
0.0
  0
LINE
  5
1DE
330
1F
100
AcDbEntity
  8
1
  6
Continuous
 62
     3
100
AcDbLine
 10
-59.5
 20
11.0
 30
0.0
 11
-59.5
 21
10.5
 31
0.0
  0
LINE
  5
1DF
330
1F
100
AcDbEntity
  8
1
  6
Continuous
 62
     3
100
AcDbLine
 10
-50.95
 20
11.0
 30
0.0
 11
-48.5
 21
11.0
 31
0.0
  0
LINE
  5
1E0
330
1F
100
AcDbEntity
  8
1
  6
Continuous
 62
     3
100
AcDbLine
 10
-60.25
 20
12.0
 30
0.0
 11
-57.1
 21
12.0
 31
0.0
  0
LINE
  5
1E1
330
1F
100
AcDbEntity
  8
1
  6
Continuous
 62
     3
100
AcDbLine
 10
-47.75
 20
12.5
 30
0.0
 11
-47.75
 21
12.0
 31
0.0
  0
LINE
  5
1E2
330
1F
100
AcDbEntity
  8
1
  6
Continuous
 62
     3
100
AcDbLine
 10
-50.9
 20
12.0
 30
0.0
 11
-47.75
 21
12.0
 31
0.0
  0
LINE
  5
1E3
330
1F
100
AcDbEntity
  8
1
  6
Continuous
 62
     3
100
AcDbLine
 10
-60.25
 20
12.5
 30
0.0
 11
-60.25
 21
12.0
 31
0.0
  0
LINE
  5
1E4
330
1F
100
AcDbEntity
  8
1
  6
Continuous
 62
     3
100
AcDbLine
 10
-59.5
 20
12.0
 30
0.0
 11
-57.1
 21
12.0
 31
0.0
  0
LINE
  5
1E5
330
1F
100
AcDbEntity
  8
1
  6
Continuous
 62
     3
100
AcDbLine
 10
-59.5
 20
11.0
 30
0.0
 11
-57.05
 21
11.0
 31
0.0
  0
LINE
  5
1E6
330
1F
100
AcDbEntity
  8
1
  6
Continuous
 62
     3
100
AcDbLine
 10
-48.5
 20
12.0
 30
0.0
 11
-48.5
 21
11.0
 31
0.0
  0
LINE
  5
1E7
330
1F
100
AcDbEntity
  8
1
  6
Continuous
 62
     3
100
AcDbLine
 10
-59.5
 20
12.0
 30
0.0
 11
-59.5
 21
11.0
 31
0.0
  0
LINE
  5
1E8
330
1F
100
AcDbEntity
  8
1
  6
Continuous
 62
     3
100
AcDbLine
 10
-50.95
 20
11.0
 30
0.0
 11
-48.5
 21
11.0
 31
0.0
  0
LINE
  5
1E9
330
1F
100
AcDbEntity
  8
1
  6
Continuous
 62
     3
100
AcDbLine
 10
-56.0
 20
20.0
 30
0.0
 11
-52.0
 21
20.0
 31
0.0
  0
LINE
  5
1EA
330
1F
100
AcDbEntity
  8
1
  6
Continuous
 62
     3
100
AcDbLine
 10
-55.0
 20
-10.5
 30
0.0
 11
-53.0
 21
-10.5
 31
0.0
  0
LINE
  5
1EB
330
1F
100
AcDbEntity
  8
1
  6
Continuous
 62
     3
100
AcDbLine
 10
-53.0
 20
-10.5
 30
0.0
 11
-47.9378221735089
 21
-10.5
 31
0.0
  0
LINE
  5
1EC
330
1F
100
AcDbEntity
  8
1
  6
Continuous
 62
     3
100
AcDbLine
 10
-47.9378221735089
 20
10.5
 30
0.0
 11
-60.0621778264911
 21
10.5
 31
0.0
  0
LINE
  5
1ED
330
1F
100
AcDbEntity
  8
1
  6
Continuous
 62
     3
100
AcDbLine
 10
-59.75
 20
10.5
 30
0.0
 11
-59.5
 21
10.5
 31
0.0
  0
LINE
  5
1EE
330
1F
100
AcDbEntity
  8
1
  6
Continuous
 62
     3
100
AcDbLine
 10
-48.25
 20
10.5
 30
0.0
 11
-48.5
 21
10.5
 31
0.0
  0
LINE
  5
1EF
330
1F
100
AcDbEntity
  8
1
  6
DOT_CENTER
 62
     4
100
AcDbLine
 10
-54.0
 20
21.0
 30
0.0
 11
-54.0
 21
19.1083501084181
 31
0.0
  0
LINE
  5
1F0
330
1F
100
AcDbEntity
  8
1
  6
Continuous
 62
     3
100
AcDbLine
 10
-41.8756443470178
 20
0.0
 30
0.0
 11
-47.9378221735089
 21
10.5
 31
0.0
  0
LINE
  5
1F1
330
1F
100
AcDbEntity
  8
1
  6
Continuous
 62
     3
100
AcDbLine
 10
-47.9378221735089
 20
-10.5
 30
0.0
 11
-41.8756443470178
 21
0.0
 31
0.0
  0
LINE
  5
1F2
330
1F
100
AcDbEntity
  8
1
  6
Continuous
 62
     3
100
AcDbLine
 10
-60.0621778264911
 20
-10.5
 30
0.0
 11
-55.0
 21
-10.5
 31
0.0
  0
LINE
  5
1F3
330
1F
100
AcDbEntity
  8
1
  6
Continuous
 62
     3
100
AcDbLine
 10
-66.1243556529821
 20
0.0
 30
0.0
 11
-60.0621778264911
 21
-10.5
 31
0.0
  0
LINE
  5
1F4
330
1F
100
AcDbEntity
  8
1
  6
Continuous
 62
     3
100
AcDbLine
 10
-60.0621778264911
 20
10.5
 30
0.0
 11
-66.1243556529821
 21
0.0
 31
0.0
  0
LINE
  5
1F5
330
1F
100
AcDbEntity
  8
1
  6
Continuous
 62
     3
100
AcDbLine
 10
-42.18
 20
14.0
 30
0.0
 11
-42.18
 21
12.5
 31
0.0
  0
LINE
  5
1F6
330
1F
100
AcDbEntity
  8
1
  6
Continuous
 62
     3
100
AcDbLine
 10
-60.15
 20
22.3290035446817
 30
0.0
 11
-60.15
 21
20.3523245701689
 31
0.0
  0
LINE
  5
1F7
330
1F
100
AcDbEntity
  8
1
  6
Continuous
 62
     3
100
AcDbLine
 10
-58.65
 20
23.8290035446817
 30
0.0
 11
-47.65
 21
23.8290035446817
 31
0.0
  0
LINE
  5
1F8
330
1F
100
AcDbEntity
  8
1
  6
Continuous
 62
     3
100
AcDbLine
 10
-46.15
 20
14.5
 30
0.0
 11
-46.15
 21
20.3523245701689
 31
0.0
  0
LINE
  5
1F9
330
1F
100
AcDbEntity
  8
1
  6
Continuous
 62
     3
100
AcDbLine
 10
-46.15
 20
14.5
 30
0.0
 11
-42.68
 21
14.5
 31
0.0
  0
LINE
  5
1FA
330
1F
100
AcDbEntity
  8
1
  6
Continuous
 62
     3
100
AcDbLine
 10
-45.15
 20
30.4350655900695
 30
0.0
 11
-45.15
 21
22.3290035446817
 31
0.0
  0
LINE
  5
1FB
330
1F
100
AcDbEntity
  8
1
  6
Continuous
 62
     3
100
AcDbLine
 10
-46.15
 20
20.3523245701689
 30
0.0
 11
-46.15
 21
22.3290035446817
 31
0.0
  0
LINE
  5
1FC
330
1F
100
AcDbEntity
  8
1
  6
Continuous
 62
     3
100
AcDbLine
 10
-60.15
 20
20.3523245701689
 30
0.0
 11
-60.15
 21
14.5
 31
0.0
  0
LINE
  5
1FD
330
1F
100
AcDbEntity
  8
1
  6
Continuous
 62
     3
100
AcDbLine
 10
-45.15
 20
34.5387870296284
 30
0.0
 11
-45.15
 21
30.4350655900695
 31
0.0
  0
LINE
  5
1FE
330
1F
100
AcDbEntity
  8
1
  6
Continuous
 62
     3
100
AcDbLine
 10
-61.15
 20
34.5387870296284
 30
0.0
 11
-61.15
 21
22.3290035446817
 31
0.0
  0
LINE
  5
1FF
330
1F
100
AcDbEntity
  8
1
  6
Continuous
 62
     3
100
AcDbLine
 10
-60.15
 20
34.96088454691
 30
0.0
 11
-46.15
 21
34.96088454691
 31
0.0
  0
LINE
  5
200
330
1F
100
AcDbEntity
  8
1
  6
Continuous
 62
     3
100
AcDbLine
 10
-62.13
 20
12.0
 30
0.0
 11
-62.13
 21
7.27
 31
0.0
  0
LINE
  5
201
330
1F
100
AcDbEntity
  8
1
  6
Continuous
 62
     3
100
AcDbLine
 10
-61.55
 20
14.5
 30
0.0
 11
-65.79
 21
14.5
 31
0.0
  0
LINE
  5
202
330
1F
100
AcDbEntity
  8
1
  6
Continuous
 62
     3
100
AcDbLine
 10
-67.79
 20
12.5
 30
0.0
 11
-67.79
 21
7.26999999999998
 31
0.0
  0
LINE
  5
203
330
1F
100
AcDbEntity
  8
1
  6
Continuous
 62
     3
100
AcDbLine
 10
-63.55
 20
7.27
 30
0.0
 11
-63.55
 21
12.5
 31
0.0
  0
LINE
  5
204
330
1F
100
AcDbEntity
  8
1
  6
Continuous
 62
     3
100
AcDbLine
 10
-62.48
 20
6.77
 30
0.0
 11
-67.44
 21
6.77
 31
0.0
  0
LINE
  5
205
330
1F
100
AcDbEntity
  8
1
  6
Continuous
 62
     3
100
AcDbLine
 10
-61.55
 20
14.5
 30
0.0
 11
-46.15
 21
14.5
 31
0.0
  0
LINE
  5
206
330
1F
100
AcDbEntity
  8
1
  6
Continuous
 62
     3
100
AcDbLine
 10
-60.1
 20
16.0
 30
0.0
 11
-60.1
 21
14.5
 31
0.0
  0
LINE
  5
207
330
1F
100
AcDbEntity
  8
1
  6
Continuous
 62
     3
100
AcDbLine
 10
-49.1
 20
19.5990978372293
 30
0.0
 11
-49.0
 21
19.5413628103103
 31
0.0
  0
LINE
  5
208
330
1F
100
AcDbEntity
  8
1
  6
Continuous
 62
     3
100
AcDbLine
 10
-49.0
 20
19.5413628103103
 30
0.0
 11
-49.0
 21
19.1083501084181
 31
0.0
  0
LINE
  5
209
330
1F
100
AcDbEntity
  8
1
  6
Continuous
 62
     3
100
AcDbLine
 10
-49.1
 20
19.5990978372293
 30
0.0
 11
-57.0
 21
19.5990978372293
 31
0.0
  0
LINE
  5
20A
330
1F
100
AcDbEntity
  8
1
  6
Continuous
 62
     3
100
AcDbLine
 10
-58.9
 20
19.5990978372293
 30
0.0
 11
-57.0
 21
19.5990978372293
 31
0.0
  0
LINE
  5
20B
330
1F
100
AcDbEntity
  8
1
  6
Continuous
 62
     3
100
AcDbLine
 10
-59.0
 20
16.0
 30
0.0
 11
-59.0
 21
16.4898455660406
 31
0.0
  0
LINE
  5
20C
330
1F
100
AcDbEntity
  8
1
  6
Continuous
 62
     3
100
AcDbLine
 10
-59.0
 20
19.5413628103103
 30
0.0
 11
-58.9
 21
19.5990978372293
 31
0.0
  0
LINE
  5
20D
330
1F
100
AcDbEntity
  8
1
  6
Continuous
 62
     3
100
AcDbLine
 10
-42.18
 20
12.5
 30
0.0
 11
-61.63
 21
12.5
 31
0.0
  0
LINE
  5
20E
330
1F
100
AcDbEntity
  8
1
  6
Continuous
 62
     3
100
AcDbLine
 10
-57.1
 20
12.0
 30
0.0
 11
-50.9
 21
12.0
 31
0.0
  0
LINE
  5
20F
330
1F
100
AcDbEntity
  8
1
  6
Continuous
 62
     3
100
AcDbLine
 10
-57.1
 20
12.0
 30
0.0
 11
-57.05
 21
12.0
 31
0.0
  0
LINE
  5
210
330
1F
100
AcDbEntity
  8
1
  6
Continuous
 62
     3
100
AcDbLine
 10
-50.9
 20
12.0
 30
0.0
 11
-48.5
 21
12.0
 31
0.0
  0
LINE
  5
211
330
1F
100
AcDbEntity
  8
1
  6
Continuous
 62
     3
100
AcDbLine
 10
-57.05
 20
11.0
 30
0.0
 11
-50.95
 21
11.0
 31
0.0
  0
LINE
  5
212
330
1F
100
AcDbEntity
  8
1
  6
Continuous
 62
     3
100
AcDbLine
 10
-47.9
 20
16.0
 30
0.0
 11
-47.9
 21
14.5
 31
0.0
  0
LINE
  5
213
330
1F
100
AcDbEntity
  8
1
  6
Continuous
 62
     3
100
AcDbLine
 10
-47.9
 20
16.0
 30
0.0
 11
-60.1
 21
16.0
 31
0.0
  0
LINE
  5
214
330
1F
100
AcDbEntity
  8
1
  6
Continuous
 62
     3
100
AcDbLine
 10
-52.0
 20
20.0
 30
0.0
 11
-52.0
 21
19.5990978372293
 31
0.0
  0
LINE
  5
215
330
1F
100
AcDbEntity
  8
1
  6
Continuous
 62
     3
100
AcDbLine
 10
-56.0
 20
20.0
 30
0.0
 11
-56.0
 21
19.5990978372293
 31
0.0
  0
LINE
  5
216
330
1F
100
AcDbEntity
  8
1
  6
Continuous
 62
     3
100
AcDbLine
 10
-54.0
 20
19.1083501084181
 30
0.0
 11
-54.0
 21
16.4898455660406
 31
0.0
  0
LINE
  5
217
330
1F
100
AcDbEntity
  8
1
  6
DOT_CENTER
 62
     4
100
AcDbLine
 10
-54.0
 20
16.4898455660406
 30
0.0
 11
-54.0
 21
-11.5
 31
0.0
  0
LINE
  5
218
330
1F
100
AcDbEntity
  8
1
  6
Continuous
 62
     3
100
AcDbLine
 10
-49.0
 20
19.1083501084181
 30
0.0
 11
-49.0
 21
16.4898455660406
 31
0.0
  0
LINE
  5
219
330
1F
100
AcDbEntity
  8
1
  6
Continuous
 62
     3
100
AcDbLine
 10
-59.0
 20
19.1083501084181
 30
0.0
 11
-59.0
 21
19.5413628103103
 31
0.0
  0
LINE
  5
21A
330
1F
100
AcDbEntity
  8
1
  6
Continuous
 62
     3
100
AcDbLine
 10
-59.0
 20
16.4898455660406
 30
0.0
 11
-59.0
 21
19.1083501084181
 31
0.0
  0
LINE
  5
21B
330
1F
100
AcDbEntity
  8
1
  6
Continuous
 62
     3
100
AcDbLine
 10
-49.0
 20
16.4898455660406
 30
0.0
 11
-49.0
 21
16.0
 31
0.0
  0
LINE
  5
21C
330
1F
100
AcDbEntity
  8
1
  6
DOT_CENTER
 62
     4
100
AcDbLine
 10
-67.1243556529821
 20
0.0
 30
0.0
 11
-41.0
 21
-0.00000000000001
 31
0.0
  0
LINE
  5
21D
330
1F
100
AcDbEntity
  8
1
  6
Continuous
 62
     3
100
AcDbLine
 10
10.02
 20
-24.5443355089935
 30
0.0
 11
10.02
 21
-20.8443355089935
 31
0.0
  0
LINE
  5
21E
330
1F
100
AcDbEntity
  8
1
  6
Continuous
 62
     3
100
AcDbLine
 10
10.02
 20
-20.8443355089935
 30
0.0
 11
11.22
 21
-20.8443355089935
 31
0.0
  0
LINE
  5
21F
330
1F
100
AcDbEntity
  8
1
  6
Continuous
 62
     3
100
AcDbLine
 10
11.22
 20
-20.8443355089935
 30
0.0
 11
11.62
 21
-21.0443355089935
 31
0.0
  0
LINE
  5
220
330
1F
100
AcDbEntity
  8
1
  6
Continuous
 62
     3
100
AcDbLine
 10
11.62
 20
-21.0443355089935
 30
0.0
 11
11.78
 21
-21.7443355089935
 31
0.0
  0
LINE
  5
221
330
1F
100
AcDbEntity
  8
1
  6
Continuous
 62
     3
100
AcDbLine
 10
11.78
 20
-21.7443355089935
 30
0.0
 11
11.62
 21
-22.2443355089935
 31
0.0
  0
LINE
  5
222
330
1F
100
AcDbEntity
  8
1
  6
Continuous
 62
     3
100
AcDbLine
 10
11.62
 20
-22.2443355089935
 30
0.0
 11
11.22
 21
-22.6443355089935
 31
0.0
  0
LINE
  5
223
330
1F
100
AcDbEntity
  8
1
  6
Continuous
 62
     3
100
AcDbLine
 10
11.22
 20
-22.6443355089935
 30
0.0
 11
10.02
 21
-22.6443355089935
 31
0.0
  0
LINE
  5
224
330
1F
100
AcDbEntity
  8
1
  6
Continuous
 62
     3
100
AcDbLine
 10
10.02
 20
-22.6443355089935
 30
0.0
 11
11.22
 21
-22.6443355089935
 31
0.0
  0
LINE
  5
225
330
1F
100
AcDbEntity
  8
1
  6
Continuous
 62
     3
100
AcDbLine
 10
11.22
 20
-22.6443355089935
 30
0.0
 11
11.78
 21
-22.9443355089935
 31
0.0
  0
LINE
  5
226
330
1F
100
AcDbEntity
  8
1
  6
Continuous
 62
     3
100
AcDbLine
 10
11.78
 20
-22.9443355089935
 30
0.0
 11
11.94
 21
-23.6443355089935
 31
0.0
  0
LINE
  5
227
330
1F
100
AcDbEntity
  8
1
  6
Continuous
 62
     3
100
AcDbLine
 10
11.94
 20
-23.6443355089935
 30
0.0
 11
11.78
 21
-24.2443355089935
 31
0.0
  0
LINE
  5
228
330
1F
100
AcDbEntity
  8
1
  6
Continuous
 62
     3
100
AcDbLine
 10
11.78
 20
-24.2443355089935
 30
0.0
 11
11.22
 21
-24.5443355089935
 31
0.0
  0
LINE
  5
229
330
1F
100
AcDbEntity
  8
1
  6
Continuous
 62
     3
100
AcDbLine
 10
11.22
 20
-24.5443355089935
 30
0.0
 11
10.02
 21
-24.5443355089935
 31
0.0
  0
LINE
  5
22A
330
1F
100
AcDbEntity
  8
1
  6
Continuous
 62
     3
100
AcDbLine
 10
15.54
 20
-21.3443355089935
 30
0.0
 11
15.3
 21
-20.9443355089935
 31
0.0
  0
LINE
  5
22B
330
1F
100
AcDbEntity
  8
1
  6
Continuous
 62
     3
100
AcDbLine
 10
15.3
 20
-20.9443355089935
 30
0.0
 11
14.98
 21
-20.6443355089935
 31
0.0
  0
LINE
  5
22C
330
1F
100
AcDbEntity
  8
1
  6
Continuous
 62
     3
100
AcDbLine
 10
14.98
 20
-20.6443355089935
 30
0.0
 11
14.58
 21
-20.6443355089935
 31
0.0
  0
LINE
  5
22D
330
1F
100
AcDbEntity
  8
1
  6
Continuous
 62
     3
100
AcDbLine
 10
14.58
 20
-20.6443355089935
 30
0.0
 11
14.26
 21
-20.6443355089935
 31
0.0
  0
LINE
  5
22E
330
1F
100
AcDbEntity
  8
1
  6
Continuous
 62
     3
100
AcDbLine
 10
14.26
 20
-20.6443355089935
 30
0.0
 11
14.1
 21
-20.8443355089935
 31
0.0
  0
LINE
  5
22F
330
1F
100
AcDbEntity
  8
1
  6
Continuous
 62
     3
100
AcDbLine
 10
14.1
 20
-20.8443355089935
 30
0.0
 11
13.78
 21
-21.0443355089935
 31
0.0
  0
LINE
  5
230
330
1F
100
AcDbEntity
  8
1
  6
Continuous
 62
     3
100
AcDbLine
 10
13.78
 20
-21.0443355089935
 30
0.0
 11
13.7
 21
-21.4443355089935
 31
0.0
  0
LINE
  5
231
330
1F
100
AcDbEntity
  8
1
  6
Continuous
 62
     3
100
AcDbLine
 10
13.7
 20
-21.4443355089935
 30
0.0
 11
13.78
 21
-22.0443355089935
 31
0.0
  0
LINE
  5
232
330
1F
100
AcDbEntity
  8
1
  6
Continuous
 62
     3
100
AcDbLine
 10
13.78
 20
-22.0443355089935
 30
0.0
 11
14.02
 21
-22.2443355089935
 31
0.0
  0
LINE
  5
233
330
1F
100
AcDbEntity
  8
1
  6
Continuous
 62
     3
100
AcDbLine
 10
14.02
 20
-22.2443355089935
 30
0.0
 11
14.18
 21
-22.4443355089935
 31
0.0
  0
LINE
  5
234
330
1F
100
AcDbEntity
  8
1
  6
Continuous
 62
     3
100
AcDbLine
 10
14.18
 20
-22.4443355089935
 30
0.0
 11
14.58
 21
-22.5443355089935
 31
0.0
  0
LINE
  5
235
330
1F
100
AcDbEntity
  8
1
  6
Continuous
 62
     3
100
AcDbLine
 10
14.58
 20
-22.5443355089935
 30
0.0
 11
14.98
 21
-22.5443355089935
 31
0.0
  0
LINE
  5
236
330
1F
100
AcDbEntity
  8
1
  6
Continuous
 62
     3
100
AcDbLine
 10
14.98
 20
-22.5443355089935
 30
0.0
 11
15.22
 21
-22.6443355089935
 31
0.0
  0
LINE
  5
237
330
1F
100
AcDbEntity
  8
1
  6
Continuous
 62
     3
100
AcDbLine
 10
15.22
 20
-22.6443355089935
 30
0.0
 11
15.54
 21
-23.0443355089935
 31
0.0
  0
LINE
  5
238
330
1F
100
AcDbEntity
  8
1
  6
Continuous
 62
     3
100
AcDbLine
 10
15.54
 20
-23.0443355089935
 30
0.0
 11
15.62
 21
-23.6443355089935
 31
0.0
  0
LINE
  5
239
330
1F
100
AcDbEntity
  8
1
  6
Continuous
 62
     3
100
AcDbLine
 10
15.62
 20
-23.6443355089935
 30
0.0
 11
15.54
 21
-24.1443355089935
 31
0.0
  0
LINE
  5
23A
330
1F
100
AcDbEntity
  8
1
  6
Continuous
 62
     3
100
AcDbLine
 10
15.54
 20
-24.1443355089935
 30
0.0
 11
15.22
 21
-24.4443355089935
 31
0.0
  0
LINE
  5
23B
330
1F
100
AcDbEntity
  8
1
  6
Continuous
 62
     3
100
AcDbLine
 10
15.22
 20
-24.4443355089935
 30
0.0
 11
14.98
 21
-24.5443355089935
 31
0.0
  0
LINE
  5
23C
330
1F
100
AcDbEntity
  8
1
  6
Continuous
 62
     3
100
AcDbLine
 10
14.98
 20
-24.5443355089935
 30
0.0
 11
14.58
 21
-24.5443355089935
 31
0.0
  0
LINE
  5
23D
330
1F
100
AcDbEntity
  8
1
  6
Continuous
 62
     3
100
AcDbLine
 10
14.58
 20
-24.5443355089935
 30
0.0
 11
14.18
 21
-24.4443355089935
 31
0.0
  0
LINE
  5
23E
330
1F
100
AcDbEntity
  8
1
  6
Continuous
 62
     3
100
AcDbLine
 10
14.18
 20
-24.4443355089935
 30
0.0
 11
13.94
 21
-24.1443355089935
 31
0.0
  0
LINE
  5
23F
330
1F
100
AcDbEntity
  8
1
  6
Continuous
 62
     3
100
AcDbLine
 10
13.94
 20
-24.1443355089935
 30
0.0
 11
13.7
 21
-23.6443355089935
 31
0.0
  0
LINE
  5
240
330
1F
100
AcDbEntity
  8
1
  6
Continuous
 62
     3
100
AcDbLine
 10
19.3
 20
-21.3443355089935
 30
0.0
 11
19.06
 21
-20.9443355089935
 31
0.0
  0
LINE
  5
241
330
1F
100
AcDbEntity
  8
1
  6
Continuous
 62
     3
100
AcDbLine
 10
19.06
 20
-20.9443355089935
 30
0.0
 11
18.74
 21
-20.6443355089935
 31
0.0
  0
LINE
  5
242
330
1F
100
AcDbEntity
  8
1
  6
Continuous
 62
     3
100
AcDbLine
 10
18.74
 20
-20.6443355089935
 30
0.0
 11
18.34
 21
-20.6443355089935
 31
0.0
  0
LINE
  5
243
330
1F
100
AcDbEntity
  8
1
  6
Continuous
 62
     3
100
AcDbLine
 10
18.34
 20
-20.6443355089935
 30
0.0
 11
18.02
 21
-20.6443355089935
 31
0.0
  0
LINE
  5
244
330
1F
100
AcDbEntity
  8
1
  6
Continuous
 62
     3
100
AcDbLine
 10
18.02
 20
-20.6443355089935
 30
0.0
 11
17.86
 21
-20.8443355089935
 31
0.0
  0
LINE
  5
245
330
1F
100
AcDbEntity
  8
1
  6
Continuous
 62
     3
100
AcDbLine
 10
17.86
 20
-20.8443355089935
 30
0.0
 11
17.54
 21
-21.0443355089935
 31
0.0
  0
LINE
  5
246
330
1F
100
AcDbEntity
  8
1
  6
Continuous
 62
     3
100
AcDbLine
 10
17.54
 20
-21.0443355089935
 30
0.0
 11
17.46
 21
-21.4443355089935
 31
0.0
  0
LINE
  5
247
330
1F
100
AcDbEntity
  8
1
  6
Continuous
 62
     3
100
AcDbLine
 10
17.46
 20
-21.4443355089935
 30
0.0
 11
17.54
 21
-22.0443355089935
 31
0.0
  0
LINE
  5
248
330
1F
100
AcDbEntity
  8
1
  6
Continuous
 62
     3
100
AcDbLine
 10
17.54
 20
-22.0443355089935
 30
0.0
 11
17.78
 21
-22.2443355089935
 31
0.0
  0
LINE
  5
249
330
1F
100
AcDbEntity
  8
1
  6
Continuous
 62
     3
100
AcDbLine
 10
17.78
 20
-22.2443355089935
 30
0.0
 11
17.94
 21
-22.4443355089935
 31
0.0
  0
LINE
  5
24A
330
1F
100
AcDbEntity
  8
1
  6
Continuous
 62
     3
100
AcDbLine
 10
17.94
 20
-22.4443355089935
 30
0.0
 11
18.34
 21
-22.5443355089935
 31
0.0
  0
LINE
  5
24B
330
1F
100
AcDbEntity
  8
1
  6
Continuous
 62
     3
100
AcDbLine
 10
18.34
 20
-22.5443355089935
 30
0.0
 11
18.74
 21
-22.5443355089935
 31
0.0
  0
LINE
  5
24C
330
1F
100
AcDbEntity
  8
1
  6
Continuous
 62
     3
100
AcDbLine
 10
18.74
 20
-22.5443355089935
 30
0.0
 11
18.98
 21
-22.6443355089935
 31
0.0
  0
LINE
  5
24D
330
1F
100
AcDbEntity
  8
1
  6
Continuous
 62
     3
100
AcDbLine
 10
18.98
 20
-22.6443355089935
 30
0.0
 11
19.3
 21
-23.0443355089935
 31
0.0
  0
LINE
  5
24E
330
1F
100
AcDbEntity
  8
1
  6
Continuous
 62
     3
100
AcDbLine
 10
19.3
 20
-23.0443355089935
 30
0.0
 11
19.38
 21
-23.6443355089935
 31
0.0
  0
LINE
  5
24F
330
1F
100
AcDbEntity
  8
1
  6
Continuous
 62
     3
100
AcDbLine
 10
19.38
 20
-23.6443355089935
 30
0.0
 11
19.3
 21
-24.1443355089935
 31
0.0
  0
LINE
  5
250
330
1F
100
AcDbEntity
  8
1
  6
Continuous
 62
     3
100
AcDbLine
 10
19.3
 20
-24.1443355089935
 30
0.0
 11
18.98
 21
-24.4443355089935
 31
0.0
  0
LINE
  5
251
330
1F
100
AcDbEntity
  8
1
  6
Continuous
 62
     3
100
AcDbLine
 10
18.98
 20
-24.4443355089935
 30
0.0
 11
18.74
 21
-24.5443355089935
 31
0.0
  0
LINE
  5
252
330
1F
100
AcDbEntity
  8
1
  6
Continuous
 62
     3
100
AcDbLine
 10
18.74
 20
-24.5443355089935
 30
0.0
 11
18.34
 21
-24.5443355089935
 31
0.0
  0
LINE
  5
253
330
1F
100
AcDbEntity
  8
1
  6
Continuous
 62
     3
100
AcDbLine
 10
18.34
 20
-24.5443355089935
 30
0.0
 11
17.94
 21
-24.4443355089935
 31
0.0
  0
LINE
  5
254
330
1F
100
AcDbEntity
  8
1
  6
Continuous
 62
     3
100
AcDbLine
 10
17.94
 20
-24.4443355089935
 30
0.0
 11
17.7
 21
-24.1443355089935
 31
0.0
  0
LINE
  5
255
330
1F
100
AcDbEntity
  8
1
  6
Continuous
 62
     3
100
AcDbLine
 10
17.7
 20
-24.1443355089935
 30
0.0
 11
17.46
 21
-23.6443355089935
 31
0.0
  0
LINE
  5
256
330
1F
100
AcDbEntity
  8
1
  6
Continuous
 62
     3
100
AcDbLine
 10
21.22
 20
-22.5443355089935
 30
0.0
 11
22.9
 21
-22.5443355089935
 31
0.0
  0
LINE
  5
257
330
1F
100
AcDbEntity
  8
1
  6
Continuous
 62
     3
100
AcDbLine
 10
25.86
 20
-20.5443355089935
 30
0.0
 11
25.3
 21
-20.8443355089935
 31
0.0
  0
LINE
  5
258
330
1F
100
AcDbEntity
  8
1
  6
Continuous
 62
     3
100
AcDbLine
 10
25.3
 20
-20.8443355089935
 30
0.0
 11
24.98
 21
-21.4443355089935
 31
0.0
  0
LINE
  5
259
330
1F
100
AcDbEntity
  8
1
  6
Continuous
 62
     3
100
AcDbLine
 10
24.98
 20
-21.4443355089935
 30
0.0
 11
24.82
 21
-22.5443355089935
 31
0.0
  0
LINE
  5
25A
330
1F
100
AcDbEntity
  8
1
  6
Continuous
 62
     3
100
AcDbLine
 10
24.82
 20
-22.5443355089935
 30
0.0
 11
24.98
 21
-23.6443355089935
 31
0.0
  0
LINE
  5
25B
330
1F
100
AcDbEntity
  8
1
  6
Continuous
 62
     3
100
AcDbLine
 10
24.98
 20
-23.6443355089935
 30
0.0
 11
25.3
 21
-24.2443355089935
 31
0.0
  0
LINE
  5
25C
330
1F
100
AcDbEntity
  8
1
  6
Continuous
 62
     3
100
AcDbLine
 10
25.3
 20
-24.2443355089935
 30
0.0
 11
25.86
 21
-24.5443355089935
 31
0.0
  0
LINE
  5
25D
330
1F
100
AcDbEntity
  8
1
  6
Continuous
 62
     3
100
AcDbLine
 10
25.86
 20
-24.5443355089935
 30
0.0
 11
26.42
 21
-24.2443355089935
 31
0.0
  0
LINE
  5
25E
330
1F
100
AcDbEntity
  8
1
  6
Continuous
 62
     3
100
AcDbLine
 10
26.42
 20
-24.2443355089935
 30
0.0
 11
26.82
 21
-23.6443355089935
 31
0.0
  0
LINE
  5
25F
330
1F
100
AcDbEntity
  8
1
  6
Continuous
 62
     3
100
AcDbLine
 10
26.82
 20
-23.6443355089935
 30
0.0
 11
26.9
 21
-22.5443355089935
 31
0.0
  0
LINE
  5
260
330
1F
100
AcDbEntity
  8
1
  6
Continuous
 62
     3
100
AcDbLine
 10
26.9
 20
-22.5443355089935
 30
0.0
 11
26.82
 21
-21.4443355089935
 31
0.0
  0
LINE
  5
261
330
1F
100
AcDbEntity
  8
1
  6
Continuous
 62
     3
100
AcDbLine
 10
26.82
 20
-21.4443355089935
 30
0.0
 11
26.42
 21
-20.8443355089935
 31
0.0
  0
LINE
  5
262
330
1F
100
AcDbEntity
  8
1
  6
Continuous
 62
     3
100
AcDbLine
 10
26.42
 20
-20.8443355089935
 30
0.0
 11
25.86
 21
-20.5443355089935
 31
0.0
  0
LINE
  5
263
330
1F
100
AcDbEntity
  8
1
  6
Continuous
 62
     3
100
AcDbLine
 10
29.3
 20
-20.9443355089935
 30
0.0
 11
29.78
 21
-20.5443355089935
 31
0.0
  0
LINE
  5
264
330
1F
100
AcDbEntity
  8
1
  6
Continuous
 62
     3
100
AcDbLine
 10
29.78
 20
-20.5443355089935
 30
0.0
 11
29.78
 21
-24.5443355089935
 31
0.0
  0
LINE
  5
265
330
1F
100
AcDbEntity
  8
1
  6
Continuous
 62
     3
100
AcDbLine
 10
32.5
 20
-22.5443355089935
 30
0.0
 11
34.18
 21
-22.5443355089935
 31
0.0
  0
LINE
  5
266
330
1F
100
AcDbEntity
  8
1
  6
Continuous
 62
     3
100
AcDbLine
 10
36.82
 20
-20.9443355089935
 30
0.0
 11
37.3
 21
-20.5443355089935
 31
0.0
  0
LINE
  5
267
330
1F
100
AcDbEntity
  8
1
  6
Continuous
 62
     3
100
AcDbLine
 10
37.3
 20
-20.5443355089935
 30
0.0
 11
37.3
 21
-24.5443355089935
 31
0.0
  0
LINE
  5
268
330
1F
100
AcDbEntity
  8
1
  6
Continuous
 62
     3
100
AcDbLine
 10
40.9
 20
-20.5443355089935
 30
0.0
 11
40.34
 21
-20.8443355089935
 31
0.0
  0
LINE
  5
269
330
1F
100
AcDbEntity
  8
1
  6
Continuous
 62
     3
100
AcDbLine
 10
40.34
 20
-20.8443355089935
 30
0.0
 11
40.02
 21
-21.4443355089935
 31
0.0
  0
LINE
  5
26A
330
1F
100
AcDbEntity
  8
1
  6
Continuous
 62
     3
100
AcDbLine
 10
40.02
 20
-21.4443355089935
 30
0.0
 11
39.86
 21
-22.5443355089935
 31
0.0
  0
LINE
  5
26B
330
1F
100
AcDbEntity
  8
1
  6
Continuous
 62
     3
100
AcDbLine
 10
39.86
 20
-22.5443355089935
 30
0.0
 11
40.02
 21
-23.6443355089935
 31
0.0
  0
LINE
  5
26C
330
1F
100
AcDbEntity
  8
1
  6
Continuous
 62
     3
100
AcDbLine
 10
40.02
 20
-23.6443355089935
 30
0.0
 11
40.34
 21
-24.2443355089935
 31
0.0
  0
LINE
  5
26D
330
1F
100
AcDbEntity
  8
1
  6
Continuous
 62
     3
100
AcDbLine
 10
40.34
 20
-24.2443355089935
 30
0.0
 11
40.9
 21
-24.5443355089935
 31
0.0
  0
LINE
  5
26E
330
1F
100
AcDbEntity
  8
1
  6
Continuous
 62
     3
100
AcDbLine
 10
40.9
 20
-24.5443355089935
 30
0.0
 11
41.46
 21
-24.2443355089935
 31
0.0
  0
LINE
  5
26F
330
1F
100
AcDbEntity
  8
1
  6
Continuous
 62
     3
100
AcDbLine
 10
41.46
 20
-24.2443355089935
 30
0.0
 11
41.86
 21
-23.6443355089935
 31
0.0
  0
LINE
  5
270
330
1F
100
AcDbEntity
  8
1
  6
Continuous
 62
     3
100
AcDbLine
 10
41.86
 20
-23.6443355089935
 30
0.0
 11
41.94
 21
-22.5443355089935
 31
0.0
  0
LINE
  5
271
330
1F
100
AcDbEntity
  8
1
  6
Continuous
 62
     3
100
AcDbLine
 10
41.94
 20
-22.5443355089935
 30
0.0
 11
41.86
 21
-21.4443355089935
 31
0.0
  0
LINE
  5
272
330
1F
100
AcDbEntity
  8
1
  6
Continuous
 62
     3
100
AcDbLine
 10
41.86
 20
-21.4443355089935
 30
0.0
 11
41.46
 21
-20.8443355089935
 31
0.0
  0
LINE
  5
273
330
1F
100
AcDbEntity
  8
1
  6
Continuous
 62
     3
100
AcDbLine
 10
41.46
 20
-20.8443355089935
 30
0.0
 11
40.9
 21
-20.5443355089935
 31
0.0
  0
ARC
  5
274
330
1F
100
AcDbEntity
  8
1
  6
Continuous
 62
     3
100
AcDbCircle
 10
80.59925600721249
 20
58.509088972141
 30
0.0
 40
1.000000000000026
100
AcDbArc
 50
191.1831176239683
 51
212.8912925678252
  0
ARC
  5
275
330
1F
100
AcDbEntity
  8
1
  6
Continuous
 62
     3
100
AcDbCircle
 10
78.50000000000018
 20
57.1514718625761
 30
0.0
 40
1.499999999999845
100
AcDbArc
 50
327.1087074321821
 51
32.89129256782314
  0
ARC
  5
276
330
1F
100
AcDbEntity
  8
1
  6
Continuous
 62
     3
100
AcDbCircle
 10
73.73216959565359
 20
57.1514718625761
 30
0.0
 40
5.999999999999993
100
AcDbArc
 50
11.18311762395563
 51
67.7742455454011
  0
ARC
  5
277
330
1F
100
AcDbEntity
  8
1
  6
Continuous
 62
     3
100
AcDbCircle
 10
80.59925600721249
 20
55.7938547530114
 30
0.0
 40
1.000000000000107
100
AcDbArc
 50
147.1087074321765
 51
168.8168823760377
  0
ARC
  5
278
330
1F
100
AcDbEntity
  8
1
  6
Continuous
 62
     3
100
AcDbCircle
 10
73.73216959565359
 20
57.1514718625761
 30
0.0
 40
5.999999999999983
100
AcDbArc
 50
292.2257544545998
 51
348.8168823760453
  0
ARC
  5
279
330
1F
100
AcDbEntity
  8
1
  6
Continuous
 62
     3
100
AcDbCircle
 10
52.87867723523669
 20
6.10223999780558
 30
0.0
 40
61.14428542010615
100
AcDbArc
 50
67.77952505055396
 51
94.33039167857724
  0
ARC
  5
27A
330
1F
100
AcDbEntity
  8
1
  6
Continuous
 62
     3
100
AcDbCircle
 10
52.87867723523669
 20
108.200703727347
 30
0.0
 40
61.14428542010667
100
AcDbArc
 50
265.6696083214227
 51
292.220474949446
  0
ARC
  5
27B
330
1F
100
AcDbEntity
  8
1
  6
Continuous
 62
     3
100
AcDbCircle
 10
32.77618008131232
 20
29.70550441408891
 30
0.0
 40
1.999999999999913
100
AcDbArc
 50
95.69204661844618
 51
143.1200000000034
  0
ARC
  5
27C
330
1F
100
AcDbEntity
  8
1
  6
Continuous
 62
     3
100
AcDbCircle
 10
32.7760624879633
 20
29.7053476805378
 30
0.0
 40
5.999999999999933
100
AcDbArc
 50
95.00000000000148
 51
140.6695286102213
  0
ARC
  5
27D
330
1F
100
AcDbEntity
  8
1
  6
Continuous
 62
     3
100
AcDbCircle
 10
78.7976448620976
 20
37.8016133699354
 30
0.0
 40
1.202412689594838
100
AcDbArc
 50
321.7790318638309
 51
0.56058521134324
  0
ARC
  5
27E
330
1F
100
AcDbEntity
  8
1
  6
Continuous
 62
     3
100
AcDbCircle
 10
77.86853152188391
 20
37.7582562438454
 30
0.0
 40
2.000449031820608
100
AcDbArc
 50
275.6017855683474
 51
339.5000392434496
  0
ARC
  5
27F
330
1F
100
AcDbEntity
  8
1
  6
Continuous
 62
     3
100
AcDbCircle
 10
78.7976448620976
 20
37.8016133699354
 30
0.0
 40
1.20241268959477
100
AcDbArc
 50
0.56058521134324
 51
43.564513159723
  0
ARC
  5
280
330
1F
100
AcDbEntity
  8
1
  6
Continuous
 62
     3
100
AcDbCircle
 10
77.86853152188391
 20
37.7582562438454
 30
0.0
 40
2.000449031820554
100
AcDbArc
 50
25.84350578010274
 51
87.68219968096915
  0
ARC
  5
281
330
1F
100
AcDbEntity
  8
1
  6
Continuous
 62
     3
100
AcDbCircle
 10
-1.58639962203275
 20
57.99999999999985
 30
0.0
 40
20.11360037796726
100
AcDbArc
 50
162.4584734345345
 51
197.5415265654647
  0
ARC
  5
284
102
{ACAD_REACTORS
330
36C
102
}
330
1F
100
AcDbEntity
  8
1
  6
Continuous
 62
     3
100
AcDbCircle
 10
33.4363585417702
 20
61.2714718625762
 30
0.0
 40
0.3199999999999008
100
AcDbArc
 50
90.0
 51
180.0
  0
ARC
  5
285
102
{ACAD_REACTORS
330
36C
102
}
330
1F
100
AcDbEntity
  8
1
  6
Continuous
 62
     3
100
AcDbCircle
 10
33.4363585417702
 20
60.7114718625762
 30
0.0
 40
0.3199999999998937
100
AcDbArc
 50
180.0
 51
270.0
  0
ARC
  5
286
102
{ACAD_REACTORS
330
36C
102
}
330
1F
100
AcDbEntity
  8
1
  6
Continuous
 62
     3
100
AcDbCircle
 10
35.9163585417704
 20
60.7114718625762
 30
0.0
 40
0.3199999999998937
100
AcDbArc
 50
270.0
 51
0.0
  0
ARC
  5
287
102
{ACAD_REACTORS
330
36C
102
}
330
1F
100
AcDbEntity
  8
1
  6
Continuous
 62
     3
100
AcDbCircle
 10
35.9163585417704
 20
61.2714718625762
 30
0.0
 40
0.3199999999999008
100
AcDbArc
 50
0.0
 51
90.0
  0
ARC
  5
288
102
{ACAD_REACTORS
330
36B
102
}
330
1F
100
AcDbEntity
  8
1
  6
Continuous
 62
     3
100
AcDbCircle
 10
35.9163585417704
 20
53.5914718625761
 30
0.0
 40
0.3199999999999008
100
AcDbArc
 50
0.0
 51
90.0
  0
ARC
  5
289
102
{ACAD_REACTORS
330
36B
102
}
330
1F
100
AcDbEntity
  8
1
  6
Continuous
 62
     3
100
AcDbCircle
 10
35.9163585417704
 20
53.0314718625761
 30
0.0
 40
0.3199999999999008
100
AcDbArc
 50
270.0
 51
0.0
  0
ARC
  5
28A
102
{ACAD_REACTORS
330
36B
102
}
330
1F
100
AcDbEntity
  8
1
  6
Continuous
 62
     3
100
AcDbCircle
 10
33.4363585417702
 20
53.0314718625761
 30
0.0
 40
0.3199999999998937
100
AcDbArc
 50
180.0
 51
270.0
  0
ARC
  5
28B
102
{ACAD_REACTORS
330
36B
102
}
330
1F
100
AcDbEntity
  8
1
  6
Continuous
 62
     3
100
AcDbCircle
 10
33.4363585417703
 20
53.5914718625761
 30
0.0
 40
0.3199999999999008
100
AcDbArc
 50
90.00000000001909
 51
180.0
  0
ARC
  5
28C
102
{ACAD_REACTORS
330
36D
102
}
330
1F
100
AcDbEntity
  8
1
  6
Continuous
 62
     3
100
AcDbCircle
 10
36.7363585417703
 20
61.8695513418349
 30
0.0
 40
0.0800000000001271
100
AcDbArc
 50
30.80958048220256
 51
180.0
  0
ARC
  5
28D
102
{ACAD_REACTORS
330
36D
102
}
330
1F
100
AcDbEntity
  8
1
  6
Continuous
 62
     3
100
AcDbCircle
 10
37.3284674982648
 20
60.1789405039087
 30
0.0
 40
0.0999999999999636
100
AcDbArc
 50
19.23065317149678
 51
103.392497753684
  0
ARC
  5
28E
102
{ACAD_REACTORS
330
36D
102
}
330
1F
100
AcDbEntity
  8
1
  6
Continuous
 62
     3
100
AcDbCircle
 10
36.7363585417703
 20
52.4333923833176
 30
0.0
 40
0.0799999999998988
100
AcDbArc
 50
180.0
 51
329.1904195175774
  0
ARC
  5
28F
102
{ACAD_REACTORS
330
36D
102
}
330
1F
100
AcDbEntity
  8
1
  6
Continuous
 62
     3
100
AcDbCircle
 10
37.3284674982648
 20
54.1240032212438
 30
0.0
 40
0.100000000000036
100
AcDbArc
 50
256.607502246316
 51
340.7693468286522
  0
ARC
  5
290
102
{ACAD_REACTORS
330
36C
102
}
330
1F
100
AcDbEntity
  8
1
  6
Continuous
 62
     3
100
AcDbCircle
 10
35.7013585417703
 20
61.0564718625763
 30
0.0
 40
0.3000000000000043
100
AcDbArc
 50
0.0
 51
90.0
  0
ARC
  5
291
102
{ACAD_REACTORS
330
36C
102
}
330
1F
100
AcDbEntity
  8
1
  6
Continuous
 62
     3
100
AcDbCircle
 10
35.7013585417703
 20
60.9264718625761
 30
0.0
 40
0.2999999999998977
100
AcDbArc
 50
270.0
 51
0.0
  0
ARC
  5
292
102
{ACAD_REACTORS
330
36C
102
}
330
1F
100
AcDbEntity
  8
1
  6
Continuous
 62
     3
100
AcDbCircle
 10
33.6513585417704
 20
61.0564718625763
 30
0.0
 40
0.2999999999996987
100
AcDbArc
 50
90.0
 51
180.0
  0
ARC
  5
293
102
{ACAD_REACTORS
330
36C
102
}
330
1F
100
AcDbEntity
  8
1
  6
Continuous
 62
     3
100
AcDbCircle
 10
33.6513585417704
 20
60.9264718625761
 30
0.0
 40
0.2999999999998977
100
AcDbArc
 50
180.0
 51
270.0
  0
ARC
  5
294
102
{ACAD_REACTORS
330
36B
102
}
330
1F
100
AcDbEntity
  8
1
  6
Continuous
 62
     3
100
AcDbCircle
 10
35.7013585417703
 20
53.3764718625762
 30
0.0
 40
0.3000000000000043
100
AcDbArc
 50
359.9999999999416
 51
90.0
  0
ARC
  5
295
102
{ACAD_REACTORS
330
36B
102
}
330
1F
100
AcDbEntity
  8
1
  6
Continuous
 62
     3
100
AcDbCircle
 10
35.7013585417703
 20
53.2464718625761
 30
0.0
 40
0.2999999999996987
100
AcDbArc
 50
270.0
 51
0.0
  0
ARC
  5
296
102
{ACAD_REACTORS
330
36B
102
}
330
1F
100
AcDbEntity
  8
1
  6
Continuous
 62
     3
100
AcDbCircle
 10
33.6513585417704
 20
53.3764718625762
 30
0.0
 40
0.3000000000001961
100
AcDbArc
 50
90.0
 51
180.0000000000583
  0
ARC
  5
297
102
{ACAD_REACTORS
330
36B
102
}
330
1F
100
AcDbEntity
  8
1
  6
Continuous
 62
     3
100
AcDbCircle
 10
33.6513585417704
 20
53.2464718625761
 30
0.0
 40
0.2999999999998977
100
AcDbArc
 50
180.0
 51
270.0
  0
ARC
  5
298
102
{ACAD_REACTORS
330
36B
102
}
330
1F
100
AcDbEntity
  8
1
  6
Continuous
 62
     3
100
AcDbCircle
 10
35.0208502808597
 20
53.5264718625761
 30
0.0
 40
0.150000000000297
100
AcDbArc
 50
90.0
 51
147.2647737278286
  0
ARC
  5
299
102
{ACAD_REACTORS
330
36B
102
}
330
1F
100
AcDbEntity
  8
1
  6
Continuous
 62
     3
100
AcDbCircle
 10
34.1084858195782
 20
53.0964718625762
 30
0.0
 40
0.1499999999997996
100
AcDbArc
 50
270.0
 51
327.2196945237932
  0
ARC
  5
29A
102
{ACAD_REACTORS
330
36B
102
}
330
1F
100
AcDbEntity
  8
1
  6
Continuous
 62
     3
100
AcDbCircle
 10
34.909911941166
 20
53.7314718625762
 30
0.0
 40
0.1800000000000992
100
AcDbArc
 50
90.0
 51
147.2196945237525
  0
ARC
  5
29B
102
{ACAD_REACTORS
330
36B
102
}
330
1F
100
AcDbEntity
  8
1
  6
Continuous
 62
     3
100
AcDbCircle
 10
34.2203292378279
 20
52.891471862576
 30
0.0
 40
0.1799999999998008
100
AcDbArc
 50
270.0
 51
327.2647737279685
  0
ARC
  5
29C
102
{ACAD_REACTORS
330
382
102
}
330
1F
100
AcDbEntity
  8
1
  6
Continuous
 62
     3
100
AcDbCircle
 10
70.4020255867852
 20
60.2145070765731
 30
0.0
 40
0.178988262000999
100
AcDbArc
 50
90.0
 51
180.0
  0
ARC
  5
29D
102
{ACAD_REACTORS
330
382
102
}
330
1F
100
AcDbEntity
  8
1
  6
Continuous
 62
     3
100
AcDbCircle
 10
70.5213510947859
 20
60.2145070765731
 30
0.0
 40
0.1789882620008996
100
AcDbArc
 50
0.0
 51
90.0
  0
ARC
  5
29E
102
{ACAD_REACTORS
330
382
102
}
330
1F
100
AcDbEntity
  8
1
  6
Continuous
 62
     3
100
AcDbCircle
 10
70.5213510947859
 20
58.2456361945616
 30
0.0
 40
0.178988262000999
100
AcDbArc
 50
270.0
 51
0.0
  0
ARC
  5
29F
102
{ACAD_REACTORS
330
382
102
}
330
1F
100
AcDbEntity
  8
1
  6
Continuous
 62
     3
100
AcDbCircle
 10
70.4020255867852
 20
58.2456361945616
 30
0.0
 40
0.1789882620010985
100
AcDbArc
 50
180.0
 51
270.0
  0
ARC
  5
2A0
102
{ACAD_REACTORS
330
382
102
}
330
1F
100
AcDbEntity
  8
1
  6
Continuous
 62
     3
100
AcDbCircle
 10
70.2230373247841
 20
58.0666479325606
 30
0.0
 40
0.3579765240020976
100
AcDbArc
 50
180.0
 51
270.0
  0
ARC
  5
2A1
102
{ACAD_REACTORS
330
382
102
}
330
1F
100
AcDbEntity
  8
1
  6
Continuous
 62
     3
100
AcDbCircle
 10
70.7003393567868
 20
58.0666479325606
 30
0.0
 40
0.3579765240019981
100
AcDbArc
 50
270.0
 51
0.0
  0
ARC
  5
2A2
102
{ACAD_REACTORS
330
382
102
}
330
1F
100
AcDbEntity
  8
1
  6
Continuous
 62
     3
100
AcDbCircle
 10
70.7003393567868
 20
60.3934953385741
 30
0.0
 40
0.3579765240020976
100
AcDbArc
 50
0.0
 51
90.0
  0
ARC
  5
2A3
102
{ACAD_REACTORS
330
382
102
}
330
1F
100
AcDbEntity
  8
1
  6
Continuous
 62
     3
100
AcDbCircle
 10
70.2230373247841
 20
60.3934953385741
 30
0.0
 40
0.3579765240020052
100
AcDbArc
 50
90.0
 51
180.0
  0
ARC
  5
2A4
102
{ACAD_REACTORS
330
383
102
}
330
1F
100
AcDbEntity
  8
1
  6
Continuous
 62
     3
100
AcDbCircle
 10
71.9532571907941
 20
60.2145070765731
 30
0.0
 40
0.178988262000999
100
AcDbArc
 50
90.0
 51
180.0
  0
ARC
  5
2A5
102
{ACAD_REACTORS
330
383
102
}
330
1F
100
AcDbEntity
  8
1
  6
Continuous
 62
     3
100
AcDbCircle
 10
72.0725826987948
 20
60.2145070765731
 30
0.0
 40
0.178988262000999
100
AcDbArc
 50
0.0
 51
90.0
  0
ARC
  5
2A6
102
{ACAD_REACTORS
330
383
102
}
330
1F
100
AcDbEntity
  8
1
  6
Continuous
 62
     3
100
AcDbCircle
 10
72.0725826987948
 20
58.2456361945616
 30
0.0
 40
0.178988262000999
100
AcDbArc
 50
270.0
 51
0.0
  0
ARC
  5
2A7
102
{ACAD_REACTORS
330
383
102
}
330
1F
100
AcDbEntity
  8
1
  6
Continuous
 62
     3
100
AcDbCircle
 10
71.9532571907941
 20
58.2456361945616
 30
0.0
 40
0.178988262001198
100
AcDbArc
 50
180.0
 51
270.0
  0
ARC
  5
2A8
102
{ACAD_REACTORS
330
383
102
}
330
1F
100
AcDbEntity
  8
1
  6
Continuous
 62
     3
100
AcDbCircle
 10
71.7742689287929
 20
58.0666479325606
 30
0.0
 40
0.3579765240019128
100
AcDbArc
 50
180.0
 51
270.0
  0
ARC
  5
2A9
102
{ACAD_REACTORS
330
383
102
}
330
1F
100
AcDbEntity
  8
1
  6
Continuous
 62
     3
100
AcDbCircle
 10
72.2515709607958
 20
58.0666479325606
 30
0.0
 40
0.3579765240019981
100
AcDbArc
 50
270.0
 51
0.0
  0
ARC
  5
2AA
102
{ACAD_REACTORS
330
383
102
}
330
1F
100
AcDbEntity
  8
1
  6
Continuous
 62
     3
100
AcDbCircle
 10
72.2515709607958
 20
60.3934953385741
 30
0.0
 40
0.3579765240019981
100
AcDbArc
 50
0.0
 51
90.0
  0
ARC
  5
2AB
102
{ACAD_REACTORS
330
383
102
}
330
1F
100
AcDbEntity
  8
1
  6
Continuous
 62
     3
100
AcDbCircle
 10
71.7742689287929
 20
60.3934953385741
 30
0.0
 40
0.3579765240020052
100
AcDbArc
 50
90.0
 51
180.0
  0
ARC
  5
2AC
102
{ACAD_REACTORS
330
37F
102
}
330
1F
100
AcDbEntity
  8
1
  6
Continuous
 62
     3
100
AcDbCircle
 10
66.225632806761
 20
58.7527696035646
 30
0.0
 40
0.1193255080006992
100
AcDbArc
 50
90.0
 51
180.0
  0
ARC
  5
2AD
102
{ACAD_REACTORS
330
37F
102
}
330
1F
100
AcDbEntity
  8
1
  6
Continuous
 62
     3
100
AcDbCircle
 10
66.2852955607613
 20
58.7527696035646
 30
0.0
 40
0.1193255080006992
100
AcDbArc
 50
0.0
 51
90.0
  0
ARC
  5
2AE
102
{ACAD_REACTORS
330
37F
102
}
330
1F
100
AcDbEntity
  8
1
  6
Continuous
 62
     3
100
AcDbCircle
 10
66.2852955607613
 20
59.2897343895678
 30
0.0
 40
0.1193255080008981
100
AcDbArc
 50
270.0
 51
0.0
  0
ARC
  5
2AF
102
{ACAD_REACTORS
330
37F
102
}
330
1F
100
AcDbEntity
  8
1
  6
Continuous
 62
     3
100
AcDbCircle
 10
66.225632806761
 20
59.2897343895678
 30
0.0
 40
0.1193255080007987
100
AcDbArc
 50
180.0
 51
270.0
  0
ARC
  5
2B0
102
{ACAD_REACTORS
330
37F
102
}
330
1F
100
AcDbEntity
  8
1
  6
Continuous
 62
     3
100
AcDbCircle
 10
66.5903842078649
 20
59.0212519965661
 30
0.0
 40
0.0119325508001609
100
AcDbArc
 50
110.3641348056874
 51
249.6358651941464
  0
ARC
  5
2B1
102
{ACAD_REACTORS
330
37F
102
}
330
1F
100
AcDbEntity
  8
1
  6
Continuous
 62
     3
100
AcDbCircle
 10
66.5239465767627
 20
58.8422637345651
 30
0.0
 40
0.178988262000999
100
AcDbArc
 50
0.0
 51
69.63586519367098
  0
ARC
  5
2B2
102
{ACAD_REACTORS
330
37F
102
}
330
1F
100
AcDbEntity
  8
1
  6
Continuous
 62
     3
100
AcDbCircle
 10
66.5239465767627
 20
59.2002402585671
 30
0.0
 40
0.1789882620008818
100
AcDbArc
 50
290.3641348063401
 51
0.0
  0
ARC
  5
2B3
102
{ACAD_REACTORS
330
37F
102
}
330
1F
100
AcDbEntity
  8
1
  6
Continuous
 62
     3
100
AcDbCircle
 10
65.9205441596573
 20
59.0212519965661
 30
0.0
 40
0.011932550800009
100
AcDbArc
 50
290.3641348064676
 51
69.63586519431261
  0
ARC
  5
2B4
102
{ACAD_REACTORS
330
37F
102
}
330
1F
100
AcDbEntity
  8
1
  6
Continuous
 62
     3
100
AcDbCircle
 10
65.9869817907595
 20
58.8422637345651
 30
0.0
 40
0.1789882620010337
100
AcDbArc
 50
110.3641348062881
 51
180.0
  0
ARC
  5
2B5
102
{ACAD_REACTORS
330
37F
102
}
330
1F
100
AcDbEntity
  8
1
  6
Continuous
 62
     3
100
AcDbCircle
 10
65.9869817907595
 20
59.2002402585671
 30
0.0
 40
0.1789882620008996
100
AcDbArc
 50
180.0
 51
249.6358651936599
  0
ARC
  5
2B6
102
{ACAD_REACTORS
330
37F
102
}
330
1F
100
AcDbEntity
  8
1
  6
Continuous
 62
     3
100
AcDbCircle
 10
66.225632806761
 20
58.1263106865609
 30
0.0
 40
0.1193255080007987
100
AcDbArc
 50
180.0
 51
270.0
  0
ARC
  5
2B7
102
{ACAD_REACTORS
330
37F
102
}
330
1F
100
AcDbEntity
  8
1
  6
Continuous
 62
     3
100
AcDbCircle
 10
66.2852955607613
 20
58.1263106865609
 30
0.0
 40
0.1193255080005997
100
AcDbArc
 50
270.0
 51
0.0
  0
ARC
  5
2B8
102
{ACAD_REACTORS
330
37F
102
}
330
1F
100
AcDbEntity
  8
1
  6
Continuous
 62
     3
100
AcDbCircle
 10
66.2852955607613
 20
59.6775422905699
 30
0.0
 40
0.1193255080006992
100
AcDbArc
 50
0.0
 51
90.0
  0
ARC
  5
2B9
102
{ACAD_REACTORS
330
37F
102
}
330
1F
100
AcDbEntity
  8
1
  6
Continuous
 62
     3
100
AcDbCircle
 10
66.225632806761
 20
59.6775422905699
 30
0.0
 40
0.1193255080006992
100
AcDbArc
 50
90.0
 51
180.0
  0
ARC
  5
2BA
102
{ACAD_REACTORS
330
37F
102
}
330
1F
100
AcDbEntity
  8
1
  6
Continuous
 62
     3
100
AcDbCircle
 10
66.0466445447598
 20
57.94732242456
 30
0.0
 40
0.2386510160011994
100
AcDbArc
 50
180.0
 51
270.0
  0
ARC
  5
2BB
102
{ACAD_REACTORS
330
37F
102
}
330
1F
100
AcDbEntity
  8
1
  6
Continuous
 62
     3
100
AcDbCircle
 10
66.4642838227624
 20
57.94732242456
 30
0.0
 40
0.2386510160013984
100
AcDbArc
 50
270.0
 51
0.0
  0
ARC
  5
2BC
102
{ACAD_REACTORS
330
37F
102
}
330
1F
100
AcDbEntity
  8
1
  6
Continuous
 62
     3
100
AcDbCircle
 10
66.4642838227624
 20
59.8565305525709
 30
0.0
 40
0.2386510160012989
100
AcDbArc
 50
0.0
 51
90.0
  0
ARC
  5
2BD
102
{ACAD_REACTORS
330
37F
102
}
330
1F
100
AcDbEntity
  8
1
  6
Continuous
 62
     3
100
AcDbCircle
 10
66.0466445447598
 20
59.8565305525709
 30
0.0
 40
0.2386510160012989
100
AcDbArc
 50
90.0
 51
180.0
  0
ARC
  5
2BE
102
{ACAD_REACTORS
330
37D
102
}
330
1F
100
AcDbEntity
  8
1
  6
Continuous
 62
     3
100
AcDbCircle
 10
63.9211453726601
 20
59.6477109135698
 30
0.0
 40
0.0178988262001247
100
AcDbArc
 50
114.6199773288998
 51
245.3800226711001
  0
ARC
  5
2BF
102
{ACAD_REACTORS
330
37D
102
}
330
1F
100
AcDbEntity
  8
1
  6
Continuous
 62
     3
100
AcDbCircle
 10
63.8391226467472
 20
59.4687226515688
 30
0.0
 40
0.178988262000999
100
AcDbArc
 50
0.0
 51
65.38002267134391
  0
ARC
  5
2C0
102
{ACAD_REACTORS
330
37D
102
}
330
1F
100
AcDbEntity
  8
1
  6
Continuous
 62
     3
100
AcDbCircle
 10
63.8391226467472
 20
59.8266991755708
 30
0.0
 40
0.1789882620010089
100
AcDbArc
 50
294.619977328657
 51
0.0
  0
ARC
  5
2C1
102
{ACAD_REACTORS
330
37D
102
}
330
1F
100
AcDbEntity
  8
1
  6
Continuous
 62
     3
100
AcDbCircle
 10
63.6004716307457
 20
59.3792285205683
 30
0.0
 40
0.1193255080007987
100
AcDbArc
 50
0.0
 51
90.0
  0
ARC
  5
2C2
102
{ACAD_REACTORS
330
37D
102
}
330
1F
100
AcDbEntity
  8
1
  6
Continuous
 62
     3
100
AcDbCircle
 10
63.6004716307457
 20
59.9161933065713
 30
0.0
 40
0.1193255080006992
100
AcDbArc
 50
270.0
 51
0.0
  0
ARC
  5
2C3
102
{ACAD_REACTORS
330
37D
102
}
330
1F
100
AcDbEntity
  8
1
  6
Continuous
 62
     3
100
AcDbCircle
 10
63.5408088767455
 20
58.7826009805648
 30
0.0
 40
0.1193255080007987
100
AcDbArc
 50
180.0
 51
270.0
  0
ARC
  5
2C4
102
{ACAD_REACTORS
330
37D
102
}
330
1F
100
AcDbEntity
  8
1
  6
Continuous
 62
     3
100
AcDbCircle
 10
63.6004716307457
 20
58.7826009805648
 30
0.0
 40
0.1193255080006992
100
AcDbArc
 50
270.0
 51
0.0
  0
ARC
  5
2C5
102
{ACAD_REACTORS
330
37D
102
}
330
1F
100
AcDbEntity
  8
1
  6
Continuous
 62
     3
100
AcDbCircle
 10
63.6004716307457
 20
60.3338325845738
 30
0.0
 40
0.1193255080007987
100
AcDbArc
 50
0.0
 51
90.0
  0
ARC
  5
2C6
102
{ACAD_REACTORS
330
37D
102
}
330
1F
100
AcDbEntity
  8
1
  6
Continuous
 62
     3
100
AcDbCircle
 10
63.5408088767455
 20
60.3338325845738
 30
0.0
 40
0.1193255080005997
100
AcDbArc
 50
90.0
 51
180.0
  0
ARC
  5
2C7
102
{ACAD_REACTORS
330
37D
102
}
330
1F
100
AcDbEntity
  8
1
  6
Continuous
 62
     3
100
AcDbCircle
 10
63.3618206147444
 20
60.5128208465748
 30
0.0
 40
0.238651016001306
100
AcDbArc
 50
90.0
 51
180.0
  0
ARC
  5
2C8
102
{ACAD_REACTORS
330
37D
102
}
330
1F
100
AcDbEntity
  8
1
  6
Continuous
 62
     3
100
AcDbCircle
 10
63.3618206147444
 20
58.6036127185638
 30
0.0
 40
0.238651016001306
100
AcDbArc
 50
180.0
 51
270.0
  0
ARC
  5
2C9
102
{ACAD_REACTORS
330
37D
102
}
330
1F
100
AcDbEntity
  8
1
  6
Continuous
 62
     3
100
AcDbCircle
 10
63.7794598927468
 20
58.6036127185638
 30
0.0
 40
0.238651016001505
100
AcDbArc
 50
270.0
 51
0.0
  0
ARC
  5
2CA
102
{ACAD_REACTORS
330
37D
102
}
330
1F
100
AcDbEntity
  8
1
  6
Continuous
 62
     3
100
AcDbCircle
 10
63.7794598927468
 20
60.5128208465748
 30
0.0
 40
0.2386510160013984
100
AcDbArc
 50
0.0
 51
90.0
  0
ARC
  5
2CB
102
{ACAD_REACTORS
330
379
102
}
330
1F
100
AcDbEntity
  8
1
  6
Continuous
 62
     3
100
AcDbCircle
 10
68.6754298377389
 20
56.2338248037526
 30
0.0
 40
0.3576470588234031
100
AcDbArc
 50
90.0
 51
180.0
  0
ARC
  5
2CC
102
{ACAD_REACTORS
330
379
102
}
330
1F
100
AcDbEntity
  8
1
  6
Continuous
 62
     3
100
AcDbCircle
 10
69.1522925828368
 20
56.2338248037526
 30
0.0
 40
0.3576470588237015
100
AcDbArc
 50
0.0
 51
90.0
  0
ARC
  5
2CD
102
{ACAD_REACTORS
330
379
102
}
330
1F
100
AcDbEntity
  8
1
  6
Continuous
 62
     3
100
AcDbCircle
 10
69.1522925828368
 20
53.9091189213994
 30
0.0
 40
0.357647058823396
100
AcDbArc
 50
270.0
 51
0.0
  0
ARC
  5
2CE
102
{ACAD_REACTORS
330
379
102
}
330
1F
100
AcDbEntity
  8
1
  6
Continuous
 62
     3
100
AcDbCircle
 10
68.6754298377389
 20
53.9091189213994
 30
0.0
 40
0.3576470588237015
100
AcDbArc
 50
180.0
 51
270.0
  0
ARC
  5
2CF
102
{ACAD_REACTORS
330
379
102
}
330
1F
100
AcDbEntity
  8
1
  6
Continuous
 62
     3
100
AcDbCircle
 10
68.8542533671507
 20
54.0879424508113
 30
0.0
 40
0.178823529411801
100
AcDbArc
 50
180.0
 51
270.0
  0
ARC
  5
2D0
102
{ACAD_REACTORS
330
379
102
}
330
1F
100
AcDbEntity
  8
1
  6
Continuous
 62
     3
100
AcDbCircle
 10
68.9734690534252
 20
54.0879424508113
 30
0.0
 40
0.1788235294119005
100
AcDbArc
 50
270.0
 51
0.0
  0
ARC
  5
2D1
102
{ACAD_REACTORS
330
379
102
}
330
1F
100
AcDbEntity
  8
1
  6
Continuous
 62
     3
100
AcDbCircle
 10
68.9734690534252
 20
54.8628444115955
 30
0.0
 40
0.1788235294115879
100
AcDbArc
 50
0.0
 51
90.0
  0
ARC
  5
2D2
102
{ACAD_REACTORS
330
379
102
}
330
1F
100
AcDbEntity
  8
1
  6
Continuous
 62
     3
100
AcDbCircle
 10
68.9734690534252
 20
55.5781385292427
 30
0.0
 40
0.178823529411801
100
AcDbArc
 50
270.0
 51
0.0
  0
ARC
  5
2D3
102
{ACAD_REACTORS
330
379
102
}
330
1F
100
AcDbEntity
  8
1
  6
Continuous
 62
     3
100
AcDbCircle
 10
68.9734690534252
 20
56.0550012743408
 30
0.0
 40
0.1788235294115879
100
AcDbArc
 50
0.0
 51
90.0
  0
ARC
  5
2D4
102
{ACAD_REACTORS
330
379
102
}
330
1F
100
AcDbEntity
  8
1
  6
Continuous
 62
     3
100
AcDbCircle
 10
68.8542533671507
 20
56.0550012743408
 30
0.0
 40
0.1788235294117939
100
AcDbArc
 50
90.0
 51
180.0
  0
ARC
  5
2D5
102
{ACAD_REACTORS
330
377
102
}
330
1F
100
AcDbEntity
  8
1
  6
Continuous
 62
     3
100
AcDbCircle
 10
71.7750376808763
 20
56.2338248037526
 30
0.0
 40
0.3576470588234031
100
AcDbArc
 50
90.0
 51
180.0
  0
ARC
  5
2D6
102
{ACAD_REACTORS
330
377
102
}
330
1F
100
AcDbEntity
  8
1
  6
Continuous
 62
     3
100
AcDbCircle
 10
72.2519004259743
 20
56.2338248037526
 30
0.0
 40
0.3576470588235026
100
AcDbArc
 50
0.0
 51
90.0
  0
ARC
  5
2D7
102
{ACAD_REACTORS
330
377
102
}
330
1F
100
AcDbEntity
  8
1
  6
Continuous
 62
     3
100
AcDbCircle
 10
72.2519004259743
 20
53.9091189213994
 30
0.0
 40
0.357647058823396
100
AcDbArc
 50
270.0
 51
0.0
  0
ARC
  5
2D8
102
{ACAD_REACTORS
330
377
102
}
330
1F
100
AcDbEntity
  8
1
  6
Continuous
 62
     3
100
AcDbCircle
 10
71.7750376808763
 20
53.9091189213994
 30
0.0
 40
0.357647058823602
100
AcDbArc
 50
180.0
 51
270.0
  0
ARC
  5
2D9
102
{ACAD_REACTORS
330
377
102
}
330
1F
100
AcDbEntity
  8
1
  6
Continuous
 62
     3
100
AcDbCircle
 10
71.9538612102881
 20
54.0879424508113
 30
0.0
 40
0.178823529411801
100
AcDbArc
 50
180.0
 51
270.0
  0
ARC
  5
2DA
102
{ACAD_REACTORS
330
377
102
}
330
1F
100
AcDbEntity
  8
1
  6
Continuous
 62
     3
100
AcDbCircle
 10
72.0730768965626
 20
54.0879424508113
 30
0.0
 40
0.1788235294119005
100
AcDbArc
 50
270.0
 51
0.0
  0
ARC
  5
2DB
102
{ACAD_REACTORS
330
377
102
}
330
1F
100
AcDbEntity
  8
1
  6
Continuous
 62
     3
100
AcDbCircle
 10
72.0730768965626
 20
56.0550012743408
 30
0.0
 40
0.1788235294117015
100
AcDbArc
 50
0.0
 51
90.0
  0
ARC
  5
2DC
102
{ACAD_REACTORS
330
377
102
}
330
1F
100
AcDbEntity
  8
1
  6
Continuous
 62
     3
100
AcDbCircle
 10
71.9538612102881
 20
56.0550012743408
 30
0.0
 40
0.1788235294117939
100
AcDbArc
 50
90.0
 51
180.0
  0
ARC
  5
2DD
102
{ACAD_REACTORS
330
377
102
}
330
1F
100
AcDbEntity
  8
1
  6
Continuous
 62
     3
100
AcDbCircle
 10
72.0730768965626
 20
54.7138248037526
 30
0.0
 40
0.1788235294117015
100
AcDbArc
 50
0.0
 51
90.0
  0
ARC
  5
2DE
102
{ACAD_REACTORS
330
377
102
}
330
1F
100
AcDbEntity
  8
1
  6
Continuous
 62
     3
100
AcDbCircle
 10
71.953861210288
 20
54.7138248037526
 30
0.0
 40
0.1788235294117015
100
AcDbArc
 50
90.0
 51
180.0
  0
ARC
  5
2DF
102
{ACAD_REACTORS
330
377
102
}
330
1F
100
AcDbEntity
  8
1
  6
Continuous
 62
     3
100
AcDbCircle
 10
72.2519004259743
 20
54.8926483331643
 30
0.0
 40
0.3576470588235026
100
AcDbArc
 50
0.0
 51
59.3493320429364
  0
ARC
  5
2E0
102
{ACAD_REACTORS
330
37A
102
}
330
1F
100
AcDbEntity
  8
1
  6
Continuous
 62
     3
100
AcDbCircle
 10
67.0517353878203
 20
56.2338248037526
 30
0.0
 40
0.3576470588235026
100
AcDbArc
 50
0.0
 51
90.0
  0
ARC
  5
2E1
102
{ACAD_REACTORS
330
37A
102
}
330
1F
100
AcDbEntity
  8
1
  6
Continuous
 62
     3
100
AcDbCircle
 10
66.5748726427222
 20
56.2338248037526
 30
0.0
 40
0.3576470588234031
100
AcDbArc
 50
90.0
 51
180.0
  0
ARC
  5
2E2
102
{ACAD_REACTORS
330
37A
102
}
330
1F
100
AcDbEntity
  8
1
  6
Continuous
 62
     3
100
AcDbCircle
 10
67.0517353878203
 20
53.9091189213994
 30
0.0
 40
0.357647058823396
100
AcDbArc
 50
270.0
 51
0.0
  0
ARC
  5
2E3
102
{ACAD_REACTORS
330
37A
102
}
330
1F
100
AcDbEntity
  8
1
  6
Continuous
 62
     3
100
AcDbCircle
 10
66.5748726427222
 20
53.9091189213994
 30
0.0
 40
0.3576470588235026
100
AcDbArc
 50
180.0
 51
270.0
  0
ARC
  5
2E4
102
{ACAD_REACTORS
330
37A
102
}
330
1F
100
AcDbEntity
  8
1
  6
Continuous
 62
     3
100
AcDbCircle
 10
66.753696172134
 20
54.0879424508113
 30
0.0
 40
0.178823529411801
100
AcDbArc
 50
180.0
 51
270.0
  0
ARC
  5
2E5
102
{ACAD_REACTORS
330
37A
102
}
330
1F
100
AcDbEntity
  8
1
  6
Continuous
 62
     3
100
AcDbCircle
 10
66.8729118584087
 20
54.0879424508113
 30
0.0
 40
0.1788235294119005
100
AcDbArc
 50
270.0
 51
0.0
  0
ARC
  5
2E6
102
{ACAD_REACTORS
330
37A
102
}
330
1F
100
AcDbEntity
  8
1
  6
Continuous
 62
     3
100
AcDbCircle
 10
66.753696172134
 20
56.0550012743408
 30
0.0
 40
0.1788235294117939
100
AcDbArc
 50
90.0
 51
180.0
  0
ARC
  5
2E7
102
{ACAD_REACTORS
330
37A
102
}
330
1F
100
AcDbEntity
  8
1
  6
Continuous
 62
     3
100
AcDbCircle
 10
66.8729118584087
 20
56.0550012743408
 30
0.0
 40
0.1788235294116021
100
AcDbArc
 50
0.0
 51
90.0
  0
ARC
  5
2E8
102
{ACAD_REACTORS
330
37A
102
}
330
1F
100
AcDbEntity
  8
1
  6
Continuous
 62
     3
100
AcDbCircle
 10
66.7325931448701
 20
55.6545070614326
 30
0.0
 40
0.157720502147896
100
AcDbArc
 50
180.0
 51
235.2612837876327
  0
ARC
  5
2E9
102
{ACAD_REACTORS
330
37A
102
}
330
1F
100
AcDbEntity
  8
1
  6
Continuous
 62
     3
100
AcDbCircle
 10
66.8940148856724
 20
54.7268680362685
 30
0.0
 40
0.157720502147896
100
AcDbArc
 50
0.0
 51
55.26128378761216
  0
ARC
  5
2EA
102
{ACAD_REACTORS
330
37A
102
}
330
1F
100
AcDbEntity
  8
1
  6
Continuous
 62
     3
100
AcDbCircle
 10
66.8967908146634
 20
54.7249431154808
 30
0.0
 40
0.5125916319803991
100
AcDbArc
 50
0.0
 51
55.26128378762672
  0
ARC
  5
2EB
102
{ACAD_REACTORS
330
37A
102
}
330
1F
100
AcDbEntity
  8
1
  6
Continuous
 62
     3
100
AcDbCircle
 10
66.7298172158789
 20
55.6564319822202
 30
0.0
 40
0.5125916319802002
100
AcDbArc
 50
180.0
 51
235.2612837876445
  0
ARC
  5
2EC
102
{ACAD_REACTORS
330
37C
102
}
330
1F
100
AcDbEntity
  8
1
  6
Continuous
 62
     3
100
AcDbCircle
 10
63.9576794026648
 20
56.2338248037526
 30
0.0
 40
0.3576470588234955
100
AcDbArc
 50
0.0
 51
90.0
  0
ARC
  5
2ED
102
{ACAD_REACTORS
330
37C
102
}
330
1F
100
AcDbEntity
  8
1
  6
Continuous
 62
     3
100
AcDbCircle
 10
63.4808166575667
 20
56.2338248037526
 30
0.0
 40
0.3576470588234031
100
AcDbArc
 50
90.0
 51
180.0
  0
ARC
  5
2EE
102
{ACAD_REACTORS
330
37C
102
}
330
1F
100
AcDbEntity
  8
1
  6
Continuous
 62
     3
100
AcDbCircle
 10
63.9576794026648
 20
53.9091189213994
 30
0.0
 40
0.357647058823396
100
AcDbArc
 50
270.0
 51
0.0
  0
ARC
  5
2EF
102
{ACAD_REACTORS
330
37C
102
}
330
1F
100
AcDbEntity
  8
1
  6
Continuous
 62
     3
100
AcDbCircle
 10
63.4808166575667
 20
53.9091189213994
 30
0.0
 40
0.357647058823602
100
AcDbArc
 50
180.0
 51
270.0
  0
ARC
  5
2F0
102
{ACAD_REACTORS
330
37C
102
}
330
1F
100
AcDbEntity
  8
1
  6
Continuous
 62
     3
100
AcDbCircle
 10
63.6596401869786
 20
54.0879424508113
 30
0.0
 40
0.1788235294119005
100
AcDbArc
 50
180.0
 51
270.0
  0
ARC
  5
2F1
102
{ACAD_REACTORS
330
37C
102
}
330
1F
100
AcDbEntity
  8
1
  6
Continuous
 62
     3
100
AcDbCircle
 10
63.7788558732532
 20
54.0879424508113
 30
0.0
 40
0.1788235294119005
100
AcDbArc
 50
270.0
 51
0.0
  0
ARC
  5
2F2
102
{ACAD_REACTORS
330
37C
102
}
330
1F
100
AcDbEntity
  8
1
  6
Continuous
 62
     3
100
AcDbCircle
 10
63.6596401869786
 20
56.0550012743408
 30
0.0
 40
0.1788235294117939
100
AcDbArc
 50
90.0
 51
180.0
  0
ARC
  5
2F3
102
{ACAD_REACTORS
330
37C
102
}
330
1F
100
AcDbEntity
  8
1
  6
Continuous
 62
     3
100
AcDbCircle
 10
63.7788558732532
 20
56.0550012743408
 30
0.0
 40
0.1788235294116021
100
AcDbArc
 50
0.0
 51
90.0
  0
ARC
  5
2F4
102
{ACAD_REACTORS
330
37C
102
}
330
1F
100
AcDbEntity
  8
1
  6
Continuous
 62
     3
100
AcDbCircle
 10
63.6385371597145
 20
55.6545070614326
 30
0.0
 40
0.1577205021478036
100
AcDbArc
 50
180.0
 51
235.2612837876582
  0
ARC
  5
2F5
102
{ACAD_REACTORS
330
37C
102
}
330
1F
100
AcDbEntity
  8
1
  6
Continuous
 62
     3
100
AcDbCircle
 10
63.7999589005169
 20
54.7268680362685
 30
0.0
 40
0.1577205021479031
100
AcDbArc
 50
0.0
 51
55.26128378760793
  0
ARC
  5
2F6
102
{ACAD_REACTORS
330
37C
102
}
330
1F
100
AcDbEntity
  8
1
  6
Continuous
 62
     3
100
AcDbCircle
 10
63.8027348295079
 20
54.7249431154808
 30
0.0
 40
0.5125916319803991
100
AcDbArc
 50
0.0
 51
55.26128378762672
  0
ARC
  5
2F7
102
{ACAD_REACTORS
330
37C
102
}
330
1F
100
AcDbEntity
  8
1
  6
Continuous
 62
     3
100
AcDbCircle
 10
63.6357612307235
 20
55.6564319822202
 30
0.0
 40
0.5125916319804062
100
AcDbArc
 50
180.0
 51
235.2612837876256
  0
ARC
  5
2F8
102
{ACAD_REACTORS
330
37B
102
}
330
1F
100
AcDbEntity
  8
1
  6
Continuous
 62
     3
100
AcDbCircle
 10
65.0278446501445
 20
53.9091189213994
 30
0.0
 40
0.357647058823602
100
AcDbArc
 50
180.0
 51
270.0
  0
ARC
  5
2F9
102
{ACAD_REACTORS
330
37B
102
}
330
1F
100
AcDbEntity
  8
1
  6
Continuous
 62
     3
100
AcDbCircle
 10
65.2066681795563
 20
54.0879424508113
 30
0.0
 40
0.178823529411801
100
AcDbArc
 50
180.0
 51
270.0
  0
ARC
  5
2FA
102
{ACAD_REACTORS
330
37B
102
}
330
1F
100
AcDbEntity
  8
1
  6
Continuous
 62
     3
100
AcDbCircle
 10
65.3258838658309
 20
54.0879424508113
 30
0.0
 40
0.1788235294119005
100
AcDbArc
 50
270.0
 51
0.0
  0
ARC
  5
2FB
102
{ACAD_REACTORS
330
37B
102
}
330
1F
100
AcDbEntity
  8
1
  6
Continuous
 62
     3
100
AcDbCircle
 10
65.5047073952425
 20
53.9091189213994
 30
0.0
 40
0.357647058823396
100
AcDbArc
 50
270.0
 51
0.0
  0
ARC
  5
2FC
102
{ACAD_REACTORS
330
381
102
}
330
1F
100
AcDbEntity
  8
1
  6
Continuous
 62
     3
100
AcDbCircle
 10
68.6718057207751
 20
60.3910243497352
 30
0.0
 40
0.3576470588234031
100
AcDbArc
 50
90.0
 51
180.0
  0
ARC
  5
2FD
102
{ACAD_REACTORS
330
381
102
}
330
1F
100
AcDbEntity
  8
1
  6
Continuous
 62
     3
100
AcDbCircle
 10
69.1486684658732
 20
60.3910243497352
 30
0.0
 40
0.3576470588235026
100
AcDbArc
 50
0.0
 51
90.0
  0
ARC
  5
2FE
102
{ACAD_REACTORS
330
381
102
}
330
1F
100
AcDbEntity
  8
1
  6
Continuous
 62
     3
100
AcDbCircle
 10
69.1486684658732
 20
58.066318467382
 30
0.0
 40
0.357647058823396
100
AcDbArc
 50
270.0
 51
0.0
  0
ARC
  5
2FF
102
{ACAD_REACTORS
330
381
102
}
330
1F
100
AcDbEntity
  8
1
  6
Continuous
 62
     3
100
AcDbCircle
 10
68.6718057207751
 20
58.066318467382
 30
0.0
 40
0.3576470588235026
100
AcDbArc
 50
180.0
 51
270.0
  0
ARC
  5
300
102
{ACAD_REACTORS
330
381
102
}
330
1F
100
AcDbEntity
  8
1
  6
Continuous
 62
     3
100
AcDbCircle
 10
68.8506292501869
 20
58.2451419967938
 30
0.0
 40
0.178823529411801
100
AcDbArc
 50
180.0
 51
270.0
  0
ARC
  5
301
102
{ACAD_REACTORS
330
381
102
}
330
1F
100
AcDbEntity
  8
1
  6
Continuous
 62
     3
100
AcDbCircle
 10
68.9698449364615
 20
58.2451419967938
 30
0.0
 40
0.178823529411801
100
AcDbArc
 50
270.0
 51
0.0
  0
ARC
  5
302
102
{ACAD_REACTORS
330
381
102
}
330
1F
100
AcDbEntity
  8
1
  6
Continuous
 62
     3
100
AcDbCircle
 10
68.9698449364615
 20
60.2122008203235
 30
0.0
 40
0.1788235294117015
100
AcDbArc
 50
0.0
 51
90.0
  0
ARC
  5
303
102
{ACAD_REACTORS
330
381
102
}
330
1F
100
AcDbEntity
  8
1
  6
Continuous
 62
     3
100
AcDbCircle
 10
68.8506292501869
 20
60.2122008203235
 30
0.0
 40
0.1788235294116944
100
AcDbArc
 50
90.0
 51
180.0
  0
ARC
  5
304
102
{ACAD_REACTORS
330
381
102
}
330
1F
100
AcDbEntity
  8
1
  6
Continuous
 62
     3
100
AcDbCircle
 10
68.9698449364615
 20
58.8710243497351
 30
0.0
 40
0.1788235294117015
100
AcDbArc
 50
0.0
 51
90.0
  0
ARC
  5
305
102
{ACAD_REACTORS
330
381
102
}
330
1F
100
AcDbEntity
  8
1
  6
Continuous
 62
     3
100
AcDbCircle
 10
68.8506292501869
 20
58.8710243497351
 30
0.0
 40
0.1788235294117015
100
AcDbArc
 50
90.0
 51
180.0
  0
ARC
  5
306
102
{ACAD_REACTORS
330
381
102
}
330
1F
100
AcDbEntity
  8
1
  6
Continuous
 62
     3
100
AcDbCircle
 10
69.1486684658732
 20
59.0498478791468
 30
0.0
 40
0.3576470588235026
100
AcDbArc
 50
0.0
 51
59.34933204294649
  0
ARC
  5
307
330
1F
100
AcDbEntity
  8
1
  6
Continuous
 62
     3
100
AcDbCircle
 10
22.1163585417704
 20
64.1514718625761
 30
0.0
 40
1.0
100
AcDbArc
 50
90.0
 51
180.0
  0
ARC
  5
308
330
1F
100
AcDbEntity
  8
1
  6
Continuous
 62
     3
100
AcDbCircle
 10
21.1163585417704
 20
63.1514718625761
 30
0.0
 40
1.0
100
AcDbArc
 50
0.0
 51
90.0
  0
ARC
  5
309
330
1F
100
AcDbEntity
  8
1
  6
Continuous
 62
     3
100
AcDbCircle
 10
22.1163585417704
 20
50.1514718625761
 30
0.0
 40
1.0
100
AcDbArc
 50
180.0
 51
270.0
  0
ARC
  5
30A
330
1F
100
AcDbEntity
  8
1
  6
Continuous
 62
     3
100
AcDbCircle
 10
21.1163585417704
 20
51.1514718625761
 30
0.0
 40
1.0
100
AcDbArc
 50
270.0
 51
0.0
  0
ARC
  5
30B
330
1F
100
AcDbEntity
  8
1
  6
Continuous
 62
     3
100
AcDbCircle
 10
10.6422253614312
 20
67.1517468140036
 30
0.0
 40
3.000000000000033
100
AcDbArc
 50
225.5846914028078
 51
270.0
  0
ARC
  5
30C
330
1F
100
AcDbEntity
  8
1
  6
Continuous
 62
     3
100
AcDbCircle
 10
-12.34264620682
 20
61.8533780368834
 30
0.0
 40
2.999999999999999
100
AcDbArc
 50
340.3769335251529
 51
45.00000000000005
  0
ARC
  5
30D
330
1F
100
AcDbEntity
  8
1
  6
Continuous
 62
     3
100
AcDbCircle
 10
-3.85736483258146
 20
70.3386594111221
 30
0.0
 40
2.999999999999974
100
AcDbArc
 50
224.999999999999
 51
289.6230664748481
  0
ARC
  5
30E
330
1F
100
AcDbEntity
  8
1
  6
Continuous
 62
     3
100
AcDbCircle
 10
10.6422253614312
 20
47.1517468140036
 30
0.0
 40
3.0
100
AcDbArc
 50
90.0
 51
134.4153085971921
  0
ARC
  5
30F
330
1F
100
AcDbEntity
  8
1
  6
Continuous
 62
     3
100
AcDbCircle
 10
-12.2885822331377
 20
12.9990978372293
 30
0.0
 40
1.5
100
AcDbArc
 50
90.0
 51
180.0
  0
ARC
  5
310
330
1F
100
AcDbEntity
  8
1
  6
Continuous
 62
     3
100
AcDbCircle
 10
-7.63172798364528
 20
12.0
 30
0.0
 40
0.5
100
AcDbArc
 50
90.0
 51
180.0
  0
ARC
  5
311
330
1F
100
AcDbEntity
  8
1
  6
Continuous
 62
     3
100
AcDbCircle
 10
-47.65
 20
22.3290035446817
 30
0.0
 40
1.5
100
AcDbArc
 50
0.0
 51
90.0
  0
ARC
  5
312
330
1F
100
AcDbEntity
  8
1
  6
Continuous
 62
     3
100
AcDbCircle
 10
-58.65
 20
22.3290035446817
 30
0.0
 40
1.5
100
AcDbArc
 50
90.0
 51
180.0
  0
ARC
  5
313
330
1F
100
AcDbEntity
  8
1
  6
Continuous
 62
     3
100
AcDbCircle
 10
-42.15
 20
34.5387870296284
 30
0.0
 40
2.999999999999997
100
AcDbArc
 50
149.2540646298983
 51
180.0
  0
ARC
  5
314
330
1F
100
AcDbEntity
  8
1
  6
Continuous
 62
     3
100
AcDbCircle
 10
-42.15
 20
30.4350655900695
 30
0.0
 40
3.000000000000009
100
AcDbArc
 50
137.6253950481183
 51
180.0
  0
ARC
  5
315
330
1F
100
AcDbEntity
  8
1
  6
Continuous
 62
     3
100
AcDbCircle
 10
-61.63
 20
12.0
 30
0.0
 40
0.5
100
AcDbArc
 50
90.0
 51
180.0
  0
ARC
  5
316
330
1F
100
AcDbEntity
  8
1
  6
Continuous
 62
     3
100
AcDbCircle
 10
-61.55
 20
12.5
 30
0.0
 40
2.0
100
AcDbArc
 50
90.0
 51
180.0
  0
ARC
  5
317
330
1F
100
AcDbEntity
  8
1
  6
Continuous
 62
     3
100
AcDbCircle
 10
-65.79
 20
12.5
 30
0.0
 40
2.0
100
AcDbArc
 50
90.0
 51
180.0
  0
ARC
  5
318
330
1F
100
AcDbEntity
  8
1
  6
Continuous
 62
     3
100
AcDbCircle
 10
-42.68
 20
14.0
 30
0.0
 40
0.5
100
AcDbArc
 50
0.0
 51
90.0
  0
ARC
  5
319
330
1F
100
AcDbEntity
  8
1
  6
Continuous
 62
     3
100
AcDbCircle
 10
-64.15
 20
34.5387870296284
 30
0.0
 40
3.000000000000007
100
AcDbArc
 50
0.0
 51
30.74593537010169
  0
ARC
  5
31A
330
1F
100
AcDbEntity
  8
1
  6
Continuous
 62
     3
100
AcDbCircle
 10
-64.15
 20
30.4350655900695
 30
0.0
 40
3.000000000000007
100
AcDbArc
 50
0.0
 51
42.37460495188169
  0
ARC
  5
31B
102
{ACAD_REACTORS
330
36D
102
}
330
1F
100
AcDbEntity
  8
1
  6
Continuous
 62
     3
100
AcDbCircle
 10
28.8247147061539
 20
57.1514718625761
 30
0.0
 40
9.291643835616458
100
AcDbArc
 50
329.1904195177754
 51
30.80958048222428
  0
ARC
  5
31C
102
{ACAD_REACTORS
330
36D
102
}
330
1F
100
AcDbEntity
  8
1
  6
Continuous
 62
     3
100
AcDbCircle
 10
28.6497147061539
 20
57.1514718625761
 30
0.0
 40
9.291643835616497
100
AcDbArc
 50
0.0
 51
19.23065317146074
  0
ARC
  5
31D
102
{ACAD_REACTORS
330
36D
102
}
330
1F
100
AcDbEntity
  8
1
  6
Continuous
 62
     3
100
AcDbCircle
 10
28.6497147061539
 20
57.1514718625761
 30
0.0
 40
9.291643835616387
100
AcDbArc
 50
340.7693468285426
 51
0.0
  0
ARC
  5
31E
102
{ACAD_REACTORS
330
379
102
}
330
1F
100
AcDbEntity
  8
1
  6
Continuous
 62
     3
100
AcDbCircle
 10
68.9734690534252
 20
55.5781385292427
 30
0.0
 40
0.5364705882351717
100
AcDbArc
 50
318.1896851042135
 51
0.0
  0
ARC
  5
31F
102
{ACAD_REACTORS
330
379
102
}
330
1F
100
AcDbEntity
  8
1
  6
Continuous
 62
     3
100
AcDbCircle
 10
68.9734690534252
 20
54.8628444115955
 30
0.0
 40
0.5364705882352894
100
AcDbArc
 50
0.0
 51
41.81031489580172
  0
ARC
  5
320
102
{ACAD_REACTORS
330
377
102
}
330
1F
100
AcDbEntity
  8
1
  6
Continuous
 62
     3
100
AcDbCircle
 10
72.0134690534253
 20
54.4902953919877
 30
0.0
 40
0.8253407712988373
100
AcDbArc
 50
59.34933204294821
 51
106.7914176871166
  0
ARC
  5
321
102
{ACAD_REACTORS
330
378
102
}
330
1F
100
AcDbEntity
  8
1
  6
Continuous
 62
     3
100
AcDbCircle
 10
69.72128990384
 20
56.8588492265541
 30
0.0
 40
0.788602510739962
100
AcDbArc
 50
299.1598293491892
 51
340.1808645332337
  0
ARC
  5
322
102
{ACAD_REACTORS
330
381
102
}
330
1F
100
AcDbEntity
  8
1
  6
Continuous
 62
     3
100
AcDbCircle
 10
68.9102370933241
 20
58.6474949379702
 30
0.0
 40
0.8253407712989663
100
AcDbArc
 50
59.34933204294664
 51
106.7914176871166
  0
ARC
  5
323
330
1F
100
AcDbEntity
  8
1
  6
Continuous
 62
     3
100
AcDbCircle
 10
0.84426639029846
 20
57.1517468140036
 30
0.0
 40
10.99999999999999
100
AcDbArc
 50
160.3769335251525
 51
208.2938142947089
  0
ARC
  5
324
330
1F
100
AcDbEntity
  8
1
  6
Continuous
 62
     3
100
AcDbCircle
 10
17.1321776969172
 20
48.9200522742713
 30
0.0
 40
5.690904170750144
100
AcDbArc
 50
337.7819746357119
 51
2.34896298211492
  0
ARC
  5
325
330
1F
100
AcDbEntity
  8
1
  6
Continuous
 62
     3
100
AcDbCircle
 10
0.84426639029846
 20
57.1517468140036
 30
0.0
 40
10.99999999999999
100
AcDbArc
 50
45.5846914028067
 51
109.6230664748477
  0
ARC
  5
326
330
1F
100
AcDbEntity
  8
1
  6
Continuous
 62
     3
100
AcDbCircle
 10
0.84426639029846
 20
57.1517468140036
 30
0.0
 40
11.00000000000001
100
AcDbArc
 50
208.2938142947089
 51
314.4153085971933
  0
ARC
  5
327
330
1F
100
AcDbEntity
  8
1
  6
Continuous
 62
     3
100
AcDbCircle
 10
0.0
 20
58.0
 30
0.0
 40
2.299999999999998
100
AcDbArc
 50
119.5918457939506
 51
240.4081542060494
  0
ARC
  5
328
330
1F
100
AcDbEntity
  8
1
  6
Continuous
 62
     3
100
AcDbCircle
 10
0.0
 20
58.0
 30
0.0
 40
2.299999999999998
100
AcDbArc
 50
299.5918457939506
 51
60.40815420604937
  0
ARC
  5
329
330
1F
100
AcDbEntity
  8
1
  6
Continuous
 62
     3
100
AcDbCircle
 10
0.0
 20
58.0
 30
0.0
 40
2.299999999999998
100
AcDbArc
 50
119.5918457939506
 51
240.4081542060494
  0
ARC
  5
32A
330
1F
100
AcDbEntity
  8
1
  6
Continuous
 62
     3
100
AcDbCircle
 10
0.0
 20
58.0
 30
0.0
 40
2.299999999999998
100
AcDbArc
 50
299.5918457939506
 51
60.40815420604937
  0
ARC
  5
32B
330
1F
100
AcDbEntity
  8
1
  6
Continuous
 62
     3
100
AcDbCircle
 10
-0.00426174712544
 20
58.0
 30
0.0
 40
3.0
100
AcDbArc
 50
90.0
 51
270.0
  0
ARC
  5
32C
330
1F
100
AcDbEntity
  8
1
  6
Continuous
 62
     3
100
AcDbCircle
 10
-0.00426174712544
 20
58.0
 30
0.0
 40
5.0
100
AcDbArc
 50
90.0
 51
270.0
  0
ARC
  5
32D
330
1F
100
AcDbEntity
  8
1
  6
Continuous
 62
     3
100
AcDbCircle
 10
-0.00426174712544
 20
58.0
 30
0.0
 40
5.0
100
AcDbArc
 50
270.0
 51
90.0
  0
ARC
  5
32E
330
1F
100
AcDbEntity
  8
1
  6
Continuous
 62
     3
100
AcDbCircle
 10
-0.00426174712544
 20
58.0
 30
0.0
 40
3.0
100
AcDbArc
 50
270.0
 51
90.0
  0
ARC
  5
32F
330
1F
100
AcDbEntity
  8
1
  6
Continuous
 62
     3
100
AcDbCircle
 10
-16.12767317997301
 20
67.09678283770613
 30
0.0
 40
5.541730446451294
100
AcDbArc
 50
154.1234733273531
 51
213.201942667067
  0
ARC
  5
330
330
1F
100
AcDbEntity
  8
1
  6
Continuous
 62
     3
100
AcDbCircle
 10
-15.97445481309841
 20
48.85241946648414
 30
0.0
 40
5.697902032664637
100
AcDbArc
 50
147.2143256489884
 51
201.4566934364793
  0
ARC
  5
331
330
1F
100
AcDbEntity
  8
1
  6
Continuous
 62
     3
100
AcDbCircle
 10
17.2853960637918
 20
67.0356527580593
 30
0.0
 40
5.537685803875601
100
AcDbArc
 50
339.7512082170344
 51
26.60203852439942
  0
ARC
  5
332
330
1F
100
AcDbEntity
  8
1
  6
Continuous
 62
     3
100
AcDbCircle
 10
0.0
 20
17.0
 30
0.0
 40
3.207802986469094
100
AcDbArc
 50
54.11961664483041
 51
69.26364045973888
  0
ARC
  5
333
330
1F
100
AcDbEntity
  8
1
  6
Continuous
 62
     3
100
AcDbCircle
 10
-11.8927111278117
 20
12.0183086084596
 30
0.0
 40
0.4820404987287389
100
AcDbArc
 50
87.8192721172069
 51
182.2840149114787
  0
ARC
  5
334
330
1F
100
AcDbEntity
  8
1
  6
Continuous
 62
     3
100
AcDbCircle
 10
-9.46087693282954
 20
14.2027093493391
 30
0.0
 40
0.2975203655378467
100
AcDbArc
 50
94.99938753947569
 51
165.9808499859237
  0
ARC
  5
335
330
1F
100
AcDbEntity
  8
1
  6
Continuous
 62
     3
100
AcDbCircle
 10
22.6770948737485
 20
21.5151658701481
 30
0.0
 40
1.162841299979073
100
AcDbArc
 50
241.1700118084132
 51
323.1200000000021
  0
ARC
  5
336
330
1F
100
AcDbEntity
  8
1
  6
Continuous
 62
     3
100
AcDbCircle
 10
15.9068157947806
 20
14.3824968248813
 30
0.0
 40
1.883398987651932
100
AcDbArc
 50
268.2265201767274
 51
323.1199999999959
  0
ARC
  5
337
330
1F
100
AcDbEntity
  8
1
  6
Continuous
 62
     3
100
AcDbCircle
 10
15.2572826189007
 20
15.681849540289
 30
0.0
 40
1.182751703059701
100
AcDbArc
 50
270.0
 51
323.1200000000096
  0
ARC
  5
338
330
1F
100
AcDbEntity
  8
1
  6
Continuous
 62
     3
100
AcDbCircle
 10
27.0326022500068
 20
23.8560490200914
 30
0.0
 40
4.916243708236307
100
AcDbArc
 50
143.1200000000009
 51
180.0
  0
ARC
  5
339
330
1F
100
AcDbEntity
  8
1
  6
Continuous
 62
     3
100
AcDbCircle
 10
0.0
 20
17.0
 30
0.0
 40
3.207802986469079
100
AcDbArc
 50
110.7363595402608
 51
125.8803833551692
  0
ARC
  5
33A
330
1F
100
AcDbEntity
  8
1
  6
Continuous
 62
     3
100
AcDbCircle
 10
-5.35377050356835
 20
5.25
 30
0.0
 40
16.34622949643167
100
AcDbArc
 50
161.266002166646
 51
198.733997833354
  0
ARC
  5
33B
330
1F
100
AcDbEntity
  8
1
  6
Continuous
 62
     3
100
AcDbCircle
 10
-5.35377050356835
 20
-5.25
 30
0.0
 40
16.34622949643167
100
AcDbArc
 50
161.266002166646
 51
198.733997833354
  0
ARC
  5
33C
330
1F
100
AcDbEntity
  8
1
  6
Continuous
 62
     3
100
AcDbCircle
 10
6.45377641397633
 20
5.25
 30
0.0
 40
16.34622949643159
100
AcDbArc
 50
341.2660021666459
 51
18.73399783335399
  0
ARC
  5
33D
330
1F
100
AcDbEntity
  8
1
  6
Continuous
 62
     3
100
AcDbCircle
 10
6.45377641397633
 20
-5.25
 30
0.0
 40
16.34622949643169
100
AcDbArc
 50
341.266002166646
 51
18.73399783335411
  0
ARC
  5
33E
330
1F
100
AcDbEntity
  8
1
  6
Continuous
 62
     3
100
AcDbCircle
 10
-0.00000000000001
 20
11.1995004650343
 30
0.0
 40
8.399597372195018
100
AcDbArc
 50
70.31773648072992
 51
109.68226351927
  0
ARC
  5
33F
330
1F
100
AcDbEntity
  8
1
  6
Continuous
 62
     3
100
AcDbCircle
 10
4.28950815951458
 20
17.1804725333402
 30
0.0
 40
2.41862530388912
100
AcDbArc
 50
52.85371878704395
 51
127.146281212956
  0
ARC
  5
340
330
1F
100
AcDbEntity
  8
1
  6
Continuous
 62
     3
100
AcDbCircle
 10
-4.28950815951459
 20
17.1804725333403
 30
0.0
 40
2.41862530388904
100
AcDbArc
 50
52.85371878704253
 51
127.1462812129573
  0
ARC
  5
341
330
1F
100
AcDbEntity
  8
1
  6
Continuous
 62
     3
100
AcDbCircle
 10
-4.28950815951459
 20
18.4177231411181
 30
0.0
 40
2.418625303888794
100
AcDbArc
 50
232.8537187870384
 51
307.1462812129618
  0
ARC
  5
342
330
1F
100
AcDbEntity
  8
1
  6
Continuous
 62
     3
100
AcDbCircle
 10
-0.00000000000001
 20
24.3986952094229
 30
0.0
 40
8.3995973721936
100
AcDbArc
 50
250.3177364807266
 51
289.6822635192736
  0
ARC
  5
343
330
1F
100
AcDbEntity
  8
1
  6
Continuous
 62
     3
100
AcDbCircle
 10
4.28950815951458
 20
18.417723141118
 30
0.0
 40
2.41862530388872
100
AcDbArc
 50
232.8537187870368
 51
307.1462812129632
  0
ARC
  5
344
330
1F
100
AcDbEntity
  8
1
  6
Continuous
 62
     3
100
AcDbCircle
 10
-4.59609178423904
 20
21.466827034488
 30
0.0
 40
8.00000000000002
100
AcDbArc
 50
299.428892853829
 51
316.884902409869
  0
ARC
  5
345
330
1F
100
AcDbEntity
  8
1
  6
Continuous
 62
     3
100
AcDbCircle
 10
-3.59609178423905
 20
21.466827034488
 30
0.0
 40
8.000000000000025
100
AcDbArc
 50
299.428892853829
 51
316.884902409869
  0
ARC
  5
346
330
1F
100
AcDbEntity
  8
1
  6
Continuous
 62
     3
100
AcDbCircle
 10
-47.6036298841405
 20
22.3290035446817
 30
0.0
 40
2.453629884140498
100
AcDbArc
 50
306.3303903155395
 51
0.0
  0
ARC
  5
347
330
1F
100
AcDbEntity
  8
1
  6
Continuous
 62
     3
100
AcDbCircle
 10
-58.9455221039346
 20
22.2029577925451
 30
0.0
 40
2.20807842385016
100
AcDbArc
 50
176.7275539296758
 51
236.9420557547854
  0
ARC
  5
348
330
1F
100
AcDbEntity
  8
1
  6
Continuous
 62
     3
100
AcDbCircle
 10
-67.2578571428571
 20
7.26999999999997
 30
0.0
 40
0.532142857142901
100
AcDbArc
 50
179.9999999999989
 51
249.9840403971127
  0
ARC
  5
349
330
1F
100
AcDbEntity
  8
1
  6
Continuous
 62
     3
100
AcDbCircle
 10
-62.6621428571428
 20
7.27
 30
0.0
 40
0.5321428571428376
100
AcDbArc
 50
290.0159596028769
 51
0.0
  0
ARC
  5
34A
330
1F
100
AcDbEntity
  8
1
  6
Continuous
 62
     3
100
AcDbCircle
 10
-63.0178571428571
 20
7.27
 30
0.0
 40
0.5321428571428939
100
AcDbArc
 50
180.0
 51
249.984040397113
  0
ARC
  5
34B
330
1F
100
AcDbEntity
  8
1
  6
Continuous
 62
     3
100
AcDbCircle
 10
-51.5
 20
12.9858901214675
 30
0.0
 40
6.613207715761781
100
AcDbArc
 50
67.78820536495131
 51
112.2117946350487
  0
ARC
  5
34C
330
1F
100
AcDbEntity
  8
1
  6
Continuous
 62
     3
100
AcDbCircle
 10
-56.5
 20
13.2406034755222
 30
0.0
 40
6.378122807524263
100
AcDbArc
 50
66.92318603329615
 51
113.0768139667039
  0
ARC
  5
34D
330
1F
100
AcDbEntity
  8
1
  6
Continuous
 62
     3
100
AcDbCircle
 10
-56.5
 20
22.624484458467
 30
0.0
 40
6.624484458466982
100
AcDbArc
 50
247.8280258629013
 51
292.1719741370987
  0
ARC
  5
34E
330
1F
100
AcDbEntity
  8
1
  6
Continuous
 62
     3
100
AcDbCircle
 10
-51.5
 20
22.624484458467
 30
0.0
 40
6.624484458466982
100
AcDbArc
 50
247.8280258629013
 51
292.1719741370987
  0
ARC
  5
34F
330
1F
100
AcDbEntity
  8
1
  6
Continuous
 62
     3
100
AcDbCircle
 10
-47.2010298889115
 20
35.4899559396179
 30
0.0
 40
4.151479873026637
100
AcDbArc
 50
313.0654226812514
 51
359.1563959106615
  0
ARC
  5
350
330
1F
100
AcDbEntity
  8
1
  6
Continuous
 62
     3
100
AcDbCircle
 10
-42.15
 20
30.4350655900695
 30
0.0
 40
3.000000000000009
100
AcDbArc
 50
137.6253950481183
 51
180.0
  0
ARC
  5
351
330
1F
100
AcDbEntity
  8
1
  6
Continuous
 62
     3
100
AcDbCircle
 10
-46.0776637021344
 20
37.3238137749833
 30
0.0
 40
1.840253915249973
100
AcDbArc
 50
317.1581518384269
 51
48.49064295628038
  0
ARC
  5
352
330
1F
100
AcDbEntity
  8
1
  6
Continuous
 62
     3
100
AcDbCircle
 10
-47.6108796966709
 20
35.0452930323683
 30
0.0
 40
4.576977891160408
100
AcDbArc
 50
4.80688998079526
 51
53.02607567544553
  0
ARC
  5
353
330
1F
100
AcDbEntity
  8
1
  6
Continuous
 62
     3
100
AcDbCircle
 10
-53.76178224975379
 20
7.00567135887002
 30
0.0
 40
33.0
100
AcDbArc
 50
86.02466735266937
 51
88.93774093740288
  0
ARC
  5
354
330
1F
100
AcDbEntity
  8
1
  6
Continuous
 62
     3
100
AcDbCircle
 10
-55.1386143790337
 20
-12.8065181914681
 30
0.0
 40
52.85997284718039
100
AcDbArc
 50
80.95892247425844
 51
86.02466735266941
  0
ARC
  5
355
330
1F
100
AcDbEntity
  8
1
  6
Continuous
 62
     3
100
AcDbCircle
 10
-48.51102883191861
 20
31.47532430974101
 30
0.0
 40
8.097370751744114
100
AcDbArc
 50
63.18369440503723
 51
78.03308160029049
  0
ARC
  5
356
330
1F
100
AcDbEntity
  8
1
  6
Continuous
 62
     3
100
AcDbCircle
 10
-57.78897116808147
 20
31.47532430974098
 30
0.0
 40
8.09737075174421
100
AcDbArc
 50
101.9669183997095
 51
116.8163055949622
  0
ARC
  5
357
330
1F
100
AcDbEntity
  8
1
  6
Continuous
 62
     3
100
AcDbCircle
 10
-51.1613856209663
 20
-12.80651819146811
 30
0.0
 40
52.85997284718045
100
AcDbArc
 50
93.9753326473307
 51
99.04107752574166
  0
ARC
  5
358
330
1F
100
AcDbEntity
  8
1
  6
Continuous
 62
     3
100
AcDbCircle
 10
-52.5382177502463
 20
7.00567135887002
 30
0.0
 40
33.00000000000006
100
AcDbArc
 50
91.06225906259698
 51
93.97533264733066
  0
ARC
  5
359
330
1F
100
AcDbEntity
  8
1
  6
Continuous
 62
     3
100
AcDbCircle
 10
-60.2223362978657
 20
37.3238137749833
 30
0.0
 40
1.840253915250019
100
AcDbArc
 50
131.5093570437171
 51
222.8418481615753
  0
ARC
  5
35A
330
1F
100
AcDbEntity
  8
1
  6
Continuous
 62
     3
100
AcDbCircle
 10
-58.6891203033291
 20
35.0452930323683
 30
0.0
 40
4.576977891160441
100
AcDbArc
 50
126.9739243245545
 51
175.1931100192047
  0
ARC
  5
35B
330
1F
100
AcDbEntity
  8
1
  6
Continuous
 62
     3
100
AcDbCircle
 10
-60.2223362978657
 20
37.3238137749833
 30
0.0
 40
1.840253915250019
100
AcDbArc
 50
131.5093570437171
 51
222.8418481615753
  0
ARC
  5
35C
330
1F
100
AcDbEntity
  8
1
  6
Continuous
 62
     3
100
AcDbCircle
 10
-59.0989701110886
 20
35.4899559396179
 30
0.0
 40
4.151479873026579
100
AcDbArc
 50
180.8436040893385
 51
226.9345773187494
  0
CIRCLE
  5
35D
102
{ACAD_REACTORS
330
376
102
}
330
1F
100
AcDbEntity
  8
1
  6
Continuous
 62
     3
100
AcDbCircle
 10
60.6169606196625
 20
58.5594618249174
 30
0.0
 40
0.499397922107903
  0
CIRCLE
  5
35E
330
1F
100
AcDbEntity
  8
1
  6
Continuous
 62
     3
100
AcDbCircle
 10
-54.0
 20
-0.00000000000001
 30
0.0
 40
8.600000000000001
  0
CIRCLE
  5
35F
330
1F
100
AcDbEntity
  8
1
  6
Continuous
 62
     3
100
AcDbCircle
 10
-54.0
 20
-0.00000000000001
 30
0.0
 40
8.331000000000003
  0
CIRCLE
  5
360
330
1F
100
AcDbEntity
  8
1
  6
Continuous
 62
     3
100
AcDbCircle
 10
-54.0
 20
-0.00000000000001
 30
0.0
 40
7.445369916398299
  0
CIRCLE
  5
361
330
1F
100
AcDbEntity
  8
1
  6
Continuous
 62
     3
100
AcDbCircle
 10
-54.0
 20
-0.00000000000001
 30
0.0
 40
7.172184520668303
  0
CIRCLE
  5
362
330
1F
100
AcDbEntity
  8
1
  6
Continuous
 62
     3
100
AcDbCircle
 10
-54.0
 20
-0.00000000000001
 30
0.0
 40
6.659357757972202
  0
CIRCLE
  5
363
330
1F
100
AcDbEntity
  8
1
  6
Continuous
 62
     3
100
AcDbCircle
 10
-54.0
 20
-0.00000000000001
 30
0.0
 40
5.750664795463599
  0
CIRCLE
  5
364
330
1F
100
AcDbEntity
  8
1
  6
Continuous
 62
     3
100
AcDbCircle
 10
-54.0
 20
-0.00000000000001
 30
0.0
 40
3.75
  0
CIRCLE
  5
365
330
1F
100
AcDbEntity
  8
1
  6
Continuous
 62
     3
100
AcDbCircle
 10
-54.0
 20
-0.00000000000001
 30
0.0
 40
10.5
  0
LWPOLYLINE
  5
366
330
1F
100
AcDbEntity
  8
1
  6
Continuous
 62
     3
 60
     1
100
AcDbPolyline
 90
        3
 70
     0
 43
0.0
 10
22.8
 20
-10.5
 10
22.8
 20
-8.60000000000002
 10
21.6384983398173
 20
-7.4384983398173
  0
LWPOLYLINE
  5
367
330
1F
100
AcDbEntity
  8
1
  6
Continuous
 62
     3
 60
     1
100
AcDbPolyline
 90
        4
 70
     0
 43
0.0
 10
-60.0621778264911
 20
-10.5
 10
-66.1243556529821
 20
0.0
 10
-60.0621778264911
 20
10.5
 10
-59.75
 20
10.5
  0
LWPOLYLINE
  5
368
330
1F
100
AcDbEntity
  8
1
  6
Continuous
 62
     3
 60
     1
100
AcDbPolyline
 90
        2
 70
     0
 43
0.0
 10
-55.0
 20
-7.2311824759164
 10
-55.0
 20
-10.5
  0
LWPOLYLINE
  5
369
330
1F
100
AcDbEntity
  8
1
  6
Continuous
 62
     3
 60
     1
100
AcDbPolyline
 90
        3
 70
     0
 43
0.0
 10
-41.8756443470178
 20
0.0
 10
-47.9378221735089
 20
-10.5
 10
-53.0
 20
-10.5
  0
LWPOLYLINE
  5
36A
330
1F
100
AcDbEntity
  8
1
  6
Continuous
 62
     3
100
AcDbPolyline
 90
        3
 70
     0
 43
0.0
 10
0.0
 20
51.9042617471253
 42
1.0
 10
0.0
 20
64.0957382528747
 42
1.0
 10
0.0
 20
51.9042617471253
  0
HATCH
  5
36B
330
1F
100
AcDbEntity
  8
1
  6
Continuous
 62
     4
100
AcDbHatch
 10
0.0
 20
0.0
 30
0.0
210
0.0
220
0.0
230
1.0
  2
_USER
 70
     0
 71
     1
 91
        1
 92
        1
 93
       29
 72
     1
 10
34.911062929818
 20
53.9114718625763
 11
34.909911941166
 21
53.9114718625763
 72
     2
 10
34.909911941166
 20
53.7314718625762
 40
0.1800000000000992
 50
90.0
 51
147.2196945237525
 73
     1
 72
     1
 10
34.7585764448127
 20
53.828927326987
 11
34.234598733206
 21
53.0152589755673
 72
     2
 10
34.1084858195782
 20
53.0964718625762
 40
0.1499999999997996
 50
32.7803054762068
 51
90.0
 73
     0
 72
     1
 10
34.1084858195782
 20
52.9464718625764
 11
33.6513585417704
 21
52.9464718625764
 72
     2
 10
33.6513585417704
 20
53.2464718625761
 40
0.2999999999998977
 50
90.0
 51
180.0
 73
     0
 72
     1
 10
33.3513585417705
 20
53.2464718625761
 11
33.3513585417705
 21
53.3764718625759
 72
     2
 10
33.6513585417704
 20
53.3764718625762
 40
0.3000000000001961
 50
179.9999999999417
 51
270.0
 73
     0
 72
     1
 10
33.6513585417704
 20
53.6764718625764
 11
34.1464277620826
 21
53.6764718625764
 72
     1
 10
34.1464277620826
 20
53.6764718625764
 11
34.1464277620826
 21
53.9114718625763
 72
     1
 10
34.1464277620826
 20
53.9114718625763
 11
33.4363585417702
 21
53.911471862576
 72
     2
 10
33.4363585417703
 20
53.5914718625761
 40
0.3199999999999008
 50
90.00000000001909
 51
180.0
 73
     1
 72
     1
 10
33.1163585417703
 20
53.5914718625761
 11
33.1163585417703
 21
53.0314718625761
 72
     2
 10
33.4363585417702
 20
53.0314718625761
 40
0.3199999999998937
 50
180.0
 51
270.0
 73
     1
 72
     1
 10
33.4363585417702
 20
52.7114718625762
 11
34.2203292378279
 21
52.7114718625762
 72
     2
 10
34.2203292378279
 20
52.891471862576
 40
0.1799999999998008
 50
270.0
 51
327.2647737279685
 73
     1
 72
     1
 10
34.3717413633956
 20
52.7941354961399
 11
34.8946735095531
 21
53.6075855012734
 72
     2
 10
35.0208502808597
 20
53.5264718625761
 40
0.150000000000297
 50
212.7352262721713
 51
270.0
 73
     0
 72
     1
 10
35.0208502808597
 20
53.6764718625764
 11
35.7013585417703
 21
53.6764718625764
 72
     2
 10
35.7013585417703
 20
53.3764718625762
 40
0.3000000000000043
 50
270.0
 51
360.0000000000584
 73
     0
 72
     1
 10
36.0013585417703
 20
53.3764718625759
 11
36.0013585417703
 21
53.2464718625761
 72
     2
 10
35.7013585417703
 20
53.2464718625761
 40
0.2999999999996987
 50
0.0
 51
90.0
 73
     0
 72
     1
 10
35.7013585417703
 20
52.9464718625764
 11
35.1577246182096
 21
52.9464718625764
 72
     1
 10
35.1577246182096
 20
52.9464718625764
 11
35.1577246182096
 21
52.7114718625762
 72
     1
 10
35.1577246182096
 20
52.7114718625762
 11
35.9163585417704
 21
52.7114718625762
 72
     2
 10
35.9163585417704
 20
53.0314718625761
 40
0.3199999999999008
 50
270.0
 51
360.0
 73
     1
 72
     1
 10
36.2363585417703
 20
53.0314718625761
 11
36.2363585417703
 21
53.5914718625761
 72
     2
 10
35.9163585417704
 20
53.5914718625761
 40
0.3199999999999008
 50
0.0
 51
90.0
 73
     1
 72
     1
 10
35.9163585417704
 20
53.911471862576
 11
34.911062929818
 21
53.9114718625763
 97
       29
330
288
330
8C
330
289
330
9F
330
9E
330
94
330
295
330
95
330
294
330
98
330
298
330
97
330
29B
330
9A
330
28A
330
8B
330
28B
330
8A
330
9D
330
93
330
296
330
96
330
297
330
99
330
299
330
9C
330
29A
330
9B
330
8D
 75
     1
 76
     0
 52
45.0
 41
0.01
 77
     0
 78
     1
 53
45.0
 43
0.0
 44
0.0
 45
-0.0070710678118655
 46
0.0070710678118655
 79
     0
 98
        1
 10
0.0
 20
0.0
  0
HATCH
  5
36C
330
1F
100
AcDbEntity
  8
1
  6
Continuous
 62
     4
100
AcDbHatch
 10
0.0
 20
0.0
 30
0.0
210
0.0
220
0.0
230
1.0
  2
_USER
 70
     0
 71
     1
 91
        2
 92
        1
 93
        8
 72
     2
 10
33.4363585417702
 20
61.2714718625762
 40
0.3199999999999008
 50
90.0
 51
180.0
 73
     1
 72
     1
 10
33.1163585417703
 20
61.2714718625762
 11
33.1163585417703
 21
60.7114718625762
 72
     2
 10
33.4363585417702
 20
60.7114718625762
 40
0.3199999999998937
 50
180.0
 51
270.0
 73
     1
 72
     1
 10
33.4363585417702
 20
60.3914718625763
 11
35.9163585417704
 21
60.3914718625763
 72
     2
 10
35.9163585417704
 20
60.7114718625762
 40
0.3199999999998937
 50
270.0
 51
360.0
 73
     1
 72
     1
 10
36.2363585417703
 20
60.7114718625762
 11
36.2363585417703
 21
61.2714718625762
 72
     2
 10
35.9163585417704
 20
61.2714718625762
 40
0.3199999999999008
 50
0.0
 51
90.0
 73
     1
 72
     1
 10
35.9163585417704
 20
61.5914718625761
 11
33.4363585417702
 21
61.5914718625761
 97
        8
330
287
330
89
330
286
330
88
330
285
330
87
330
284
330
86
 92
       16
 93
        8
 72
     1
 10
33.6513585417704
 20
60.6264718625762
 11
35.7013585417703
 21
60.6264718625762
 72
     2
 10
35.7013585417703
 20
60.9264718625761
 40
0.2999999999998977
 50
270.0
 51
360.0
 73
     1
 72
     1
 10
36.0013585417703
 20
60.9264718625761
 11
36.0013585417703
 21
61.0564718625763
 72
     2
 10
35.7013585417703
 20
61.0564718625763
 40
0.3000000000000043
 50
0.0
 51
90.0
 73
     1
 72
     1
 10
35.7013585417703
 20
61.356471862576
 11
33.6513585417704
 21
61.356471862576
 72
     2
 10
33.6513585417704
 20
61.0564718625763
 40
0.2999999999996987
 50
90.0
 51
180.0
 73
     1
 72
     1
 10
33.3513585417705
 20
61.0564718625763
 11
33.3513585417705
 21
60.9264718625761
 72
     2
 10
33.6513585417704
 20
60.9264718625761
 40
0.2999999999998977
 50
180.0
 51
270.0
 73
     1
 97
        8
330
92
330
292
330
8F
330
290
330
91
330
291
330
90
330
293
 75
     1
 76
     0
 52
45.0
 41
0.01
 77
     0
 78
     1
 53
45.0
 43
0.0
 44
0.0
 45
-0.0070710678118655
 46
0.0070710678118655
 79
     0
 98
        1
 10
0.0
 20
0.0
  0
HATCH
  5
36D
330
1F
100
AcDbEntity
  8
1
  6
Continuous
 62
     4
100
AcDbHatch
 10
0.0
 20
0.0
 30
0.0
210
0.0
220
0.0
230
1.0
  2
_USER
 70
     0
 71
     1
 91
        1
 92
        1
 93
       11
 72
     2
 10
36.7363585417703
 20
61.8695513418349
 40
0.0800000000001271
 50
30.80958048220256
 51
180.0
 73
     1
 72
     1
 10
36.6563585417704
 20
61.8695513418349
 11
36.8577921234711
 21
60.1696703344096
 72
     1
 10
36.8577921234711
 20
60.1696703344096
 11
37.3053054455343
 21
60.2762211253773
 72
     2
 10
37.3284674982648
 20
60.1789405039087
 40
0.0999999999999636
 50
256.607502246316
 51
340.7693468285032
 73
     0
 72
     2
 10
28.6497147061539
 20
57.1514718625761
 40
9.291643835616497
 50
340.7693468285393
 51
360.0
 73
     0
 72
     2
 10
28.6497147061539
 20
57.1514718625761
 40
9.291643835616387
 50
0.0
 51
19.23065317145743
 73
     0
 72
     2
 10
37.3284674982648
 20
54.1240032212438
 40
0.100000000000036
 50
19.23065317134776
 51
103.392497753684
 73
     0
 72
     1
 10
37.3053054455343
 20
54.0267225997752
 11
36.8698026793893
 21
54.1304137345714
 72
     1
 10
36.8698026793893
 20
54.1304137345714
 11
36.6563585417704
 21
52.4333923833176
 72
     2
 10
36.7363585417703
 20
52.4333923833176
 40
0.0799999999998988
 50
180.0
 51
329.1904195175774
 73
     1
 72
     2
 10
28.8247147061539
 20
57.1514718625761
 40
9.291643835616458
 50
329.1904195177754
 51
390.8095804822243
 73
     1
 97
       11
330
28E
330
A1
330
8E
330
28F
330
31D
330
31C
330
28D
330
85
330
A0
330
28C
330
31B
 75
     1
 76
     0
 52
45.0
 41
0.01
 77
     0
 78
     1
 53
45.0
 43
0.0
 44
0.0
 45
-0.0070710678118655
 46
0.0070710678118655
 79
     0
 98
        1
 10
0.0
 20
0.0
  0
HATCH
  5
36E
330
1F
100
AcDbEntity
  8
1
  6
Continuous
 62
     4
100
AcDbHatch
 10
0.0
 20
0.0
 30
0.0
210
0.0
220
0.0
230
1.0
  2
_USER
 70
     0
 71
     1
 91
        1
 92
        1
 93
        4
 72
     1
 10
41.7663585417704
 20
58.951471862576
 11
41.7663585417704
 21
55.3514718625761
 72
     1
 10
41.7663585417704
 20
55.3514718625761
 11
40.6163585417704
 21
55.3514718625761
 72
     1
 10
40.6163585417704
 20
55.3514718625761
 11
40.6163585417704
 21
58.951471862576
 72
     1
 10
40.6163585417704
 20
58.951471862576
 11
41.7663585417704
 21
58.951471862576
 97
        4
330
C8
330
BC
330
BA
330
BB
 75
     1
 76
     0
 52
45.0
 41
0.01
 77
     0
 78
     1
 53
45.0
 43
0.0
 44
0.0
 45
-0.0070710678118655
 46
0.0070710678118655
 79
     0
 98
        1
 10
0.0
 20
0.0
  0
HATCH
  5
36F
330
1F
100
AcDbEntity
  8
1
  6
Continuous
 62
     4
100
AcDbHatch
 10
0.0
 20
0.0
 30
0.0
210
0.0
220
0.0
230
1.0
  2
_USER
 70
     0
 71
     1
 91
        1
 92
        1
 93
        4
 72
     1
 10
42.5613585417705
 20
58.951471862576
 11
42.5613585417705
 21
55.3514718625761
 72
     1
 10
42.5613585417705
 20
55.3514718625761
 11
43.7113585417704
 21
55.3514718625761
 72
     1
 10
43.7113585417704
 20
55.3514718625761
 11
43.7113585417704
 21
58.951471862576
 72
     1
 10
43.7113585417704
 20
58.951471862576
 11
42.5613585417705
 21
58.951471862576
 97
        4
330
C9
330
CB
330
CA
330
CC
 75
     1
 76
     0
 52
45.0
 41
0.01
 77
     0
 78
     1
 53
45.0
 43
0.0
 44
0.0
 45
-0.0070710678118655
 46
0.0070710678118655
 79
     0
 98
        1
 10
0.0
 20
0.0
  0
HATCH
  5
370
330
1F
100
AcDbEntity
  8
1
  6
Continuous
 62
     4
100
AcDbHatch
 10
0.0
 20
0.0
 30
0.0
210
0.0
220
0.0
230
1.0
  2
_USER
 70
     0
 71
     1
 91
        1
 92
        1
 93
        4
 72
     1
 10
45.6563585417704
 20
58.951471862576
 11
45.6563585417704
 21
55.3514718625761
 72
     1
 10
45.6563585417704
 20
55.3514718625761
 11
44.5063585417703
 21
55.3514718625761
 72
     1
 10
44.5063585417703
 20
55.3514718625761
 11
44.5063585417703
 21
58.951471862576
 72
     1
 10
44.5063585417703
 20
58.951471862576
 11
45.6563585417704
 21
58.951471862576
 97
        4
330
B9
330
C3
330
C7
330
C2
 75
     1
 76
     0
 52
45.0
 41
0.01
 77
     0
 78
     1
 53
45.0
 43
0.0
 44
0.0
 45
-0.0070710678118655
 46
0.0070710678118655
 79
     0
 98
        1
 10
0.0
 20
0.0
  0
HATCH
  5
371
330
1F
100
AcDbEntity
  8
1
  6
Continuous
 62
     4
100
AcDbHatch
 10
0.0
 20
0.0
 30
0.0
210
0.0
220
0.0
230
1.0
  2
_USER
 70
     0
 71
     1
 91
        1
 92
        1
 93
       12
 72
     1
 10
47.5982923392346
 20
58.002512294576
 11
47.5982923392346
 21
57.3042319705762
 72
     1
 10
47.5982923392346
 20
57.3042319705762
 11
48.7594368144345
 21
57.3042319705762
 72
     1
 10
48.7594368144345
 20
57.3042319705762
 11
48.7594368144345
 21
58.002512294576
 72
     1
 10
48.7594368144345
 20
58.002512294576
 11
49.4979772464344
 21
58.002512294576
 72
     1
 10
49.4979772464344
 20
58.002512294576
 11
49.4979772464344
 21
56.3004314305763
 72
     1
 10
49.4979772464344
 20
56.3004314305763
 11
48.7594368144345
 21
56.3004314305763
 72
     1
 10
48.7594368144345
 20
56.3004314305763
 11
48.7594368144345
 21
56.9987117545761
 72
     1
 10
48.7594368144345
 20
56.9987117545761
 11
47.5982923392346
 21
56.9987117545761
 72
     1
 10
47.5982923392346
 20
56.9987117545761
 11
47.5982923392346
 21
56.3004314305763
 72
     1
 10
47.5982923392346
 20
56.3004314305763
 11
46.8597519072346
 21
56.3004314305763
 72
     1
 10
46.8597519072346
 20
56.3004314305763
 11
46.8597519072346
 21
58.002512294576
 72
     1
 10
46.8597519072346
 20
58.002512294576
 11
47.5982923392346
 21
58.002512294576
 97
       12
330
D5
330
D4
330
D3
330
CD
330
BE
330
D0
330
D1
330
D2
330
D6
330
CF
330
BD
330
CE
 75
     1
 76
     0
 52
45.0
 41
0.01
 77
     0
 78
     1
 53
45.0
 43
0.0
 44
0.0
 45
-0.0070710678118655
 46
0.0070710678118655
 79
     0
 98
        1
 10
0.0
 20
0.0
  0
HATCH
  5
372
330
1F
100
AcDbEntity
  8
1
  6
Continuous
 62
     4
100
AcDbHatch
 10
0.0
 20
0.0
 30
0.0
210
0.0
220
0.0
230
1.0
  2
_USER
 70
     0
 71
     1
 91
        2
 92
        1
 93
        8
 72
     1
 10
51.9017948624755
 20
58.002512294576
 11
50.9271939592344
 21
58.002512294576
 72
     1
 10
50.9271939592344
 20
58.002512294576
 11
49.8208413976345
 21
56.3004314305763
 72
     1
 10
49.8208413976345
 20
56.3004314305763
 11
50.3008616216118
 21
56.3004314305763
 72
     1
 10
50.3008616216118
 20
56.3004314305763
 11
50.5308315912993
 21
56.640847603376
 72
     1
 10
50.5308315912993
 20
56.640847603376
 11
51.990412450011
 21
56.640847603376
 72
     1
 10
51.990412450011
 20
56.640847603376
 11
52.1949492190095
 21
56.3004314305763
 72
     1
 10
52.1949492190095
 20
56.3004314305763
 11
52.9230433808757
 21
56.3004314305763
 72
     1
 10
52.9230433808757
 20
56.3004314305763
 11
51.9017948624755
 21
58.002512294576
 97
        8
330
B5
330
B4
330
B1
330
D8
330
C1
330
BF
330
C0
330
AF
 92
       16
 93
        3
 72
     1
 10
50.7320553147758
 20
56.9387117545759
 11
51.8114427771372
 21
56.9387117545759
 72
     1
 10
51.8114427771372
 20
56.9387117545759
 11
51.3033392095916
 21
57.7843625033222
 72
     1
 10
51.3033392095916
 20
57.7843625033222
 11
50.7320553147758
 21
56.9387117545759
 97
        3
330
B3
330
B2
330
D7
 75
     1
 76
     0
 52
45.0
 41
0.01
 77
     0
 78
     1
 53
45.0
 43
0.0
 44
0.0
 45
-0.0070710678118655
 46
0.0070710678118655
 79
     0
 98
        1
 10
0.0
 20
0.0
  0
HATCH
  5
373
330
1F
100
AcDbEntity
  8
1
  6
Continuous
 62
     4
100
AcDbHatch
 10
0.0
 20
0.0
 30
0.0
210
0.0
220
0.0
230
1.0
  2
_USER
 70
     0
 71
     1
 91
        1
 92
        1
 93
       13
 72
     1
 10
55.3403199828677
 20
58.002512294576
 11
54.8648205665328
 21
56.9387117545759
 72
     1
 10
54.8648205665328
 20
56.9387117545759
 11
54.3516578300939
 21
58.002512294576
 72
     1
 10
54.3516578300939
 20
58.002512294576
 11
53.3050031256346
 21
58.002512294576
 72
     1
 10
53.3050031256346
 20
58.002512294576
 11
53.3050031256346
 21
56.3004314305763
 72
     1
 10
53.3050031256346
 20
56.3004314305763
 11
53.7707314280345
 21
56.3004314305763
 72
     1
 10
53.7707314280345
 20
56.3004314305763
 11
53.7707314280345
 21
57.5344400569763
 72
     1
 10
53.7707314280345
 20
57.5344400569763
 11
54.4421560376422
 21
56.3004314305763
 72
     1
 10
54.4421560376422
 20
56.3004314305763
 11
55.0735140956508
 21
56.3004314305763
 72
     1
 10
55.0735140956508
 20
56.3004314305763
 11
55.7004683568343
 21
57.5344400569763
 72
     1
 10
55.7004683568343
 20
57.5344400569763
 11
55.7004683568343
 21
56.3004314305763
 72
     1
 10
55.7004683568343
 20
56.3004314305763
 11
56.4215087888344
 21
56.3004314305763
 72
     1
 10
56.4215087888344
 20
56.3004314305763
 11
56.4215087888344
 21
58.002512294576
 72
     1
 10
56.4215087888344
 20
58.002512294576
 11
55.3403199828677
 21
58.002512294576
 97
       13
330
B0
330
C5
330
C4
330
D9
330
DA
330
DB
330
C6
330
B6
330
B8
330
B7
330
DC
330
DD
330
DE
 75
     1
 76
     0
 52
45.0
 41
0.01
 77
     0
 78
     1
 53
45.0
 43
0.0
 44
0.0
 45
-0.0070710678118655
 46
0.0070710678118655
 79
     0
 98
        1
 10
0.0
 20
0.0
  0
HATCH
  5
374
330
1F
100
AcDbEntity
  8
1
  6
Continuous
 62
     4
100
AcDbHatch
 10
0.0
 20
0.0
 30
0.0
210
0.0
220
0.0
230
1.0
  2
_USER
 70
     0
 71
     1
 91
        2
 92
        1
 93
        8
 72
     1
 10
58.8803264048756
 20
58.002512294576
 11
57.9057255016345
 21
58.002512294576
 72
     1
 10
57.9057255016345
 20
58.002512294576
 11
56.7993729400345
 21
56.3004314305763
 72
     1
 10
56.7993729400345
 20
56.3004314305763
 11
57.2793931640119
 21
56.3004314305763
 72
     1
 10
57.2793931640119
 20
56.3004314305763
 11
57.5093631336993
 21
56.640847603376
 72
     1
 10
57.5093631336993
 20
56.640847603376
 11
58.968943992411
 21
56.640847603376
 72
     1
 10
58.968943992411
 20
56.640847603376
 11
59.1734807614096
 21
56.3004314305763
 72
     1
 10
59.1734807614096
 20
56.3004314305763
 11
59.9015749232757
 21
56.3004314305763
 72
     1
 10
59.9015749232757
 20
56.3004314305763
 11
58.8803264048756
 21
58.002512294576
 97
        8
330
A9
330
A8
330
A5
330
AE
330
AC
330
AA
330
AB
330
A4
 92
       16
 93
        3
 72
     1
 10
57.7105868571759
 20
56.9387117545759
 11
58.7899743195372
 21
56.9387117545759
 72
     1
 10
58.7899743195372
 20
56.9387117545759
 11
58.2818707519919
 21
57.7843625033222
 72
     1
 10
58.2818707519919
 20
57.7843625033222
 11
57.7105868571759
 21
56.9387117545759
 97
        3
330
A7
330
A6
330
AD
 75
     1
 76
     0
 52
45.0
 41
0.01
 77
     0
 78
     1
 53
45.0
 43
0.0
 44
0.0
 45
-0.0070710678118655
 46
0.0070710678118655
 79
     0
 98
        1
 10
0.0
 20
0.0
  0
HATCH
  5
375
330
1F
100
AcDbEntity
  8
1
  6
Continuous
 62
     4
100
AcDbHatch
 10
0.0
 20
0.0
 30
0.0
210
0.0
220
0.0
230
1.0
  2
_USER
 70
     0
 71
     1
 91
        1
 92
        1
 93
        4
 72
     1
 10
60.929674386728
 20
57.6246481433761
 11
60.929674386728
 21
56.3004314305763
 72
     1
 10
60.929674386728
 20
56.3004314305763
 11
60.3036339547278
 21
56.3004314305763
 72
     1
 10
60.3036339547278
 20
56.3004314305763
 11
60.3036339547278
 21
57.6246481433761
 72
     1
 10
60.3036339547278
 20
57.6246481433761
 11
60.929674386728
 21
57.6246481433761
 97
        4
330
84
330
DF
330
A2
330
A3
 75
     1
 76
     0
 52
45.0
 41
0.01
 77
     0
 78
     1
 53
45.0
 43
0.0
 44
0.0
 45
-0.0070710678118655
 46
0.0070710678118655
 79
     0
 98
        1
 10
0.0
 20
0.0
  0
HATCH
  5
376
330
1F
100
AcDbEntity
  8
1
  6
Continuous
 62
     4
100
AcDbHatch
 10
0.0
 20
0.0
 30
0.0
210
0.0
220
0.0
230
1.0
  2
_USER
 70
     0
 71
     1
 91
        1
 92
        1
 93
        1
 72
     2
 10
60.6169606196625
 20
58.5594618249174
 40
0.499397922107903
 50
0.0
 51
360.0
 73
     1
 97
        1
330
35D
 75
     1
 76
     0
 52
45.0
 41
0.01
 77
     0
 78
     1
 53
45.0
 43
0.0
 44
0.0
 45
-0.0070710678118655
 46
0.0070710678118655
 79
     0
 98
        1
 10
0.0
 20
0.0
  0
HATCH
  5
377
330
1F
100
AcDbEntity
  8
1
  6
Continuous
 62
     4
100
AcDbHatch
 10
0.0
 20
0.0
 30
0.0
210
0.0
220
0.0
230
1.0
  2
_USER
 70
     0
 71
     1
 91
        2
 92
        1
 93
       18
 72
     2
 10
71.7750376808763
 20
56.2338248037526
 40
0.3576470588234031
 50
90.0
 51
180.0
 73
     1
 72
     1
 10
71.4173906220527
 20
56.2338248037526
 11
71.4173906220527
 21
53.9091189213994
 72
     2
 10
71.7750376808763
 20
53.9091189213994
 40
0.357647058823602
 50
180.0
 51
270.0
 73
     1
 72
     1
 10
71.7750376808763
 20
53.551471862576
 11
72.2519004259743
 21
53.551471862576
 72
     2
 10
72.2519004259743
 20
53.9091189213994
 40
0.357647058823396
 50
270.0
 51
360.0
 73
     1
 72
     1
 10
72.6095474847978
 20
53.9091189213994
 11
72.6095474847978
 21
54.311471862576
 72
     1
 10
72.6095474847978
 20
54.311471862576
 11
72.6095474847978
 21
54.8926483331643
 72
     2
 10
72.2519004259743
 20
54.8926483331643
 40
0.3576470588235026
 50
0.0
 51
59.3493320429364
 73
     1
 72
     2
 10
72.0134690534253
 20
54.4902953919877
 40
0.8253407712988373
 50
59.34933204294821
 51
106.7914176871166
 73
     1
 72
     1
 10
71.7750376808763
 20
55.2804459278685
 11
71.7750376808763
 21
56.0550012743408
 72
     2
 10
71.9538612102881
 20
56.0550012743408
 40
0.1788235294117939
 50
180.0
 51
270.0
 73
     0
 72
     1
 10
71.9538612102881
 20
56.2338248037526
 11
72.0730768965626
 21
56.2338248037526
 72
     2
 10
72.0730768965626
 20
56.0550012743408
 40
0.1788235294117015
 50
270.0
 51
360.0
 73
     0
 72
     1
 10
72.2519004259743
 20
56.0550012743408
 11
72.2519004259743
 21
55.8600743733151
 72
     1
 10
72.2519004259743
 20
55.8600743733151
 11
72.6095474847978
 21
55.8600743733151
 72
     1
 10
72.6095474847978
 20
55.8600743733151
 11
72.6095474847978
 21
56.2338248037526
 72
     2
 10
72.2519004259743
 20
56.2338248037526
 40
0.3576470588235026
 50
0.0
 51
90.0
 73
     1
 72
     1
 10
72.2519004259743
 20
56.591471862576
 11
71.7750376808763
 21
56.591471862576
 97
       18
330
2D6
330
129
330
130
330
12D
330
2DB
330
12C
330
2DC
330
136
330
320
330
2DF
330
133
330
131
330
2D7
330
12A
330
2D8
330
12B
330
2D5
330
128
 92
       16
 93
        9
 72
     1
 10
71.953861210288
 20
54.8926483331643
 11
72.0730768965626
 21
54.8926483331643
 72
     2
 10
72.0730768965626
 20
54.7138248037526
 40
0.1788235294117015
 50
270.0
 51
360.0
 73
     0
 72
     1
 10
72.2519004259743
 20
54.7138248037526
 11
72.2519004259743
 21
54.311471862576
 72
     1
 10
72.2519004259743
 20
54.311471862576
 11
72.2519004259743
 21
54.0879424508113
 72
     2
 10
72.0730768965626
 20
54.0879424508113
 40
0.1788235294119005
 50
0.0
 51
90.0
 73
     0
 72
     1
 10
72.0730768965626
 20
53.9091189213994
 11
71.9538612102881
 21
53.9091189213994
 72
     2
 10
71.9538612102881
 20
54.0879424508113
 40
0.178823529411801
 50
90.0
 51
180.0
 73
     0
 72
     1
 10
71.7750376808763
 20
54.0879424508113
 11
71.7750376808763
 21
54.7138248037526
 72
     2
 10
71.953861210288
 20
54.7138248037526
 40
0.1788235294117015
 50
180.0
 51
270.0
 73
     0
 97
        9
330
135
330
2DD
330
134
330
132
330
2DA
330
12E
330
2D9
330
12F
330
2DE
 75
     1
 76
     0
 52
45.0
 41
0.01
 77
     0
 78
     1
 53
45.0
 43
0.0
 44
0.0
 45
-0.0070710678118655
 46
0.0070710678118655
 79
     0
 98
        1
 10
0.0
 20
0.0
  0
HATCH
  5
378
330
1F
100
AcDbEntity
  8
1
  6
Continuous
 62
     4
100
AcDbHatch
 10
0.0
 20
0.0
 30
0.0
210
0.0
220
0.0
230
1.0
  2
_USER
 70
     0
 71
     1
 91
        1
 92
        1
 93
        7
 72
     1
 10
70.105534525235
 20
56.1701911177117
 11
70.105534525235
 21
55.7489103728475
 72
     1
 10
70.105534525235
 20
55.7489103728475
 11
70.4631815840585
 21
55.7489103728475
 72
     1
 10
70.4631815840585
 20
55.7489103728475
 11
70.4631815840585
 21
53.551471862576
 72
     1
 10
70.4631815840585
 20
53.551471862576
 11
70.820828642882
 21
53.551471862576
 72
     1
 10
70.820828642882
 20
53.551471862576
 11
70.820828642882
 21
56.591471862576
 72
     1
 10
70.820828642882
 20
56.591471862576
 11
70.4631815840585
 21
56.591471862576
 72
     2
 10
69.72128990384
 20
56.8588492265541
 40
0.788602510739962
 50
19.81913546676635
 51
60.84017065081078
 73
     0
 97
        7
330
139
330
138
330
13C
330
137
330
13A
330
13B
330
321
 75
     1
 76
     0
 52
45.0
 41
0.01
 77
     0
 78
     1
 53
45.0
 43
0.0
 44
0.0
 45
-0.0070710678118655
 46
0.0070710678118655
 79
     0
 98
        1
 10
0.0
 20
0.0
  0
HATCH
  5
379
330
1F
100
AcDbEntity
  8
1
  6
Continuous
 62
     4
100
AcDbHatch
 10
0.0
 20
0.0
 30
0.0
210
0.0
220
0.0
230
1.0
  2
_USER
 70
     0
 71
     1
 91
        1
 92
        1
 93
       29
 72
     1
 10
69.5099396416605
 20
56.2338248037526
 11
69.5099396416605
 21
55.5781385292427
 72
     2
 10
68.9734690534252
 20
55.5781385292427
 40
0.5364705882351717
 50
0.0
 51
41.81031489578645
 73
     0
 72
     2
 10
68.9734690534252
 20
54.8628444115955
 40
0.5364705882352894
 50
318.1896851041983
 51
360.0
 73
     0
 72
     1
 10
69.5099396416605
 20
54.8628444115955
 11
69.5099396416605
 21
53.9091189213994
 72
     2
 10
69.1522925828368
 20
53.9091189213994
 40
0.357647058823396
 50
0.0
 51
90.0
 73
     0
 72
     1
 10
69.1522925828368
 20
53.551471862576
 11
68.6754298377389
 21
53.551471862576
 72
     2
 10
68.6754298377389
 20
53.9091189213994
 40
0.3576470588237015
 50
90.0
 51
180.0
 73
     0
 72
     1
 10
68.3177827789152
 20
53.9091189213994
 11
68.3177827789152
 21
54.7436287253211
 72
     1
 10
68.3177827789152
 20
54.7436287253211
 11
68.6754298377389
 21
54.7436287253211
 72
     1
 10
68.6754298377389
 20
54.7436287253211
 11
68.6754298377389
 21
54.0879424508113
 72
     2
 10
68.8542533671507
 20
54.0879424508113
 40
0.178823529411801
 50
180.0
 51
270.0
 73
     1
 72
     1
 10
68.8542533671507
 20
53.9091189213994
 11
68.9734690534252
 21
53.9091189213994
 72
     2
 10
68.9734690534252
 20
54.0879424508113
 40
0.1788235294119005
 50
270.0
 51
360.0
 73
     1
 72
     1
 10
69.1522925828368
 20
54.0879424508113
 11
69.1522925828368
 21
54.8628444115955
 72
     2
 10
68.9734690534252
 20
54.8628444115955
 40
0.1788235294115879
 50
0.0
 51
90.0
 73
     1
 72
     1
 10
68.9734690534252
 20
55.0416679410073
 11
68.7350376808761
 21
55.0416679410073
 72
     1
 10
68.7350376808761
 20
55.0416679410073
 11
68.7350376808761
 21
55.3993149998309
 72
     1
 10
68.7350376808761
 20
55.3993149998309
 11
68.9734690534252
 21
55.3993149998309
 72
     2
 10
68.9734690534252
 20
55.5781385292427
 40
0.178823529411801
 50
270.0
 51
360.0
 73
     1
 72
     1
 10
69.1522925828368
 20
55.5781385292427
 11
69.1522925828368
 21
56.0550012743408
 72
     2
 10
68.9734690534252
 20
56.0550012743408
 40
0.1788235294115879
 50
0.0
 51
90.0
 73
     1
 72
     1
 10
68.9734690534252
 20
56.2338248037526
 11
68.8542533671507
 21
56.2338248037526
 72
     2
 10
68.8542533671507
 20
56.0550012743408
 40
0.1788235294117939
 50
90.0
 51
180.0
 73
     1
 72
     1
 10
68.6754298377389
 20
56.0550012743408
 11
68.6754298377389
 21
55.6377463723799
 72
     1
 10
68.6754298377389
 20
55.6377463723799
 11
68.3177827789152
 21
55.6377463723799
 72
     1
 10
68.3177827789152
 20
55.6377463723799
 11
68.3177827789152
 21
56.2338248037526
 72
     2
 10
68.6754298377389
 20
56.2338248037526
 40
0.3576470588234031
 50
180.0
 51
270.0
 73
     0
 72
     1
 10
68.6754298377389
 20
56.591471862576
 11
69.1522925828368
 21
56.591471862576
 72
     2
 10
69.1522925828368
 20
56.2338248037526
 40
0.3576470588237015
 50
270.0
 51
360.0
 73
     0
 97
       29
330
118
330
31E
330
31F
330
127
330
2CD
330
119
330
2CE
330
11A
330
11F
330
11E
330
2CF
330
11D
330
2D0
330
126
330
2D1
330
125
330
124
330
123
330
2D2
330
11C
330
2D3
330
11B
330
2D4
330
122
330
120
330
121
330
2CB
330
117
330
2CC
 75
     1
 76
     0
 52
45.0
 41
0.01
 77
     0
 78
     1
 53
45.0
 43
0.0
 44
0.0
 45
-0.0070710678118655
 46
0.0070710678118655
 79
     0
 98
        1
 10
0.0
 20
0.0
  0
HATCH
  5
37A
330
1F
100
AcDbEntity
  8
1
  6
Continuous
 62
     4
100
AcDbHatch
 10
0.0
 20
0.0
 30
0.0
210
0.0
220
0.0
230
1.0
  2
_USER
 70
     0
 71
     1
 91
        1
 92
        1
 93
       28
 72
     1
 10
66.5748726427222
 20
56.591471862576
 11
67.0517353878203
 21
56.591471862576
 72
     2
 10
67.0517353878203
 20
56.2338248037526
 40
0.3576470588235026
 50
270.0
 51
360.0
 73
     0
 72
     1
 10
67.4093824466438
 20
56.2338248037526
 11
67.4093824466438
 21
55.6377463723799
 72
     1
 10
67.4093824466438
 20
55.6377463723799
 11
67.0517353878203
 21
55.6377463723799
 72
     1
 10
67.0517353878203
 20
55.6377463723799
 11
67.0517353878203
 21
56.0550012743408
 72
     2
 10
66.8729118584087
 20
56.0550012743408
 40
0.1788235294116021
 50
0.0
 51
90.0
 73
     1
 72
     1
 10
66.8729118584087
 20
56.2338248037526
 11
66.753696172134
 21
56.2338248037526
 72
     2
 10
66.753696172134
 20
56.0550012743408
 40
0.1788235294117939
 50
90.0
 51
180.0
 73
     1
 72
     1
 10
66.5748726427222
 20
56.0550012743408
 11
66.5748726427222
 21
55.6545070614326
 72
     2
 10
66.7325931448701
 20
55.6545070614326
 40
0.157720502147896
 50
180.0
 51
235.2612837876327
 73
     1
 72
     1
 10
66.6427184924627
 20
55.5248987914325
 11
67.1888834349874
 21
55.146169992981
 72
     2
 10
66.8967908146634
 20
54.7249431154808
 40
0.5125916319803991
 50
304.7387162123733
 51
360.0
 73
     0
 72
     1
 10
67.4093824466438
 20
54.7249431154808
 11
67.4093824466438
 21
53.9091189213994
 72
     2
 10
67.0517353878203
 20
53.9091189213994
 40
0.357647058823396
 50
0.0
 51
90.0
 73
     0
 72
     1
 10
67.0517353878203
 20
53.551471862576
 11
66.5748726427222
 21
53.551471862576
 72
     2
 10
66.5748726427222
 20
53.9091189213994
 40
0.3576470588235026
 50
90.0
 51
180.0
 73
     0
 72
     1
 10
66.2172255838987
 20
53.9091189213994
 11
66.2172255838987
 21
54.7436287253211
 72
     1
 10
66.2172255838987
 20
54.7436287253211
 11
66.5748726427222
 21
54.7436287253211
 72
     1
 10
66.5748726427222
 20
54.7436287253211
 11
66.5748726427222
 21
54.0879424508113
 72
     2
 10
66.753696172134
 20
54.0879424508113
 40
0.178823529411801
 50
180.0
 51
270.0
 73
     1
 72
     1
 10
66.753696172134
 20
53.9091189213994
 11
66.8729118584087
 21
53.9091189213994
 72
     2
 10
66.8729118584087
 20
54.0879424508113
 40
0.1788235294119005
 50
270.0
 51
360.0
 73
     1
 72
     1
 10
67.0517353878203
 20
54.0879424508113
 11
67.0517353878203
 21
54.7268680362685
 72
     2
 10
66.8940148856724
 20
54.7268680362685
 40
0.157720502147896
 50
0.0
 51
55.26128378761216
 73
     1
 72
     1
 10
66.9838895380798
 20
54.8564763062685
 11
66.4377245955551
 21
55.23520510472
 72
     2
 10
66.7298172158789
 20
55.6564319822202
 40
0.5125916319802002
 50
124.7387162123555
 51
180.0
 73
     0
 72
     1
 10
66.2172255838987
 20
55.6564319822202
 11
66.2172255838987
 21
56.2338248037526
 72
     2
 10
66.5748726427222
 20
56.2338248037526
 40
0.3576470588234031
 50
180.0
 51
270.0
 73
     0
 97
       28
330
13D
330
2E0
330
147
330
146
330
148
330
2E7
330
141
330
2E6
330
142
330
2E8
330
14B
330
2EA
330
14A
330
2E2
330
13F
330
2E3
330
140
330
145
330
144
330
2E4
330
143
330
2E5
330
149
330
2E9
330
14C
330
2EB
330
13E
330
2E1
 75
     1
 76
     0
 52
45.0
 41
0.01
 77
     0
 78
     1
 53
45.0
 43
0.0
 44
0.0
 45
-0.0070710678118655
 46
0.0070710678118655
 79
     0
 98
        1
 10
0.0
 20
0.0
  0
HATCH
  5
37B
330
1F
100
AcDbEntity
  8
1
  6
Continuous
 62
     4
100
AcDbHatch
 10
0.0
 20
0.0
 30
0.0
210
0.0
220
0.0
230
1.0
  2
_USER
 70
     0
 71
     1
 91
        1
 92
        1
 93
       12
 72
     1
 10
64.6701975913209
 20
56.591471862576
 11
64.6701975913209
 21
53.9091189213994
 72
     2
 10
65.0278446501445
 20
53.9091189213994
 40
0.357647058823602
 50
180.0
 51
270.0
 73
     1
 72
     1
 10
65.0278446501445
 20
53.551471862576
 11
65.5047073952425
 21
53.551471862576
 72
     2
 10
65.5047073952425
 20
53.9091189213994
 40
0.357647058823396
 50
270.0
 51
360.0
 73
     1
 72
     1
 10
65.8623544540661
 20
53.9091189213994
 11
65.8623544540661
 21
56.5747111735234
 72
     1
 10
65.8623544540661
 20
56.5747111735234
 11
65.5047073952425
 21
56.5747111735234
 72
     1
 10
65.5047073952425
 20
56.5747111735234
 11
65.5047073952425
 21
54.0879424508113
 72
     2
 10
65.3258838658309
 20
54.0879424508113
 40
0.1788235294119005
 50
0.0
 51
90.0
 73
     0
 72
     1
 10
65.3258838658309
 20
53.9091189213994
 11
65.2066681795563
 21
53.9091189213994
 72
     2
 10
65.2066681795563
 20
54.0879424508113
 40
0.178823529411801
 50
90.0
 51
180.0
 73
     0
 72
     1
 10
65.0278446501445
 20
54.0879424508113
 11
65.0278446501444
 21
56.591471862576
 72
     1
 10
65.0278446501444
 20
56.591471862576
 11
64.6701975913209
 21
56.591471862576
 97
       12
330
15F
330
2F9
330
15E
330
2FA
330
161
330
163
330
164
330
2FB
330
162
330
2F8
330
15D
330
160
 75
     1
 76
     0
 52
45.0
 41
0.01
 77
     0
 78
     1
 53
45.0
 43
0.0
 44
0.0
 45
-0.0070710678118655
 46
0.0070710678118655
 79
     0
 98
        1
 10
0.0
 20
0.0
  0
HATCH
  5
37C
330
1F
100
AcDbEntity
  8
1
  6
Continuous
 62
     4
100
AcDbHatch
 10
0.0
 20
0.0
 30
0.0
210
0.0
220
0.0
230
1.0
  2
_USER
 70
     0
 71
     1
 91
        1
 92
        1
 93
       28
 72
     1
 10
64.3153264614883
 20
56.2338248037526
 11
64.3153264614883
 21
55.6377463723799
 72
     1
 10
64.3153264614883
 20
55.6377463723799
 11
63.9576794026648
 21
55.6377463723799
 72
     1
 10
63.9576794026648
 20
55.6377463723799
 11
63.9576794026648
 21
56.0550012743408
 72
     2
 10
63.7788558732532
 20
56.0550012743408
 40
0.1788235294116021
 50
0.0
 51
90.0
 73
     1
 72
     1
 10
63.7788558732532
 20
56.2338248037526
 11
63.6596401869786
 21
56.2338248037526
 72
     2
 10
63.6596401869786
 20
56.0550012743408
 40
0.1788235294117939
 50
90.0
 51
180.0
 73
     1
 72
     1
 10
63.4808166575667
 20
56.0550012743408
 11
63.4808166575667
 21
55.6545070614326
 72
     2
 10
63.6385371597145
 20
55.6545070614326
 40
0.1577205021478036
 50
180.0
 51
235.2612837876582
 73
     1
 72
     1
 10
63.5486625073072
 20
55.5248987914325
 11
64.0948274498319
 21
55.146169992981
 72
     2
 10
63.8027348295079
 20
54.7249431154808
 40
0.5125916319803991
 50
304.7387162123733
 51
360.0
 73
     0
 72
     1
 10
64.3153264614883
 20
54.7249431154808
 11
64.3153264614883
 21
53.9091189213994
 72
     2
 10
63.9576794026648
 20
53.9091189213994
 40
0.357647058823396
 50
0.0
 51
90.0
 73
     0
 72
     1
 10
63.9576794026648
 20
53.551471862576
 11
63.4808166575667
 21
53.551471862576
 72
     2
 10
63.4808166575667
 20
53.9091189213994
 40
0.357647058823602
 50
90.0
 51
180.0
 73
     0
 72
     1
 10
63.1231695987431
 20
53.9091189213994
 11
63.1231695987431
 21
54.7436287253211
 72
     1
 10
63.1231695987431
 20
54.7436287253211
 11
63.4808166575667
 21
54.7436287253211
 72
     1
 10
63.4808166575667
 20
54.7436287253211
 11
63.4808166575667
 21
54.0879424508113
 72
     2
 10
63.6596401869786
 20
54.0879424508113
 40
0.1788235294119005
 50
180.0
 51
270.0
 73
     1
 72
     1
 10
63.6596401869786
 20
53.9091189213994
 11
63.7788558732532
 21
53.9091189213994
 72
     2
 10
63.7788558732532
 20
54.0879424508113
 40
0.1788235294119005
 50
270.0
 51
360.0
 73
     1
 72
     1
 10
63.9576794026648
 20
54.0879424508113
 11
63.9576794026648
 21
54.7268680362685
 72
     2
 10
63.7999589005169
 20
54.7268680362685
 40
0.1577205021479031
 50
0.0
 51
55.26128378760793
 73
     1
 72
     1
 10
63.8898335529243
 20
54.8564763062685
 11
63.3436686103995
 21
55.23520510472
 72
     2
 10
63.6357612307235
 20
55.6564319822202
 40
0.5125916319804062
 50
124.7387162123744
 51
180.0
 73
     0
 72
     1
 10
63.1231695987431
 20
55.6564319822202
 11
63.1231695987431
 21
56.2338248037526
 72
     2
 10
63.4808166575667
 20
56.2338248037526
 40
0.3576470588234031
 50
180.0
 51
270.0
 73
     0
 72
     1
 10
63.4808166575667
 20
56.591471862576
 11
63.9576794026648
 21
56.591471862576
 72
     2
 10
63.9576794026648
 20
56.2338248037526
 40
0.3576470588234955
 50
270.0
 51
360.0
 73
     0
 97
       28
330
157
330
156
330
158
330
2F3
330
151
330
2F2
330
152
330
2F4
330
15B
330
2F6
330
15A
330
2EE
330
14F
330
2EF
330
150
330
155
330
154
330
2F0
330
153
330
2F1
330
159
330
2F5
330
15C
330
2F7
330
14E
330
2ED
330
14D
330
2EC
 75
     1
 76
     0
 52
45.0
 41
0.01
 77
     0
 78
     1
 53
45.0
 43
0.0
 44
0.0
 45
-0.0070710678118655
 46
0.0070710678118655
 79
     0
 98
        1
 10
0.0
 20
0.0
  0
HATCH
  5
37D
330
1F
100
AcDbEntity
  8
1
  6
Continuous
 62
     4
100
AcDbHatch
 10
0.0
 20
0.0
 30
0.0
210
0.0
220
0.0
230
1.0
  2
_USER
 70
     0
 71
     1
 91
        1
 92
        1
 93
       30
 72
     1
 10
63.4214833687447
 20
59.2599030125676
 11
63.4214833687447
 21
58.7826009805648
 72
     2
 10
63.5408088767455
 20
58.7826009805648
 40
0.1193255080007987
 50
180.0
 51
270.0
 73
     1
 72
     1
 10
63.5408088767455
 20
58.6632754725641
 11
63.6004716307457
 21
58.6632754725641
 72
     2
 10
63.6004716307457
 20
58.7826009805648
 40
0.1193255080006992
 50
270.0
 51
360.0
 73
     1
 72
     1
 10
63.7197971387465
 20
58.7826009805648
 11
63.7197971387465
 21
59.3792285205683
 72
     2
 10
63.6004716307457
 20
59.3792285205683
 40
0.1193255080007987
 50
0.0
 51
90.0
 73
     1
 72
     1
 10
63.6004716307457
 20
59.4985540285689
 11
63.4214833687447
 21
59.4985540285689
 72
     1
 10
63.4214833687447
 20
59.4985540285689
 11
63.4214833687447
 21
59.7968677985706
 72
     1
 10
63.4214833687447
 20
59.7968677985706
 11
63.6004716307457
 21
59.7968677985706
 72
     2
 10
63.6004716307457
 20
59.9161933065713
 40
0.1193255080006992
 50
270.0
 51
360.0
 73
     1
 72
     1
 10
63.7197971387465
 20
59.9161933065713
 11
63.7197971387465
 21
60.3338325845738
 72
     2
 10
63.6004716307457
 20
60.3338325845738
 40
0.1193255080007987
 50
0.0
 51
90.0
 73
     1
 72
     1
 10
63.6004716307457
 20
60.4531580925744
 11
63.5408088767455
 21
60.4531580925744
 72
     2
 10
63.5408088767455
 20
60.3338325845738
 40
0.1193255080005997
 50
90.0
 51
180.0
 73
     1
 72
     1
 10
63.4214833687447
 20
60.3338325845738
 11
63.4214833687447
 21
60.0355188145719
 72
     1
 10
63.4214833687447
 20
60.0355188145719
 11
63.1231695987431
 21
60.0355188145719
 72
     1
 10
63.1231695987431
 20
60.0355188145719
 11
63.1231695987431
 21
60.5128208465748
 72
     2
 10
63.3618206147444
 20
60.5128208465748
 40
0.238651016001306
 50
180.0
 51
270.0
 73
     0
 72
     1
 10
63.3618206147444
 20
60.7514718625761
 11
63.7794598927468
 21
60.7514718625761
 72
     2
 10
63.7794598927468
 20
60.5128208465748
 40
0.2386510160013984
 50
270.0
 51
360.0
 73
     0
 72
     1
 10
64.0181109087482
 20
60.5128208465748
 11
64.0181109087482
 21
59.8266991755708
 72
     2
 10
63.8391226467472
 20
59.8266991755708
 40
0.1789882620010089
 50
0.0
 51
65.38002267134297
 73
     0
 72
     2
 10
63.9211453726601
 20
59.6477109135698
 40
0.0178988262001247
 50
114.6199773288998
 51
245.3800226711001
 73
     1
 72
     2
 10
63.8391226467472
 20
59.4687226515688
 40
0.178988262000999
 50
294.6199773286561
 51
360.0
 73
     0
 72
     1
 10
64.0181109087482
 20
59.4687226515688
 11
64.0181109087482
 21
58.6036127185638
 72
     2
 10
63.7794598927468
 20
58.6036127185638
 40
0.238651016001505
 50
0.0
 51
90.0
 73
     0
 72
     1
 10
63.7794598927468
 20
58.3649617025623
 11
63.3618206147444
 21
58.3649617025623
 72
     2
 10
63.3618206147444
 20
58.6036127185638
 40
0.238651016001306
 50
90.0
 51
180.0
 73
     0
 72
     1
 10
63.1231695987431
 20
58.6036127185638
 11
63.1231695987431
 21
59.2599030125676
 72
     1
 10
63.1231695987431
 20
59.2599030125676
 11
63.4214833687447
 21
59.2599030125676
 97
       30
330
10D
330
2C3
330
10C
330
2C4
330
107
330
2C1
330
108
330
109
330
10A
330
2C2
330
10B
330
2C5
330
10E
330
2C6
330
10F
330
112
330
111
330
2C7
330
116
330
2CA
330
115
330
2C0
330
2BE
330
2BF
330
106
330
2C9
330
114
330
2C8
330
113
330
110
 75
     1
 76
     0
 52
45.0
 41
0.01
 77
     0
 78
     1
 53
45.0
 43
0.0
 44
0.0
 45
-0.0070710678118655
 46
0.0070710678118655
 79
     0
 98
        1
 10
0.0
 20
0.0
  0
HATCH
  5
37E
330
1F
100
AcDbEntity
  8
1
  6
Continuous
 62
     4
100
AcDbHatch
 10
0.0
 20
0.0
 30
0.0
210
0.0
220
0.0
230
1.0
  2
_USER
 70
     0
 71
     1
 91
        1
 92
        1
 93
        4
 72
     1
 10
65.6886680207579
 20
60.7514718625761
 11
65.9869817907595
 21
60.7514718625761
 72
     1
 10
65.9869817907595
 20
60.7514718625761
 11
64.1374364167489
 21
57.7086714085586
 72
     1
 10
64.1374364167489
 20
57.7086714085586
 11
63.8391226467472
 21
57.7086714085586
 72
     1
 10
63.8391226467472
 20
57.7086714085586
 11
65.6886680207579
 21
60.7514718625761
 97
        4
330
103
330
102
330
105
330
104
 75
     1
 76
     0
 52
45.0
 41
0.01
 77
     0
 78
     1
 53
45.0
 43
0.0
 44
0.0
 45
-0.0070710678118655
 46
0.0070710678118655
 79
     0
 98
        1
 10
0.0
 20
0.0
  0
HATCH
  5
37F
330
1F
100
AcDbEntity
  8
1
  6
Continuous
 62
     4
100
AcDbHatch
 10
0.0
 20
0.0
 30
0.0
210
0.0
220
0.0
230
1.0
  2
_USER
 70
     0
 71
     1
 91
        3
 92
        1
 93
       16
 72
     2
 10
66.0466445447598
 20
59.8565305525709
 40
0.2386510160012989
 50
90.0
 51
180.0
 73
     1
 72
     1
 10
65.8079935287586
 20
59.8565305525709
 11
65.8079935287586
 21
59.2002402585671
 72
     2
 10
65.9869817907595
 20
59.2002402585671
 40
0.1789882620008996
 50
180.0
 51
249.6358651936599
 73
     1
 72
     2
 10
65.9205441596573
 20
59.0212519965661
 40
0.011932550800009
 50
290.3641348056874
 51
429.6358651935324
 73
     0
 72
     2
 10
65.9869817907595
 20
58.8422637345651
 40
0.1789882620010337
 50
110.3641348062881
 51
180.0
 73
     1
 72
     1
 10
65.8079935287586
 20
58.8422637345651
 11
65.8079935287586
 21
57.94732242456
 72
     2
 10
66.0466445447598
 20
57.94732242456
 40
0.2386510160011994
 50
180.0
 51
270.0
 73
     1
 72
     1
 10
66.0466445447598
 20
57.7086714085586
 11
66.4642838227624
 21
57.7086714085586
 72
     2
 10
66.4642838227624
 20
57.94732242456
 40
0.2386510160013984
 50
270.0
 51
360.0
 73
     1
 72
     1
 10
66.7029348387637
 20
57.94732242456
 11
66.7029348387637
 21
58.8422637345651
 72
     2
 10
66.5239465767627
 20
58.8422637345651
 40
0.178988262000999
 50
0.0
 51
69.63586519367098
 73
     1
 72
     2
 10
66.5903842078649
 20
59.0212519965661
 40
0.0119325508001609
 50
110.3641348058536
 51
249.6358651943126
 73
     0
 72
     2
 10
66.5239465767627
 20
59.2002402585671
 40
0.1789882620008818
 50
290.3641348063401
 51
360.0
 73
     1
 72
     1
 10
66.7029348387637
 20
59.2002402585671
 11
66.7029348387637
 21
59.8565305525709
 72
     2
 10
66.4642838227624
 20
59.8565305525709
 40
0.2386510160012989
 50
0.0
 51
90.0
 73
     1
 72
     1
 10
66.4642838227624
 20
60.0951815685722
 11
66.0466445447598
 21
60.0951815685722
 97
       16
330
2BC
330
F8
330
2B2
330
2B0
330
2B1
330
FF
330
2BB
330
100
330
2BA
330
F9
330
2B4
330
2B3
330
2B5
330
FA
330
2BD
330
101
 92
       16
 93
        8
 72
     1
 10
66.225632806761
 20
59.7968677985706
 11
66.2852955607613
 21
59.7968677985706
 72
     2
 10
66.2852955607613
 20
59.6775422905699
 40
0.1193255080006992
 50
270.0
 51
360.0
 73
     0
 72
     1
 10
66.404621068762
 20
59.6775422905699
 11
66.404621068762
 21
59.2897343895678
 72
     2
 10
66.2852955607613
 20
59.2897343895678
 40
0.1193255080008981
 50
0.0
 51
90.0
 73
     0
 72
     1
 10
66.2852955607613
 20
59.1704088815669
 11
66.225632806761
 21
59.1704088815669
 72
     2
 10
66.225632806761
 20
59.2897343895678
 40
0.1193255080007987
 50
90.0
 51
180.0
 73
     0
 72
     1
 10
66.1063072987602
 20
59.2897343895678
 11
66.1063072987602
 21
59.6775422905699
 72
     2
 10
66.225632806761
 20
59.6775422905699
 40
0.1193255080006992
 50
180.0
 51
270.0
 73
     0
 97
        8
330
FE
330
2B8
330
FD
330
2AE
330
F7
330
2AF
330
F6
330
2B9
 92
       16
 93
        8
 72
     1
 10
66.2852955607613
 20
58.0069851785603
 11
66.225632806761
 21
58.0069851785603
 72
     2
 10
66.225632806761
 20
58.1263106865609
 40
0.1193255080007987
 50
90.0
 51
180.0
 73
     0
 72
     1
 10
66.1063072987602
 20
58.1263106865609
 11
66.1063072987602
 21
58.7527696035646
 72
     2
 10
66.225632806761
 20
58.7527696035646
 40
0.1193255080006992
 50
180.0
 51
270.0
 73
     0
 72
     1
 10
66.225632806761
 20
58.8720951115653
 11
66.2852955607613
 21
58.8720951115653
 72
     2
 10
66.2852955607613
 20
58.7527696035646
 40
0.1193255080006992
 50
270.0
 51
360.0
 73
     0
 72
     1
 10
66.404621068762
 20
58.7527696035646
 11
66.404621068762
 21
58.1263106865609
 72
     2
 10
66.2852955607613
 20
58.1263106865609
 40
0.1193255080005997
 50
0.0
 51
90.0
 73
     0
 97
        8
330
FC
330
2B6
330
FB
330
2AC
330
F5
330
2AD
330
F4
330
2B7
 75
     1
 76
     0
 52
45.0
 41
0.01
 77
     0
 78
     1
 53
45.0
 43
0.0
 44
0.0
 45
-0.0070710678118655
 46
0.0070710678118655
 79
     0
 98
        1
 10
0.0
 20
0.0
  0
HATCH
  5
380
330
1F
100
AcDbEntity
  8
1
  6
Continuous
 62
     4
100
AcDbHatch
 10
0.0
 20
0.0
 30
0.0
210
0.0
220
0.0
230
1.0
  2
_USER
 70
     0
 71
     1
 91
        1
 92
        1
 93
        4
 72
     1
 10
67.8365271647704
 20
59.3792285205683
 11
67.8365271647704
 21
59.0809147505664
 72
     1
 10
67.8365271647704
 20
59.0809147505664
 11
67.1205741167661
 21
59.0809147505664
 72
     1
 10
67.1205741167661
 20
59.0809147505664
 11
67.1205741167661
 21
59.3792285205683
 72
     1
 10
67.1205741167661
 20
59.3792285205683
 11
67.8365271647704
 21
59.3792285205683
 97
        4
330
E2
330
E1
330
E0
330
E3
 75
     1
 76
     0
 52
45.0
 41
0.01
 77
     0
 78
     1
 53
45.0
 43
0.0
 44
0.0
 45
-0.0070710678118655
 46
0.0070710678118655
 79
     0
 98
        1
 10
0.0
 20
0.0
  0
HATCH
  5
381
330
1F
100
AcDbEntity
  8
1
  6
Continuous
 62
     4
100
AcDbHatch
 10
0.0
 20
0.0
 30
0.0
210
0.0
220
0.0
230
1.0
  2
_USER
 70
     0
 71
     1
 91
        2
 92
        1
 93
       18
 72
     1
 10
68.6718057207751
 20
59.437645473851
 11
68.6718057207751
 21
60.2122008203235
 72
     2
 10
68.8506292501869
 20
60.2122008203235
 40
0.1788235294116944
 50
180.0
 51
270.0
 73
     0
 72
     1
 10
68.8506292501869
 20
60.3910243497352
 11
68.9698449364615
 21
60.3910243497352
 72
     2
 10
68.9698449364615
 20
60.2122008203235
 40
0.1788235294117015
 50
270.0
 51
360.0
 73
     0
 72
     1
 10
69.1486684658732
 20
60.2122008203235
 11
69.1486684658732
 21
60.0172739192976
 72
     1
 10
69.1486684658732
 20
60.0172739192976
 11
69.5063155246967
 21
60.0172739192976
 72
     1
 10
69.5063155246967
 20
60.0172739192976
 11
69.5063155246967
 21
60.3910243497352
 72
     2
 10
69.1486684658732
 20
60.3910243497352
 40
0.3576470588235026
 50
0.0
 51
90.0
 73
     1
 72
     1
 10
69.1486684658732
 20
60.7486714085586
 11
68.6718057207751
 21
60.7486714085586
 72
     2
 10
68.6718057207751
 20
60.3910243497352
 40
0.3576470588234031
 50
90.0
 51
180.0
 73
     1
 72
     1
 10
68.3141586619516
 20
60.3910243497352
 11
68.3141586619516
 21
58.066318467382
 72
     2
 10
68.6718057207751
 20
58.066318467382
 40
0.3576470588235026
 50
180.0
 51
270.0
 73
     1
 72
     1
 10
68.6718057207751
 20
57.7086714085586
 11
69.1486684658732
 21
57.7086714085586
 72
     2
 10
69.1486684658732
 20
58.066318467382
 40
0.357647058823396
 50
270.0
 51
360.0
 73
     1
 72
     1
 10
69.5063155246967
 20
58.066318467382
 11
69.5063155246967
 21
58.4686714085585
 72
     1
 10
69.5063155246967
 20
58.4686714085585
 11
69.5063155246967
 21
59.0498478791468
 72
     2
 10
69.1486684658732
 20
59.0498478791468
 40
0.3576470588235026
 50
0.0
 51
59.34933204294649
 73
     1
 72
     2
 10
68.9102370933241
 20
58.6474949379702
 40
0.8253407712989663
 50
59.34933204294664
 51
106.7914176871166
 73
     1
 97
       18
330
306
330
170
330
16E
330
2FE
330
167
330
2FF
330
168
330
2FC
330
165
330
2FD
330
166
330
16D
330
16A
330
302
330
169
330
303
330
173
330
322
 92
       16
 93
        9
 72
     1
 10
68.8506292501869
 20
59.0498478791468
 11
68.9698449364615
 21
59.0498478791468
 72
     2
 10
68.9698449364615
 20
58.8710243497351
 40
0.1788235294117015
 50
270.0
 51
360.0
 73
     0
 72
     1
 10
69.1486684658732
 20
58.8710243497351
 11
69.1486684658732
 21
58.4686714085585
 72
     1
 10
69.1486684658732
 20
58.4686714085585
 11
69.1486684658732
 21
58.2451419967938
 72
     2
 10
68.9698449364615
 20
58.2451419967938
 40
0.178823529411801
 50
0.0
 51
90.0
 73
     0
 72
     1
 10
68.9698449364615
 20
58.066318467382
 11
68.8506292501869
 21
58.066318467382
 72
     2
 10
68.8506292501869
 20
58.2451419967938
 40
0.178823529411801
 50
90.0
 51
180.0
 73
     0
 72
     1
 10
68.6718057207751
 20
58.2451419967938
 11
68.6718057207751
 21
58.8710243497351
 72
     2
 10
68.8506292501869
 20
58.8710243497351
 40
0.1788235294117015
 50
180.0
 51
270.0
 73
     0
 97
        9
330
172
330
304
330
171
330
16F
330
301
330
16B
330
300
330
16C
330
305
 75
     1
 76
     0
 52
45.0
 41
0.01
 77
     0
 78
     1
 53
45.0
 43
0.0
 44
0.0
 45
-0.0070710678118655
 46
0.0070710678118655
 79
     0
 98
        1
 10
0.0
 20
0.0
  0
HATCH
  5
382
330
1F
100
AcDbEntity
  8
1
  6
Continuous
 62
     4
100
AcDbHatch
 10
0.0
 20
0.0
 30
0.0
210
0.0
220
0.0
230
1.0
  2
_USER
 70
     0
 71
     1
 91
        2
 92
        1
 93
        8
 72
     1
 10
71.0583158807889
 20
60.3934953385741
 11
71.0583158807889
 21
58.0666479325606
 72
     2
 10
70.7003393567868
 20
58.0666479325606
 40
0.3579765240019981
 50
0.0
 51
90.0
 73
     0
 72
     1
 10
70.7003393567868
 20
57.7086714085586
 11
70.2230373247841
 21
57.7086714085586
 72
     2
 10
70.2230373247841
 20
58.0666479325606
 40
0.3579765240020976
 50
90.0
 51
180.0
 73
     0
 72
     1
 10
69.865060800782
 20
58.0666479325606
 11
69.865060800782
 21
60.3934953385741
 72
     2
 10
70.2230373247841
 20
60.3934953385741
 40
0.3579765240020052
 50
180.0
 51
270.0
 73
     0
 72
     1
 10
70.2230373247841
 20
60.7514718625761
 11
70.7003393567868
 21
60.7514718625761
 72
     2
 10
70.7003393567868
 20
60.3934953385741
 40
0.3579765240020976
 50
270.0
 51
360.0
 73
     0
 97
        8
330
EA
330
2A1
330
E9
330
2A0
330
E8
330
2A3
330
EB
330
2A2
 92
       16
 93
        8
 72
     1
 10
70.2230373247841
 20
58.2456361945616
 11
70.2230373247841
 21
60.2145070765731
 72
     2
 10
70.4020255867852
 20
60.2145070765731
 40
0.178988262000999
 50
180.0
 51
270.0
 73
     0
 72
     1
 10
70.4020255867852
 20
60.3934953385741
 11
70.5213510947859
 21
60.3934953385741
 72
     2
 10
70.5213510947859
 20
60.2145070765731
 40
0.1789882620008996
 50
270.0
 51
360.0
 73
     0
 72
     1
 10
70.7003393567868
 20
60.2145070765731
 11
70.7003393567868
 21
58.2456361945616
 72
     2
 10
70.5213510947859
 20
58.2456361945616
 40
0.178988262000999
 50
0.0
 51
90.0
 73
     0
 72
     1
 10
70.5213510947859
 20
58.0666479325606
 11
70.4020255867852
 21
58.0666479325606
 72
     2
 10
70.4020255867852
 20
58.2456361945616
 40
0.1789882620010985
 50
90.0
 51
180.0
 73
     0
 97
        8
330
E4
330
29C
330
E7
330
29D
330
E6
330
29E
330
E5
330
29F
 75
     1
 76
     0
 52
45.0
 41
0.01
 77
     0
 78
     1
 53
45.0
 43
0.0
 44
0.0
 45
-0.0070710678118655
 46
0.0070710678118655
 79
     0
 98
        1
 10
0.0
 20
0.0
  0
HATCH
  5
383
330
1F
100
AcDbEntity
  8
1
  6
Continuous
 62
     4
100
AcDbHatch
 10
0.0
 20
0.0
 30
0.0
210
0.0
220
0.0
230
1.0
  2
_USER
 70
     0
 71
     1
 91
        2
 92
        1
 93
        8
 72
     1
 10
72.6095474847978
 20
60.3934953385741
 11
72.6095474847978
 21
58.0666479325606
 72
     2
 10
72.2515709607958
 20
58.0666479325606
 40
0.3579765240019981
 50
0.0
 51
90.0
 73
     0
 72
     1
 10
72.2515709607958
 20
57.7086714085586
 11
71.7742689287929
 21
57.7086714085586
 72
     2
 10
71.7742689287929
 20
58.0666479325606
 40
0.3579765240019128
 50
90.0
 51
180.0
 73
     0
 72
     1
 10
71.416292404791
 20
58.0666479325606
 11
71.416292404791
 21
60.3934953385741
 72
     2
 10
71.7742689287929
 20
60.3934953385741
 40
0.3579765240020052
 50
180.0
 51
270.0
 73
     0
 72
     1
 10
71.7742689287929
 20
60.7514718625761
 11
72.2515709607958
 21
60.7514718625761
 72
     2
 10
72.2515709607958
 20
60.3934953385741
 40
0.3579765240019981
 50
270.0
 51
360.0
 73
     0
 97
        8
330
F2
330
2A9
330
F1
330
2A8
330
F0
330
2AB
330
F3
330
2AA
 92
       16
 93
        8
 72
     1
 10
71.7742689287929
 20
58.2456361945616
 11
71.7742689287929
 21
60.2145070765731
 72
     2
 10
71.9532571907941
 20
60.2145070765731
 40
0.178988262000999
 50
180.0
 51
270.0
 73
     0
 72
     1
 10
71.9532571907941
 20
60.3934953385741
 11
72.0725826987948
 21
60.3934953385741
 72
     2
 10
72.0725826987948
 20
60.2145070765731
 40
0.178988262000999
 50
270.0
 51
360.0
 73
     0
 72
     1
 10
72.2515709607958
 20
60.2145070765731
 11
72.2515709607958
 21
58.2456361945616
 72
     2
 10
72.0725826987948
 20
58.2456361945616
 40
0.178988262000999
 50
0.0
 51
90.0
 73
     0
 72
     1
 10
72.0725826987948
 20
58.0666479325606
 11
71.9532571907941
 21
58.0666479325606
 72
     2
 10
71.9532571907941
 20
58.2456361945616
 40
0.178988262001198
 50
90.0
 51
180.0
 73
     0
 97
        8
330
EC
330
2A4
330
EF
330
2A5
330
EE
330
2A6
330
ED
330
2A7
 75
     1
 76
     0
 52
45.0
 41
0.01
 77
     0
 78
     1
 53
45.0
 43
0.0
 44
0.0
 45
-0.0070710678118655
 46
0.0070710678118655
 79
     0
 98
        1
 10
0.0
 20
0.0
  0
ENDSEC
  0
SECTION
  2
OBJECTS
  0
DICTIONARY
  5
C
330
0
100
AcDbDictionary
281
     1
  3
ACAD_GROUP
350
D
  3
ACAD_LAYOUT
350
1A
  3
ACAD_MATERIAL
350
43
  3
ACAD_MLEADERSTYLE
350
386
  3
ACAD_MLINESTYLE
350
17
  3
ACAD_PLOTSETTINGS
350
19
  3
ACAD_PLOTSTYLENAME
350
E
  3
ACAD_SCALELIST
350
47
  3
ACAD_VISUALSTYLE
350
2A
  3
AcDbVariableDictionary
350
384
  0
DICTIONARY
  5
D
102
{ACAD_REACTORS
330
C
102
}
330
C
100
AcDbDictionary
281
     1
  0
DICTIONARY
  5
1A
102
{ACAD_REACTORS
330
C
102
}
330
C
100
AcDbDictionary
281
     1
  3
Layout1
350
1E
  3
Layout2
350
26
  3
Model
350
22
  0
DICTIONARY
  5
43
102
{ACAD_REACTORS
330
C
102
}
330
C
100
AcDbDictionary
281
     1
  3
ByBlock
350
45
  3
ByLayer
350
44
  3
Global
350
46
  0
DICTIONARY
  5
386
102
{ACAD_REACTORS
330
C
102
}
330
C
100
AcDbDictionary
281
     1
  0
DICTIONARY
  5
17
102
{ACAD_REACTORS
330
C
102
}
330
C
100
AcDbDictionary
281
     1
  3
Standard
350
18
  0
DICTIONARY
  5
19
102
{ACAD_REACTORS
330
C
102
}
330
C
100
AcDbDictionary
281
     1
  0
ACDBDICTIONARYWDFLT
  5
E
102
{ACAD_REACTORS
330
C
102
}
330
C
100
AcDbDictionary
281
     1
  3
Normal
350
F
100
AcDbDictionaryWithDefault
340
F
  0
DICTIONARY
  5
47
102
{ACAD_REACTORS
330
C
102
}
330
C
100
AcDbDictionary
281
     1
  3
A0
350
48
  3
A1
350
49
  3
A2
350
4A
  3
A3
350
4B
  3
A4
350
4C
  3
A5
350
4D
  3
A6
350
4E
  3
A7
350
4F
  3
A8
350
50
  3
A9
350
51
  3
B0
350
52
  3
B1
350
53
  3
B2
350
54
  3
B3
350
55
  3
B4
350
56
  3
B5
350
57
  3
B6
350
58
  3
B7
350
59
  3
B8
350
5A
  3
B9
350
5B
  3
C0
350
5C
  3
C1
350
5D
  3
C2
350
5E
  3
C3
350
5F
  3
C4
350
60
  3
C5
350
61
  3
C6
350
62
  3
C7
350
63
  3
C8
350
64
  3
C9
350
65
  3
D0
350
66
  3
D1
350
67
  3
D2
350
68
  0
DICTIONARY
  5
2A
102
{ACAD_REACTORS
330
C
102
}
330
C
100
AcDbDictionary
281
     1
  3
2dWireframe
350
2F
  3
Basic
350
32
  3
Brighten
350
36
  3
ColorChange
350
3A
  3
Conceptual
350
34
  3
Dim
350
35
  3
EdgeColorOff
350
3D
  3
Facepattern
350
39
  3
Flat
350
2B
  3
FlatWithEdges
350
2C
  3
Gouraud
350
2D
  3
GouraudWithEdges
350
2E
  3
Hidden
350
31
  3
JitterOff
350
3B
  3
Linepattern
350
38
  3
OverhangOff
350
3C
  3
Realistic
350
33
  3
Shaded
350
42
  3
Shaded with edges
350
41
  3
Shades of Gray
350
3E
  3
Sketchy
350
3F
  3
Thicken
350
37
  3
Wireframe
350
30
  3
X-Ray
350
40
  0
DICTIONARY
  5
384
102
{ACAD_REACTORS
330
C
102
}
330
C
100
AcDbDictionary
281
     1
  3
CANNOSCALE
350
38B
  3
DIMASSOC
350
389
  3
HIDETEXT
350
38A
  3
MSLTSCALE
350
38C
  0
LAYOUT
  5
1E
102
{ACAD_REACTORS
330
1A
102
}
330
1A
100
AcDbPlotSettings
  1

  2
none_device
  4

  6

 40
0.0
 41
0.0
 42
0.0
 43
0.0
 44
0.0
 45
0.0
 46
0.0
 47
0.0
 48
0.0
 49
0.0
140
0.0
141
0.0
142
1.0
143
1.0
 70
   688
 72
     0
 73
     0
 74
     5
  7

 75
    16
147
1.0
148
0.0
149
0.0
100
AcDbLayout
  1
Layout1
 70
     1
 71
     1
 10
0.0
 20
0.0
 11
12.0
 21
9.0
 12
0.0
 22
0.0
 32
0.0
 14
1.00000000000000E+20
 24
1.00000000000000E+20
 34
1.00000000000000E+20
 15
-1.00000000000000E+20
 25
-1.00000000000000E+20
 35
-1.00000000000000E+20
146
0.0
 13
0.0
 23
0.0
 33
0.0
 16
1.0
 26
0.0
 36
0.0
 17
0.0
 27
1.0
 37
0.0
 76
     0
330
1B
  0
LAYOUT
  5
26
102
{ACAD_REACTORS
330
1A
102
}
330
1A
100
AcDbPlotSettings
  1

  2
none_device
  4

  6

 40
0.0
 41
0.0
 42
0.0
 43
0.0
 44
0.0
 45
0.0
 46
0.0
 47
0.0
 48
0.0
 49
0.0
140
0.0
141
0.0
142
1.0
143
1.0
 70
   688
 72
     0
 73
     0
 74
     5
  7

 75
    16
147
1.0
148
0.0
149
0.0
100
AcDbLayout
  1
Layout2
 70
     1
 71
     2
 10
0.0
 20
0.0
 11
0.0
 21
0.0
 12
0.0
 22
0.0
 32
0.0
 14
0.0
 24
0.0
 34
0.0
 15
0.0
 25
0.0
 35
0.0
146
0.0
 13
0.0
 23
0.0
 33
0.0
 16
1.0
 26
0.0
 36
0.0
 17
0.0
 27
1.0
 37
0.0
 76
     0
330
23
  0
LAYOUT
  5
22
102
{ACAD_REACTORS
330
1A
102
}
330
1A
100
AcDbPlotSettings
  1

  2
none_device
  4
Letter_(8.50_x_11.00_Inches)
  6

 40
6.35
 41
6.35
 42
6.35000508
 43
6.35000508
 44
215.9
 45
279.4
 46
0.0
 47
0.0
 48
0.0
 49
0.0
140
0.0
141
0.0
142
1.0
143
1.0
 70
  1712
 72
     0
 73
     0
 74
     0
  7

 75
     0
147
1.0
148
0.0
149
0.0
100
AcDbLayout
  1
Model
 70
     1
 71
     0
 10
0.0
 20
0.0
 11
12.0
 21
9.0
 12
0.0
 22
0.0
 32
0.0
 14
-67.79
 24
-24.5443355089935
 34
0.0
 15
81.1163585417703
 25
71.7888571845651
 35
0.0
146
0.0
 13
0.0
 23
0.0
 33
0.0
 16
1.0
 26
0.0
 36
0.0
 17
0.0
 27
1.0
 37
0.0
 76
     0
330
1F
331
29
  0
MATERIAL
  5
45
102
{ACAD_REACTORS
330
43
102
}
102
{ACAD_XDICTIONARY
360
3BF
102
}
330
43
100
AcDbMaterial
  1
ByBlock
  0
MATERIAL
  5
44
102
{ACAD_REACTORS
330
43
102
}
102
{ACAD_XDICTIONARY
360
3BD
102
}
330
43
100
AcDbMaterial
  1
ByLayer
  0
MATERIAL
  5
46
102
{ACAD_REACTORS
330
43
102
}
102
{ACAD_XDICTIONARY
360
3C1
102
}
330
43
100
AcDbMaterial
  1
Global
  0
MLINESTYLE
  5
18
102
{ACAD_REACTORS
330
17
102
}
330
17
100
AcDbMlineStyle
  2
Standard
 70
     0
  3

 62
   256
 51
90.0
 52
90.0
 71
     2
 49
0.5
 62
   256
  6
BYLAYER
 49
-0.5
 62
   256
  6
BYLAYER
  0
ACDBPLACEHOLDER
  5
F
102
{ACAD_REACTORS
330
E
102
}
330
E
  0
SCALE
  5
48
102
{ACAD_REACTORS
330
47
102
}
330
47
100
AcDbScale
 70
     0
300
1:1
140
1.0
141
1.0
290
     1
  0
SCALE
  5
49
102
{ACAD_REACTORS
330
47
102
}
330
47
100
AcDbScale
 70
     0
300
1:2
140
1.0
141
2.0
290
     0
  0
SCALE
  5
4A
102
{ACAD_REACTORS
330
47
102
}
330
47
100
AcDbScale
 70
     0
300
1:4
140
1.0
141
4.0
290
     0
  0
SCALE
  5
4B
102
{ACAD_REACTORS
330
47
102
}
330
47
100
AcDbScale
 70
     0
300
1:5
140
1.0
141
5.0
290
     0
  0
SCALE
  5
4C
102
{ACAD_REACTORS
330
47
102
}
330
47
100
AcDbScale
 70
     0
300
1:8
140
1.0
141
8.0
290
     0
  0
SCALE
  5
4D
102
{ACAD_REACTORS
330
47
102
}
330
47
100
AcDbScale
 70
     0
300
1:10
140
1.0
141
10.0
290
     0
  0
SCALE
  5
4E
102
{ACAD_REACTORS
330
47
102
}
330
47
100
AcDbScale
 70
     0
300
1:16
140
1.0
141
16.0
290
     0
  0
SCALE
  5
4F
102
{ACAD_REACTORS
330
47
102
}
330
47
100
AcDbScale
 70
     0
300
1:20
140
1.0
141
20.0
290
     0
  0
SCALE
  5
50
102
{ACAD_REACTORS
330
47
102
}
330
47
100
AcDbScale
 70
     0
300
1:30
140
1.0
141
30.0
290
     0
  0
SCALE
  5
51
102
{ACAD_REACTORS
330
47
102
}
330
47
100
AcDbScale
 70
     0
300
1:40
140
1.0
141
40.0
290
     0
  0
SCALE
  5
52
102
{ACAD_REACTORS
330
47
102
}
330
47
100
AcDbScale
 70
     0
300
1:50
140
1.0
141
50.0
290
     0
  0
SCALE
  5
53
102
{ACAD_REACTORS
330
47
102
}
330
47
100
AcDbScale
 70
     0
300
1:100
140
1.0
141
100.0
290
     0
  0
SCALE
  5
54
102
{ACAD_REACTORS
330
47
102
}
330
47
100
AcDbScale
 70
     0
300
2:1
140
2.0
141
1.0
290
     0
  0
SCALE
  5
55
102
{ACAD_REACTORS
330
47
102
}
330
47
100
AcDbScale
 70
     0
300
4:1
140
4.0
141
1.0
290
     0
  0
SCALE
  5
56
102
{ACAD_REACTORS
330
47
102
}
330
47
100
AcDbScale
 70
     0
300
8:1
140
8.0
141
1.0
290
     0
  0
SCALE
  5
57
102
{ACAD_REACTORS
330
47
102
}
330
47
100
AcDbScale
 70
     0
300
10:1
140
10.0
141
1.0
290
     0
  0
SCALE
  5
58
102
{ACAD_REACTORS
330
47
102
}
330
47
100
AcDbScale
 70
     0
300
100:1
140
100.0
141
1.0
290
     0
  0
SCALE
  5
59
102
{ACAD_REACTORS
330
47
102
}
330
47
100
AcDbScale
 70
     0
300
1/128" = 1'-0"
140
0.0078125
141
12.0
290
     0
  0
SCALE
  5
5A
102
{ACAD_REACTORS
330
47
102
}
330
47
100
AcDbScale
 70
     0
300
1/64" = 1'-0"
140
0.015625
141
12.0
290
     0
  0
SCALE
  5
5B
102
{ACAD_REACTORS
330
47
102
}
330
47
100
AcDbScale
 70
     0
300
1/32" = 1'-0"
140
0.03125
141
12.0
290
     0
  0
SCALE
  5
5C
102
{ACAD_REACTORS
330
47
102
}
330
47
100
AcDbScale
 70
     0
300
1/16" = 1'-0"
140
0.0625
141
12.0
290
     0
  0
SCALE
  5
5D
102
{ACAD_REACTORS
330
47
102
}
330
47
100
AcDbScale
 70
     0
300
3/32" = 1'-0"
140
0.09375
141
12.0
290
     0
  0
SCALE
  5
5E
102
{ACAD_REACTORS
330
47
102
}
330
47
100
AcDbScale
 70
     0
300
1/8" = 1'-0"
140
0.125
141
12.0
290
     0
  0
SCALE
  5
5F
102
{ACAD_REACTORS
330
47
102
}
330
47
100
AcDbScale
 70
     0
300
3/16" = 1'-0"
140
0.1875
141
12.0
290
     0
  0
SCALE
  5
60
102
{ACAD_REACTORS
330
47
102
}
330
47
100
AcDbScale
 70
     0
300
1/4" = 1'-0"
140
0.25
141
12.0
290
     0
  0
SCALE
  5
61
102
{ACAD_REACTORS
330
47
102
}
330
47
100
AcDbScale
 70
     0
300
3/8" = 1'-0"
140
0.375
141
12.0
290
     0
  0
SCALE
  5
62
102
{ACAD_REACTORS
330
47
102
}
330
47
100
AcDbScale
 70
     0
300
1/2" = 1'-0"
140
0.5
141
12.0
290
     0
  0
SCALE
  5
63
102
{ACAD_REACTORS
330
47
102
}
330
47
100
AcDbScale
 70
     0
300
3/4" = 1'-0"
140
0.75
141
12.0
290
     0
  0
SCALE
  5
64
102
{ACAD_REACTORS
330
47
102
}
330
47
100
AcDbScale
 70
     0
300
1" = 1'-0"
140
1.0
141
12.0
290
     0
  0
SCALE
  5
65
102
{ACAD_REACTORS
330
47
102
}
330
47
100
AcDbScale
 70
     0
300
1-1/2" = 1'-0"
140
1.5
141
12.0
290
     0
  0
SCALE
  5
66
102
{ACAD_REACTORS
330
47
102
}
330
47
100
AcDbScale
 70
     0
300
3" = 1'-0"
140
3.0
141
12.0
290
     0
  0
SCALE
  5
67
102
{ACAD_REACTORS
330
47
102
}
330
47
100
AcDbScale
 70
     0
300
6" = 1'-0"
140
6.0
141
12.0
290
     0
  0
SCALE
  5
68
102
{ACAD_REACTORS
330
47
102
}
330
47
100
AcDbScale
 70
     0
300
1'-0" = 1'-0"
140
12.0
141
12.0
290
     0
  0
VISUALSTYLE
  5
2F
102
{ACAD_REACTORS
330
2A
102
}
102
{ACAD_XDICTIONARY
360
395
102
}
330
2A
100
AcDbVisualStyle
  2
2dWireframe
 70
     4
 71
     0
 72
     2
 73
     0
 90
        0
 40
0.6
 41
30.0
 62
     5
 63
     7
 74
     1
 91
        4
 64
     7
 65
   257
 75
     1
175
     1
 42
1.0
 92
        0
 66
   257
 43
1.0
 76
     1
 77
     6
 78
     2
 67
     7
 79
     5
170
     0
171
     0
290
     0
174
     0
 93
        1
 44
0.0
173
     0
291
     0
 45
0.0
1001
ACAD
1000
AcDbSavedByObjectVersion
1070
     0
  0
VISUALSTYLE
  5
32
102
{ACAD_REACTORS
330
2A
102
}
102
{ACAD_XDICTIONARY
360
39B
102
}
330
2A
100
AcDbVisualStyle
  2
Basic
 70
     7
 71
     1
 72
     0
 73
     1
 90
        0
 40
0.6
 41
30.0
 62
     5
 63
     7
 74
     0
 91
        4
 64
     7
 65
   257
 75
     1
175
     1
 42
1.0
 92
        8
 66
     7
 43
1.0
 76
     1
 77
     6
 78
     2
 67
     7
 79
     5
170
     0
171
     0
290
     0
174
     0
 93
        1
 44
0.0
173
     0
291
     1
 45
0.0
1001
ACAD
1000
AcDbSavedByObjectVersion
1070
     0
  0
VISUALSTYLE
  5
36
102
{ACAD_REACTORS
330
2A
102
}
102
{ACAD_XDICTIONARY
360
3A3
102
}
330
2A
100
AcDbVisualStyle
  2
Brighten
 70
    12
 71
     2
 72
     2
 73
     0
 90
        0
 40
0.6
 41
30.0
 62
     5
 63
     7
 74
     1
 91
        4
 64
     7
 65
   257
 75
     1
175
     1
 42
1.0
 92
        8
 66
     7
 43
1.0
 76
     1
 77
     6
 78
     2
 67
     7
 79
     5
170
     0
171
     0
290
     0
174
     0
 93
        1
 44
50.0
173
     0
291
     1
 45
0.0
1001
ACAD
1000
AcDbSavedByObjectVersion
1070
     0
  0
VISUALSTYLE
  5
3A
102
{ACAD_REACTORS
330
2A
102
}
102
{ACAD_XDICTIONARY
360
3AB
102
}
330
2A
100
AcDbVisualStyle
  2
ColorChange
 70
    16
 71
     2
 72
     2
 73
     3
 90
        0
 40
0.6
 41
30.0
 62
     5
 63
     8
 74
     1
 91
        4
 64
     7
 65
   257
 75
     1
175
     1
 42
1.0
 92
        8
 66
     8
 43
1.0
 76
     1
 77
     6
 78
     2
 67
     7
 79
     5
170
     0
171
     0
290
     0
174
     0
 93
        1
 44
0.0
173
     0
291
     1
 45
0.0
1001
ACAD
1000
AcDbSavedByObjectVersion
1070
     0
  0
VISUALSTYLE
  5
34
102
{ACAD_REACTORS
330
2A
102
}
102
{ACAD_XDICTIONARY
360
39F
102
}
330
2A
100
AcDbVisualStyle
  2
Conceptual
 70
     9
 71
     3
 72
     2
 73
     0
 90
        0
 40
0.6
 41
30.0
 62
     5
 63
     7
 74
     2
 91
        2
 64
     7
 65
   257
 75
     1
175
     1
 42
179.0
 92
        8
 66
     7
 43
1.0
 76
     1
 77
     6
 78
     2
 67
     7
 79
     3
170
     0
171
     0
290
     0
174
     0
 93
        1
 44
0.0
173
     0
291
     0
 45
0.0
1001
ACAD
1000
AcDbSavedByObjectVersion
1070
     0
  0
VISUALSTYLE
  5
35
102
{ACAD_REACTORS
330
2A
102
}
102
{ACAD_XDICTIONARY
360
3A1
102
}
330
2A
100
AcDbVisualStyle
  2
Dim
 70
    11
 71
     2
 72
     2
 73
     0
 90
        0
 40
0.6
 41
30.0
 62
     5
 63
     7
 74
     1
 91
        4
 64
     7
 65
   257
 75
     1
175
     1
 42
1.0
 92
        8
 66
     7
 43
1.0
 76
     1
 77
     6
 78
     2
 67
     7
 79
     5
170
     0
171
     0
290
     0
174
     0
 93
        1
 44
-50.0
173
     0
291
     1
 45
0.0
1001
ACAD
1000
AcDbSavedByObjectVersion
1070
     0
  0
VISUALSTYLE
  5
3D
102
{ACAD_REACTORS
330
2A
102
}
102
{ACAD_XDICTIONARY
360
3B1
102
}
330
2A
100
AcDbVisualStyle
  2
EdgeColorOff
 70
    22
 71
     2
 72
     2
 73
     0
 90
        0
 40
0.6
 41
30.0
 62
     5
 63
     7
 74
     1
 91
        4
 64
     7
 65
   257
 75
     1
175
     1
 42
1.0
 92
        8
 66
     7
 43
1.0
 76
     1
 77
     6
 78
     2
 67
     7
 79
     5
170
     0
171
     0
290
     0
174
     0
 93
        1
 44
0.0
173
     0
291
     1
 45
0.0
1001
ACAD
1000
AcDbSavedByObjectVersion
1070
     0
  0
VISUALSTYLE
  5
39
102
{ACAD_REACTORS
330
2A
102
}
102
{ACAD_XDICTIONARY
360
3A9
102
}
330
2A
100
AcDbVisualStyle
  2
Facepattern
 70
    15
 71
     2
 72
     2
 73
     0
 90
        0
 40
0.6
 41
30.0
 62
     5
 63
     7
 74
     1
 91
        4
 64
     7
 65
   257
 75
     1
175
     1
 42
1.0
 92
        8
 66
     7
 43
1.0
 76
     1
 77
     6
 78
     2
 67
     7
 79
     5
170
     0
171
     0
290
     0
174
     0
 93
        1
 44
0.0
173
     0
291
     1
 45
0.0
1001
ACAD
1000
AcDbSavedByObjectVersion
1070
     0
  0
VISUALSTYLE
  5
2B
102
{ACAD_REACTORS
330
2A
102
}
102
{ACAD_XDICTIONARY
360
38D
102
}
330
2A
100
AcDbVisualStyle
  2
Flat
 70
     0
 71
     2
 72
     1
 73
     1
 90
        2
 40
0.6
 41
30.0
 62
     5
 63
     7
 74
     0
 91
        0
 64
     7
 65
   257
 75
     1
175
     1
 42
1.0
 92
        8
 66
     7
 43
1.0
 76
     1
 77
     6
 78
     2
 67
     7
 79
     5
170
     0
171
     0
290
     0
174
     0
 93
       13
 44
0.0
173
     0
291
     1
 45
0.0
1001
ACAD
1000
AcDbSavedByObjectVersion
1070
     0
  0
VISUALSTYLE
  5
2C
102
{ACAD_REACTORS
330
2A
102
}
102
{ACAD_XDICTIONARY
360
38F
102
}
330
2A
100
AcDbVisualStyle
  2
FlatWithEdges
 70
     1
 71
     2
 72
     1
 73
     1
 90
        2
 40
0.6
 41
30.0
 62
     5
 63
     7
 74
     1
 91
        0
 64
     7
 65
   257
 75
     1
175
     1
 42
1.0
 92
        0
 66
   257
 43
1.0
 76
     1
 77
     6
 78
     2
 67
     7
 79
     5
170
     0
171
     0
290
     0
174
     0
 93
       13
 44
0.0
173
     0
291
     1
 45
0.0
1001
ACAD
1000
AcDbSavedByObjectVersion
1070
     0
  0
VISUALSTYLE
  5
2D
102
{ACAD_REACTORS
330
2A
102
}
102
{ACAD_XDICTIONARY
360
391
102
}
330
2A
100
AcDbVisualStyle
  2
Gouraud
 70
     2
 71
     2
 72
     2
 73
     1
 90
        2
 40
0.6
 41
30.0
 62
     5
 63
     7
 74
     0
 91
        0
 64
     7
 65
   257
 75
     1
175
     1
 42
1.0
 92
        0
 66
     7
 43
1.0
 76
     1
 77
     6
 78
     2
 67
     7
 79
     5
170
     0
171
     0
290
     0
174
     0
 93
       13
 44
0.0
173
     0
291
     1
 45
0.0
1001
ACAD
1000
AcDbSavedByObjectVersion
1070
     0
  0
VISUALSTYLE
  5
2E
102
{ACAD_REACTORS
330
2A
102
}
102
{ACAD_XDICTIONARY
360
393
102
}
330
2A
100
AcDbVisualStyle
  2
GouraudWithEdges
 70
     3
 71
     2
 72
     2
 73
     1
 90
        2
 40
0.6
 41
30.0
 62
     5
 63
     7
 74
     1
 91
        0
 64
     7
 65
   257
 75
     1
175
     1
 42
1.0
 92
        0
 66
   257
 43
1.0
 76
     1
 77
     6
 78
     2
 67
     7
 79
     5
170
     0
171
     0
290
     0
174
     0
 93
       13
 44
0.0
173
     0
291
     1
 45
0.0
1001
ACAD
1000
AcDbSavedByObjectVersion
1070
     0
  0
VISUALSTYLE
  5
31
102
{ACAD_REACTORS
330
2A
102
}
102
{ACAD_XDICTIONARY
360
399
102
}
330
2A
100
AcDbVisualStyle
  2
Hidden
 70
     6
 71
     1
 72
     2
 73
     2
 90
        0
 40
0.6
 41
30.0
 62
     5
 63
     7
 74
     2
 91
        2
 64
     7
 65
   257
 75
     2
175
     1
 42
40.0
 92
        0
 66
   257
 43
1.0
 76
     1
 77
     6
 78
     2
 67
     7
 79
     3
170
     0
171
     0
290
     0
174
     0
 93
        1
 44
0.0
173
     0
291
     0
 45
0.0
1001
ACAD
1000
AcDbSavedByObjectVersion
1070
     0
  0
VISUALSTYLE
  5
3B
102
{ACAD_REACTORS
330
2A
102
}
102
{ACAD_XDICTIONARY
360
3AD
102
}
330
2A
100
AcDbVisualStyle
  2
JitterOff
 70
    20
 71
     2
 72
     2
 73
     0
 90
        0
 40
0.6
 41
30.0
 62
     5
 63
     7
 74
     1
 91
        4
 64
     7
 65
   257
 75
     1
175
     1
 42
1.0
 92
       10
 66
     7
 43
1.0
 76
     1
 77
     6
 78
     2
 67
     7
 79
     5
170
     0
171
     0
290
     0
174
     0
 93
        1
 44
0.0
173
     0
291
     1
 45
0.0
1001
ACAD
1000
AcDbSavedByObjectVersion
1070
     0
  0
VISUALSTYLE
  5
38
102
{ACAD_REACTORS
330
2A
102
}
102
{ACAD_XDICTIONARY
360
3A7
102
}
330
2A
100
AcDbVisualStyle
  2
Linepattern
 70
    14
 71
     2
 72
     2
 73
     0
 90
        0
 40
0.6
 41
30.0
 62
     5
 63
     7
 74
     1
 91
        4
 64
     7
 65
   257
 75
     7
175
     7
 42
1.0
 92
        8
 66
     7
 43
1.0
 76
     1
 77
     6
 78
     2
 67
     7
 79
     5
170
     0
171
     0
290
     0
174
     0
 93
        1
 44
0.0
173
     0
291
     1
 45
0.0
1001
ACAD
1000
AcDbSavedByObjectVersion
1070
     0
  0
VISUALSTYLE
  5
3C
102
{ACAD_REACTORS
330
2A
102
}
102
{ACAD_XDICTIONARY
360
3AF
102
}
330
2A
100
AcDbVisualStyle
  2
OverhangOff
 70
    21
 71
     2
 72
     2
 73
     0
 90
        0
 40
0.6
 41
30.0
 62
     5
 63
     7
 74
     1
 91
        4
 64
     7
 65
   257
 75
     1
175
     1
 42
1.0
 92
        9
 66
     7
 43
1.0
 76
     1
 77
     6
 78
     2
 67
     7
 79
     5
170
     0
171
     0
290
     0
174
     0
 93
        1
 44
0.0
173
     0
291
     1
 45
0.0
1001
ACAD
1000
AcDbSavedByObjectVersion
1070
     0
  0
VISUALSTYLE
  5
33
102
{ACAD_REACTORS
330
2A
102
}
102
{ACAD_XDICTIONARY
360
39D
102
}
330
2A
100
AcDbVisualStyle
  2
Realistic
 70
     8
 71
     2
 72
     3
 73
     0
 90
        2
 40
0.6
 41
30.0
 62
     5
 63
     7
 74
     0
 91
        0
 64
     7
 65
   257
 75
     1
175
     1
 42
1.0
 92
        8
 66
   257
 43
1.0
 76
     1
 77
     6
 78
     2
 67
     7
 79
     3
170
     0
171
     0
290
     0
174
     0
 93
       13
 44
0.0
173
     0
291
     0
 45
0.0
1001
ACAD
1000
AcDbSavedByObjectVersion
1070
     0
  0
VISUALSTYLE
  5
42
102
{ACAD_REACTORS
330
2A
102
}
102
{ACAD_XDICTIONARY
360
3BB
102
}
330
2A
100
AcDbVisualStyle
  2
Shaded
 70
    27
 71
     2
 72
     2
 73
     1
 90
        2
 40
0.6
 41
30.0
 62
     5
 63
     7
 74
     0
 91
        4
 64
     7
 65
   257
 75
     1
175
     1
 42
1.0
 92
        8
 66
   257
 43
1.0
 76
     1
 77
     6
 78
     2
 67
     8
 79
     3
170
     0
171
     0
290
     0
174
     0
 93
        5
 44
0.0
173
     0
291
     0
 45
0.0
1001
ACAD
1000
AcDbSavedByObjectVersion
1070
     0
  0
VISUALSTYLE
  5
41
102
{ACAD_REACTORS
330
2A
102
}
102
{ACAD_XDICTIONARY
360
3B9
102
}
330
2A
100
AcDbVisualStyle
  2
Shaded with edges
 70
    26
 71
     2
 72
     2
 73
     1
 90
        2
 40
0.6
 41
30.0
 62
     5
 63
     7
 74
     1
 91
       10
 64
     7
 65
   257
 75
     2
175
     1
 42
1.0
 92
        8
 66
   257
 43
1.0
 76
     1
 77
     6
 78
     2
 67
     7
 79
     3
170
     0
171
     0
290
     0
174
     0
 93
        5
 44
0.0
173
     0
291
     0
 45
0.0
1001
ACAD
1000
AcDbSavedByObjectVersion
1070
     0
  0
VISUALSTYLE
  5
3E
102
{ACAD_REACTORS
330
2A
102
}
102
{ACAD_XDICTIONARY
360
3B3
102
}
330
2A
100
AcDbVisualStyle
  2
Shades of Gray
 70
    23
 71
     2
 72
     2
 73
     3
 90
        0
 40
0.6
 41
30.0
 62
     5
 63
     7
 74
     2
 91
        2
 64
     7
 65
     7
 75
     1
175
     1
 42
40.0
 92
        8
 66
     7
 43
1.0
 76
     1
 77
     6
 78
     2
 67
     7
 79
     3
170
     0
171
     0
290
     0
174
     0
 93
        1
 44
0.0
173
     0
291
     0
 45
0.0
1001
ACAD
1000
AcDbSavedByObjectVersion
1070
     0
  0
VISUALSTYLE
  5
3F
102
{ACAD_REACTORS
330
2A
102
}
102
{ACAD_XDICTIONARY
360
3B5
102
}
330
2A
100
AcDbVisualStyle
  2
Sketchy
 70
    24
 71
     1
 72
     2
 73
     2
 90
        0
 40
0.6
 41
30.0
 62
     5
 63
     7
 74
     2
 91
        2
 64
     7
 65
     7
 75
     1
175
     1
 42
40.0
 92
       11
 66
     7
 43
1.0
 76
     1
 77
     6
 78
     2
 67
     7
 79
     6
170
     0
171
     0
290
     0
174
     0
 93
        1
 44
0.0
173
     0
291
     0
 45
0.0
1001
ACAD
1000
AcDbSavedByObjectVersion
1070
     0
  0
VISUALSTYLE
  5
37
102
{ACAD_REACTORS
330
2A
102
}
102
{ACAD_XDICTIONARY
360
3A5
102
}
330
2A
100
AcDbVisualStyle
  2
Thicken
 70
    13
 71
     2
 72
     2
 73
     0
 90
        0
 40
0.6
 41
30.0
 62
     5
 63
     7
 74
     1
 91
        4
 64
     7
 65
   257
 75
     1
175
     1
 42
1.0
 92
       12
 66
     7
 43
1.0
 76
     1
 77
     6
 78
     2
 67
     7
 79
     5
170
     0
171
     0
290
     0
174
     0
 93
        1
 44
0.0
173
     0
291
     1
 45
0.0
1001
ACAD
1000
AcDbSavedByObjectVersion
1070
     0
  0
VISUALSTYLE
  5
30
102
{ACAD_REACTORS
330
2A
102
}
102
{ACAD_XDICTIONARY
360
397
102
}
330
2A
100
AcDbVisualStyle
  2
Wireframe
 70
     5
 71
     0
 72
     2
 73
     0
 90
        0
 40
0.6
 41
30.0
 62
     5
 63
     7
 74
     1
 91
        4
 64
     7
 65
   257
 75
     1
175
     1
 42
1.0
 92
        0
 66
   257
 43
1.0
 76
     1
 77
     6
 78
     2
 67
     7
 79
     3
170
     0
171
     0
290
     0
174
     0
 93
        1
 44
0.0
173
     0
291
     0
 45
0.0
1001
ACAD
1000
AcDbSavedByObjectVersion
1070
     0
  0
VISUALSTYLE
  5
40
102
{ACAD_REACTORS
330
2A
102
}
102
{ACAD_XDICTIONARY
360
3B7
102
}
330
2A
100
AcDbVisualStyle
  2
X-Ray
 70
    25
 71
     2
 72
     2
 73
     1
 90
        1
 40
0.5
 41
30.0
 62
     5
 63
     7
 74
     1
 91
        0
 64
     7
 65
   257
 75
     1
175
     1
 42
1.0
 92
        8
 66
     7
 43
1.0
 76
     1
 77
     6
 78
     2
 67
     7
 79
     3
170
     0
171
     0
290
     0
174
     0
 93
       13
 44
0.0
173
     0
291
     0
 45
0.0
1001
ACAD
1000
AcDbSavedByObjectVersion
1070
     0
  0
DICTIONARYVAR
  5
38B
102
{ACAD_REACTORS
330
384
102
}
330
384
100
DictionaryVariables
280
     0
  1
1:1
  0
DICTIONARYVAR
  5
389
102
{ACAD_REACTORS
330
384
102
}
330
384
100
DictionaryVariables
280
     0
  1
2
  0
DICTIONARYVAR
  5
38A
102
{ACAD_REACTORS
330
384
102
}
330
384
100
DictionaryVariables
280
     0
  1
1
  0
DICTIONARYVAR
  5
38C
102
{ACAD_REACTORS
330
384
102
}
330
384
100
DictionaryVariables
280
     0
  1
1
  0
DICTIONARY
  5
3BF
330
45
100
AcDbDictionary
280
     1
281
     1
  3
ACAD_XREC_ROUNDTRIP
360
3C0
  0
DICTIONARY
  5
3BD
330
44
100
AcDbDictionary
280
     1
281
     1
  3
ACAD_XREC_ROUNDTRIP
360
3BE
  0
DICTIONARY
  5
3C1
330
46
100
AcDbDictionary
280
     1
281
     1
  3
ACAD_XREC_ROUNDTRIP
360
3C2
  0
DICTIONARY
  5
395
330
2F
100
AcDbDictionary
280
     1
281
     1
  3
ACAD_XREC_ROUNDTRIP
360
396
  0
DICTIONARY
  5
39B
330
32
100
AcDbDictionary
280
     1
281
     1
  3
ACAD_XREC_ROUNDTRIP
360
39C
  0
DICTIONARY
  5
3A3
330
36
100
AcDbDictionary
280
     1
281
     1
  3
ACAD_XREC_ROUNDTRIP
360
3A4
  0
DICTIONARY
  5
3AB
330
3A
100
AcDbDictionary
280
     1
281
     1
  3
ACAD_XREC_ROUNDTRIP
360
3AC
  0
DICTIONARY
  5
39F
330
34
100
AcDbDictionary
280
     1
281
     1
  3
ACAD_XREC_ROUNDTRIP
360
3A0
  0
DICTIONARY
  5
3A1
330
35
100
AcDbDictionary
280
     1
281
     1
  3
ACAD_XREC_ROUNDTRIP
360
3A2
  0
DICTIONARY
  5
3B1
330
3D
100
AcDbDictionary
280
     1
281
     1
  3
ACAD_XREC_ROUNDTRIP
360
3B2
  0
DICTIONARY
  5
3A9
330
39
100
AcDbDictionary
280
     1
281
     1
  3
ACAD_XREC_ROUNDTRIP
360
3AA
  0
DICTIONARY
  5
38D
330
2B
100
AcDbDictionary
280
     1
281
     1
  3
ACAD_XREC_ROUNDTRIP
360
38E
  0
DICTIONARY
  5
38F
330
2C
100
AcDbDictionary
280
     1
281
     1
  3
ACAD_XREC_ROUNDTRIP
360
390
  0
DICTIONARY
  5
391
330
2D
100
AcDbDictionary
280
     1
281
     1
  3
ACAD_XREC_ROUNDTRIP
360
392
  0
DICTIONARY
  5
393
330
2E
100
AcDbDictionary
280
     1
281
     1
  3
ACAD_XREC_ROUNDTRIP
360
394
  0
DICTIONARY
  5
399
330
31
100
AcDbDictionary
280
     1
281
     1
  3
ACAD_XREC_ROUNDTRIP
360
39A
  0
DICTIONARY
  5
3AD
330
3B
100
AcDbDictionary
280
     1
281
     1
  3
ACAD_XREC_ROUNDTRIP
360
3AE
  0
DICTIONARY
  5
3A7
330
38
100
AcDbDictionary
280
     1
281
     1
  3
ACAD_XREC_ROUNDTRIP
360
3A8
  0
DICTIONARY
  5
3AF
330
3C
100
AcDbDictionary
280
     1
281
     1
  3
ACAD_XREC_ROUNDTRIP
360
3B0
  0
DICTIONARY
  5
39D
330
33
100
AcDbDictionary
280
     1
281
     1
  3
ACAD_XREC_ROUNDTRIP
360
39E
  0
DICTIONARY
  5
3BB
330
42
100
AcDbDictionary
280
     1
281
     1
  3
ACAD_XREC_ROUNDTRIP
360
3BC
  0
DICTIONARY
  5
3B9
330
41
100
AcDbDictionary
280
     1
281
     1
  3
ACAD_XREC_ROUNDTRIP
360
3BA
  0
DICTIONARY
  5
3B3
330
3E
100
AcDbDictionary
280
     1
281
     1
  3
ACAD_XREC_ROUNDTRIP
360
3B4
  0
DICTIONARY
  5
3B5
330
3F
100
AcDbDictionary
280
     1
281
     1
  3
ACAD_XREC_ROUNDTRIP
360
3B6
  0
DICTIONARY
  5
3A5
330
37
100
AcDbDictionary
280
     1
281
     1
  3
ACAD_XREC_ROUNDTRIP
360
3A6
  0
DICTIONARY
  5
397
330
30
100
AcDbDictionary
280
     1
281
     1
  3
ACAD_XREC_ROUNDTRIP
360
398
  0
DICTIONARY
  5
3B7
330
40
100
AcDbDictionary
280
     1
281
     1
  3
ACAD_XREC_ROUNDTRIP
360
3B8
  0
XRECORD
  5
3C0
102
{ACAD_REACTORS
330
3BF
102
}
330
3BF
100
AcDbXrecord
280
     1
102
MATERIAL
148
0.0
149
0.0
149
0.0
 93
        0
 94
      127
282
     0
 72
     1
 77
     1
171
     1
175
     1
179
     1
273
     0
  0
XRECORD
  5
3BE
102
{ACAD_REACTORS
330
3BD
102
}
330
3BD
100
AcDbXrecord
280
     1
102
MATERIAL
148
0.0
149
0.0
149
0.0
 93
        0
 94
      127
282
     0
 72
     1
 77
     1
171
     1
175
     1
179
     1
273
     0
  0
XRECORD
  5
3C2
102
{ACAD_REACTORS
330
3C1
102
}
330
3C1
100
AcDbXrecord
280
     1
102
MATERIAL
148
0.0
149
0.0
149
0.0
 93
        0
 94
      127
282
     0
 72
     1
 77
     1
171
     1
175
     1
179
     1
273
     0
  0
XRECORD
  5
396
102
{ACAD_REACTORS
330
395
102
}
330
395
100
AcDbXrecord
280
     1
102
RTVSPropertyOp0
 70
     1
102
RTVSPropertyOp1
 70
     1
102
RTVSPropertyOp2
 70
     1
102
RTVSPropertyOp3
 70
     1
102
RTVSPropertyOp4
 70
     1
102
RTVSPropertyOp5
 70
     1
102
RTVSPropertyOp6
 70
     1
102
RTVSPropertyOp7
 70
     1
102
RTVSPropertyOp8
 70
     1
102
RTVSPropertyOp9
 70
     1
102
RTVSPropertyOp10
 70
     1
102
RTVSPropertyOp11
 70
     1
102
RTVSPropertyOp12
 70
     1
102
RTVSPropertyOp13
 70
     1
102
RTVSPropertyOp14
 70
     1
102
RTVSPropertyOp15
 70
     1
102
RTVSPropertyOp16
 70
     1
102
RTVSPropertyOp17
 70
     1
102
RTVSPropertyOp18
 70
     1
102
RTVSPropertyOp19
 70
     1
102
RTVSPropertyOp20
 70
     1
102
RTVSPropertyOp21
 70
     1
102
RTVSPropertyOp22
 70
     1
102
RTVSPropertyOp23
 70
     1
102
RTVSPropertyOp24
 70
     1
102
RTVSPropertyOp25
 70
     1
102
RTVSPropertyOp26
 70
     1
102
RTVSPropertyOp27
 70
     1
102
RTVSPropertyOp28
 70
     1
102
RTVSPropertyOp29
 70
     1
102
RTVSPropertyOp30
 70
     1
102
RTVSPropertyOp31
 70
     1
102
RTVSPropertyOp32
 70
     1
102
RTVSPropertyOp33
 70
     1
102
RTVSPropertyOp34
 70
     1
102
RTVSPropertyOp35
 70
     1
102
RTVSPropertyOp36
 70
     1
102
RTVSPropertyOp37
 70
     1
102
RTVSPropertyOp38
 70
     1
102
RTVSPropertyOp39
 70
     1
102
RTVSPropertyOp40
 70
     1
102
RTVSPropertyOp41
 70
     1
102
RTVSPropertyOp42
 70
     1
102
RTVSPropertyOp43
 70
     1
102
RTVSPropertyOp44
 70
     1
102
RTVSPropertyOp45
 70
     1
102
RTVSPropertyOp46
 70
     1
102
RTVSPropertyOp47
 70
     1
102
RTVSPropertyOp48
 70
     1
102
RTVSPropertyOp49
 70
     1
102
RTVSPropertyOp50
 70
     1
102
RTVSPropertyOp51
 70
     0
102
RTVSPropertyOp52
 70
     0
102
RTVSPropertyOp53
 70
     1
102
RTVSPropertyOp54
 70
     1
102
RTVSPropertyOp55
 70
     1
102
RTVSPropertyOp56
 70
     1
102
RTVSPropertyOp57
 70
     1
102
RTVSPost2010Prop28
280
     1
102
RTVSPost2010PropOp28
 70
     1
102
RTVSPost2010Prop29
280
     1
102
RTVSPost2010PropOp29
 70
     1
102
RTVSPost2010Prop30
280
     0
102
RTVSPost2010PropOp30
 70
     1
102
RTVSPost2010Prop31
280
     0
102
RTVSPost2010PropOp31
 70
     1
102
RTVSPost2010Prop32
280
     0
102
RTVSPost2010PropOp32
 70
     1
102
RTVSPost2010Prop33
280
     0
102
RTVSPost2010PropOp33
 70
     1
102
RTVSPost2010Prop34
280
     0
102
RTVSPost2010PropOp34
 70
     1
102
RTVSPost2010Prop35
280
     0
102
RTVSPost2010PropOp35
 70
     1
102
RTVSPost2010Prop36
280
     0
102
RTVSPost2010PropOp36
 70
     1
102
RTVSPost2010Prop37
 90
       50
102
RTVSPost2010PropOp37
 70
     1
102
RTVSPost2010Prop38
140
0.0
102
RTVSPost2010PropOp38
 70
     1
102
RTVSPost2010Prop39
140
1.0
102
RTVSPost2010PropOp39
 70
     1
102
RTVSPost2010Prop40
 90
        0
102
RTVSPost2010PropOp40
 70
     1
102
RTVSPost2010Prop41ColorIndex
 90
       18
102
RTVSPost2010Prop41ColorRGB
 90
        0
102
RTVSPost2010PropOp41
 70
     1
102
RTVSPost2010Prop42
 90
       50
102
RTVSPost2010PropOp42
 70
     1
102
RTVSPost2010Prop43
 90
        3
102
RTVSPost2010PropOp43
 70
     1
102
RTVSPost2010Prop44ColorIndex
 90
        5
102
RTVSPost2010Prop44ColorRGB
 90
      255
102
RTVSPost2010PropOp44
 70
     1
102
RTVSPost2010Prop45
280
     0
102
RTVSPost2010PropOp45
 70
     1
102
RTVSPost2010Prop46
 90
       50
102
RTVSPost2010PropOp46
 70
     1
102
RTVSPost2010Prop47
 90
       50
102
RTVSPost2010PropOp47
 70
     1
102
RTVSPost2010Prop48
 90
       50
102
RTVSPost2010PropOp48
 70
     1
102
RTVSPost2010Prop49
280
     0
102
RTVSPost2010PropOp49
 70
     1
102
RTVSPost2010Prop50
 90
       50
102
RTVSPost2010PropOp50
 70
     1
102
RTVSPost2010Prop51ColorIndex
 90
      256
102
RTVSPost2010Prop51ColorRGB
 90
-16777216
102
RTVSPost2010PropOp51
 70
     0
102
RTVSPost2010Prop52
140
1.0
102
RTVSPost2010PropOp52
 70
     0
102
RTVSPost2010Prop53
 90
        2
102
RTVSPost2010PropOp53
 70
     1
102
RTVSPost2010Prop54
  1
strokes_ogs.tif
102
RTVSPost2010PropOp54
 70
     1
102
RTVSPost2010Prop55
280
     0
102
RTVSPost2010PropOp55
 70
     1
102
RTVSPost2010Prop56
140
1.0
102
RTVSPost2010PropOp56
 70
     1
102
RTVSPost2010Prop57
140
1.0
102
RTVSPost2010PropOp57
 70
     1
  0
XRECORD
  5
39C
102
{ACAD_REACTORS
330
39B
102
}
330
39B
100
AcDbXrecord
280
     1
102
RTVSPropertyOp0
 70
     1
102
RTVSPropertyOp1
 70
     1
102
RTVSPropertyOp2
 70
     1
102
RTVSPropertyOp3
 70
     1
102
RTVSPropertyOp4
 70
     1
102
RTVSPropertyOp5
 70
     1
102
RTVSPropertyOp6
 70
     1
102
RTVSPropertyOp7
 70
     1
102
RTVSPropertyOp8
 70
     1
102
RTVSPropertyOp9
 70
     1
102
RTVSPropertyOp10
 70
     1
102
RTVSPropertyOp11
 70
     1
102
RTVSPropertyOp12
 70
     1
102
RTVSPropertyOp13
 70
     1
102
RTVSPropertyOp14
 70
     1
102
RTVSPropertyOp15
 70
     1
102
RTVSPropertyOp16
 70
     1
102
RTVSPropertyOp17
 70
     1
102
RTVSPropertyOp18
 70
     1
102
RTVSPropertyOp19
 70
     1
102
RTVSPropertyOp20
 70
     1
102
RTVSPropertyOp21
 70
     1
102
RTVSPropertyOp22
 70
     1
102
RTVSPropertyOp23
 70
     1
102
RTVSPropertyOp24
 70
     1
102
RTVSPropertyOp25
 70
     1
102
RTVSPropertyOp26
 70
     1
102
RTVSPropertyOp27
 70
     1
102
RTVSPropertyOp28
 70
     1
102
RTVSPropertyOp29
 70
     1
102
RTVSPropertyOp30
 70
     1
102
RTVSPropertyOp31
 70
     1
102
RTVSPropertyOp32
 70
     1
102
RTVSPropertyOp33
 70
     1
102
RTVSPropertyOp34
 70
     1
102
RTVSPropertyOp35
 70
     1
102
RTVSPropertyOp36
 70
     1
102
RTVSPropertyOp37
 70
     1
102
RTVSPropertyOp38
 70
     1
102
RTVSPropertyOp39
 70
     1
102
RTVSPropertyOp40
 70
     1
102
RTVSPropertyOp41
 70
     1
102
RTVSPropertyOp42
 70
     1
102
RTVSPropertyOp43
 70
     1
102
RTVSPropertyOp44
 70
     1
102
RTVSPropertyOp45
 70
     1
102
RTVSPropertyOp46
 70
     1
102
RTVSPropertyOp47
 70
     1
102
RTVSPropertyOp48
 70
     1
102
RTVSPropertyOp49
 70
     1
102
RTVSPropertyOp50
 70
     1
102
RTVSPropertyOp51
 70
     0
102
RTVSPropertyOp52
 70
     0
102
RTVSPropertyOp53
 70
     1
102
RTVSPropertyOp54
 70
     1
102
RTVSPropertyOp55
 70
     1
102
RTVSPropertyOp56
 70
     1
102
RTVSPropertyOp57
 70
     1
102
RTVSPost2010Prop28
280
     0
102
RTVSPost2010PropOp28
 70
     1
102
RTVSPost2010Prop29
280
     1
102
RTVSPost2010PropOp29
 70
     1
102
RTVSPost2010Prop30
280
     1
102
RTVSPost2010PropOp30
 70
     1
102
RTVSPost2010Prop31
280
     0
102
RTVSPost2010PropOp31
 70
     1
102
RTVSPost2010Prop32
280
     0
102
RTVSPost2010PropOp32
 70
     1
102
RTVSPost2010Prop33
280
     0
102
RTVSPost2010PropOp33
 70
     1
102
RTVSPost2010Prop34
280
     0
102
RTVSPost2010PropOp34
 70
     1
102
RTVSPost2010Prop35
280
     0
102
RTVSPost2010PropOp35
 70
     1
102
RTVSPost2010Prop36
280
     0
102
RTVSPost2010PropOp36
 70
     1
102
RTVSPost2010Prop37
 90
       50
102
RTVSPost2010PropOp37
 70
     1
102
RTVSPost2010Prop38
140
0.0
102
RTVSPost2010PropOp38
 70
     1
102
RTVSPost2010Prop39
140
1.0
102
RTVSPost2010PropOp39
 70
     1
102
RTVSPost2010Prop40
 90
        0
102
RTVSPost2010PropOp40
 70
     1
102
RTVSPost2010Prop41ColorIndex
 90
       18
102
RTVSPost2010Prop41ColorRGB
 90
        0
102
RTVSPost2010PropOp41
 70
     1
102
RTVSPost2010Prop42
 90
       50
102
RTVSPost2010PropOp42
 70
     1
102
RTVSPost2010Prop43
 90
        3
102
RTVSPost2010PropOp43
 70
     1
102
RTVSPost2010Prop44ColorIndex
 90
        5
102
RTVSPost2010Prop44ColorRGB
 90
      255
102
RTVSPost2010PropOp44
 70
     1
102
RTVSPost2010Prop45
280
     0
102
RTVSPost2010PropOp45
 70
     1
102
RTVSPost2010Prop46
 90
       50
102
RTVSPost2010PropOp46
 70
     1
102
RTVSPost2010Prop47
 90
       50
102
RTVSPost2010PropOp47
 70
     1
102
RTVSPost2010Prop48
 90
       50
102
RTVSPost2010PropOp48
 70
     1
102
RTVSPost2010Prop49
280
     0
102
RTVSPost2010PropOp49
 70
     1
102
RTVSPost2010Prop50
 90
       50
102
RTVSPost2010PropOp50
 70
     1
102
RTVSPost2010Prop51ColorIndex
 90
      256
102
RTVSPost2010Prop51ColorRGB
 90
-16777216
102
RTVSPost2010PropOp51
 70
     0
102
RTVSPost2010Prop52
140
1.0
102
RTVSPost2010PropOp52
 70
     0
102
RTVSPost2010Prop53
 90
        2
102
RTVSPost2010PropOp53
 70
     1
102
RTVSPost2010Prop54
  1
strokes_ogs.tif
102
RTVSPost2010PropOp54
 70
     1
102
RTVSPost2010Prop55
280
     0
102
RTVSPost2010PropOp55
 70
     1
102
RTVSPost2010Prop56
140
1.0
102
RTVSPost2010PropOp56
 70
     1
102
RTVSPost2010Prop57
140
1.0
102
RTVSPost2010PropOp57
 70
     1
  0
XRECORD
  5
3A4
102
{ACAD_REACTORS
330
3A3
102
}
330
3A3
100
AcDbXrecord
280
     1
102
RTVSPropertyOp0
 70
     1
102
RTVSPropertyOp1
 70
     1
102
RTVSPropertyOp2
 70
     1
102
RTVSPropertyOp3
 70
     1
102
RTVSPropertyOp4
 70
     1
102
RTVSPropertyOp5
 70
     1
102
RTVSPropertyOp6
 70
     1
102
RTVSPropertyOp7
 70
     1
102
RTVSPropertyOp8
 70
     1
102
RTVSPropertyOp9
 70
     1
102
RTVSPropertyOp10
 70
     1
102
RTVSPropertyOp11
 70
     1
102
RTVSPropertyOp12
 70
     1
102
RTVSPropertyOp13
 70
     1
102
RTVSPropertyOp14
 70
     1
102
RTVSPropertyOp15
 70
     1
102
RTVSPropertyOp16
 70
     1
102
RTVSPropertyOp17
 70
     1
102
RTVSPropertyOp18
 70
     1
102
RTVSPropertyOp19
 70
     1
102
RTVSPropertyOp20
 70
     1
102
RTVSPropertyOp21
 70
     1
102
RTVSPropertyOp22
 70
     1
102
RTVSPropertyOp23
 70
     1
102
RTVSPropertyOp24
 70
     1
102
RTVSPropertyOp25
 70
     1
102
RTVSPropertyOp26
 70
     1
102
RTVSPropertyOp27
 70
     1
102
RTVSPropertyOp28
 70
     1
102
RTVSPropertyOp29
 70
     1
102
RTVSPropertyOp30
 70
     1
102
RTVSPropertyOp31
 70
     1
102
RTVSPropertyOp32
 70
     1
102
RTVSPropertyOp33
 70
     1
102
RTVSPropertyOp34
 70
     1
102
RTVSPropertyOp35
 70
     1
102
RTVSPropertyOp36
 70
     1
102
RTVSPropertyOp37
 70
     1
102
RTVSPropertyOp38
 70
     1
102
RTVSPropertyOp39
 70
     1
102
RTVSPropertyOp40
 70
     1
102
RTVSPropertyOp41
 70
     1
102
RTVSPropertyOp42
 70
     1
102
RTVSPropertyOp43
 70
     1
102
RTVSPropertyOp44
 70
     1
102
RTVSPropertyOp45
 70
     1
102
RTVSPropertyOp46
 70
     1
102
RTVSPropertyOp47
 70
     1
102
RTVSPropertyOp48
 70
     1
102
RTVSPropertyOp49
 70
     1
102
RTVSPropertyOp50
 70
     1
102
RTVSPropertyOp51
 70
     0
102
RTVSPropertyOp52
 70
     0
102
RTVSPropertyOp53
 70
     1
102
RTVSPropertyOp54
 70
     1
102
RTVSPropertyOp55
 70
     1
102
RTVSPropertyOp56
 70
     1
102
RTVSPropertyOp57
 70
     1
102
RTVSPost2010Prop28
280
     0
102
RTVSPost2010PropOp28
 70
     1
102
RTVSPost2010Prop29
280
     1
102
RTVSPost2010PropOp29
 70
     1
102
RTVSPost2010Prop30
280
     1
102
RTVSPost2010PropOp30
 70
     1
102
RTVSPost2010Prop31
280
     0
102
RTVSPost2010PropOp31
 70
     1
102
RTVSPost2010Prop32
280
     0
102
RTVSPost2010PropOp32
 70
     1
102
RTVSPost2010Prop33
280
     0
102
RTVSPost2010PropOp33
 70
     1
102
RTVSPost2010Prop34
280
     0
102
RTVSPost2010PropOp34
 70
     1
102
RTVSPost2010Prop35
280
     0
102
RTVSPost2010PropOp35
 70
     1
102
RTVSPost2010Prop36
280
     0
102
RTVSPost2010PropOp36
 70
     1
102
RTVSPost2010Prop37
 90
       50
102
RTVSPost2010PropOp37
 70
     1
102
RTVSPost2010Prop38
140
0.0
102
RTVSPost2010PropOp38
 70
     1
102
RTVSPost2010Prop39
140
1.0
102
RTVSPost2010PropOp39
 70
     1
102
RTVSPost2010Prop40
 90
        0
102
RTVSPost2010PropOp40
 70
     1
102
RTVSPost2010Prop41ColorIndex
 90
       18
102
RTVSPost2010Prop41ColorRGB
 90
        0
102
RTVSPost2010PropOp41
 70
     1
102
RTVSPost2010Prop42
 90
       50
102
RTVSPost2010PropOp42
 70
     1
102
RTVSPost2010Prop43
 90
        3
102
RTVSPost2010PropOp43
 70
     1
102
RTVSPost2010Prop44ColorIndex
 90
        5
102
RTVSPost2010Prop44ColorRGB
 90
      255
102
RTVSPost2010PropOp44
 70
     1
102
RTVSPost2010Prop45
280
     0
102
RTVSPost2010PropOp45
 70
     1
102
RTVSPost2010Prop46
 90
       50
102
RTVSPost2010PropOp46
 70
     1
102
RTVSPost2010Prop47
 90
       50
102
RTVSPost2010PropOp47
 70
     1
102
RTVSPost2010Prop48
 90
       50
102
RTVSPost2010PropOp48
 70
     1
102
RTVSPost2010Prop49
280
     0
102
RTVSPost2010PropOp49
 70
     1
102
RTVSPost2010Prop50
 90
       50
102
RTVSPost2010PropOp50
 70
     1
102
RTVSPost2010Prop51ColorIndex
 90
      256
102
RTVSPost2010Prop51ColorRGB
 90
-16777216
102
RTVSPost2010PropOp51
 70
     0
102
RTVSPost2010Prop52
140
1.0
102
RTVSPost2010PropOp52
 70
     0
102
RTVSPost2010Prop53
 90
        2
102
RTVSPost2010PropOp53
 70
     1
102
RTVSPost2010Prop54
  1
strokes_ogs.tif
102
RTVSPost2010PropOp54
 70
     1
102
RTVSPost2010Prop55
280
     0
102
RTVSPost2010PropOp55
 70
     1
102
RTVSPost2010Prop56
140
1.0
102
RTVSPost2010PropOp56
 70
     1
102
RTVSPost2010Prop57
140
1.0
102
RTVSPost2010PropOp57
 70
     1
  0
XRECORD
  5
3AC
102
{ACAD_REACTORS
330
3AB
102
}
330
3AB
100
AcDbXrecord
280
     1
102
RTVSPropertyOp0
 70
     1
102
RTVSPropertyOp1
 70
     1
102
RTVSPropertyOp2
 70
     1
102
RTVSPropertyOp3
 70
     1
102
RTVSPropertyOp4
 70
     1
102
RTVSPropertyOp5
 70
     1
102
RTVSPropertyOp6
 70
     1
102
RTVSPropertyOp7
 70
     1
102
RTVSPropertyOp8
 70
     1
102
RTVSPropertyOp9
 70
     1
102
RTVSPropertyOp10
 70
     1
102
RTVSPropertyOp11
 70
     1
102
RTVSPropertyOp12
 70
     1
102
RTVSPropertyOp13
 70
     1
102
RTVSPropertyOp14
 70
     1
102
RTVSPropertyOp15
 70
     1
102
RTVSPropertyOp16
 70
     1
102
RTVSPropertyOp17
 70
     1
102
RTVSPropertyOp18
 70
     1
102
RTVSPropertyOp19
 70
     1
102
RTVSPropertyOp20
 70
     1
102
RTVSPropertyOp21
 70
     1
102
RTVSPropertyOp22
 70
     1
102
RTVSPropertyOp23
 70
     1
102
RTVSPropertyOp24
 70
     1
102
RTVSPropertyOp25
 70
     1
102
RTVSPropertyOp26
 70
     1
102
RTVSPropertyOp27
 70
     1
102
RTVSPropertyOp28
 70
     1
102
RTVSPropertyOp29
 70
     1
102
RTVSPropertyOp30
 70
     1
102
RTVSPropertyOp31
 70
     1
102
RTVSPropertyOp32
 70
     1
102
RTVSPropertyOp33
 70
     1
102
RTVSPropertyOp34
 70
     1
102
RTVSPropertyOp35
 70
     1
102
RTVSPropertyOp36
 70
     1
102
RTVSPropertyOp37
 70
     1
102
RTVSPropertyOp38
 70
     1
102
RTVSPropertyOp39
 70
     1
102
RTVSPropertyOp40
 70
     1
102
RTVSPropertyOp41
 70
     1
102
RTVSPropertyOp42
 70
     1
102
RTVSPropertyOp43
 70
     1
102
RTVSPropertyOp44
 70
     1
102
RTVSPropertyOp45
 70
     1
102
RTVSPropertyOp46
 70
     1
102
RTVSPropertyOp47
 70
     1
102
RTVSPropertyOp48
 70
     1
102
RTVSPropertyOp49
 70
     1
102
RTVSPropertyOp50
 70
     1
102
RTVSPropertyOp51
 70
     0
102
RTVSPropertyOp52
 70
     0
102
RTVSPropertyOp53
 70
     1
102
RTVSPropertyOp54
 70
     1
102
RTVSPropertyOp55
 70
     1
102
RTVSPropertyOp56
 70
     1
102
RTVSPropertyOp57
 70
     1
102
RTVSPost2010Prop28
280
     0
102
RTVSPost2010PropOp28
 70
     1
102
RTVSPost2010Prop29
280
     1
102
RTVSPost2010PropOp29
 70
     1
102
RTVSPost2010Prop30
280
     1
102
RTVSPost2010PropOp30
 70
     1
102
RTVSPost2010Prop31
280
     0
102
RTVSPost2010PropOp31
 70
     1
102
RTVSPost2010Prop32
280
     0
102
RTVSPost2010PropOp32
 70
     1
102
RTVSPost2010Prop33
280
     0
102
RTVSPost2010PropOp33
 70
     1
102
RTVSPost2010Prop34
280
     0
102
RTVSPost2010PropOp34
 70
     1
102
RTVSPost2010Prop35
280
     0
102
RTVSPost2010PropOp35
 70
     1
102
RTVSPost2010Prop36
280
     0
102
RTVSPost2010PropOp36
 70
     1
102
RTVSPost2010Prop37
 90
       50
102
RTVSPost2010PropOp37
 70
     1
102
RTVSPost2010Prop38
140
0.0
102
RTVSPost2010PropOp38
 70
     1
102
RTVSPost2010Prop39
140
1.0
102
RTVSPost2010PropOp39
 70
     1
102
RTVSPost2010Prop40
 90
        0
102
RTVSPost2010PropOp40
 70
     1
102
RTVSPost2010Prop41ColorIndex
 90
       18
102
RTVSPost2010Prop41ColorRGB
 90
        0
102
RTVSPost2010PropOp41
 70
     1
102
RTVSPost2010Prop42
 90
       50
102
RTVSPost2010PropOp42
 70
     1
102
RTVSPost2010Prop43
 90
        3
102
RTVSPost2010PropOp43
 70
     1
102
RTVSPost2010Prop44ColorIndex
 90
        5
102
RTVSPost2010Prop44ColorRGB
 90
      255
102
RTVSPost2010PropOp44
 70
     1
102
RTVSPost2010Prop45
280
     0
102
RTVSPost2010PropOp45
 70
     1
102
RTVSPost2010Prop46
 90
       50
102
RTVSPost2010PropOp46
 70
     1
102
RTVSPost2010Prop47
 90
       50
102
RTVSPost2010PropOp47
 70
     1
102
RTVSPost2010Prop48
 90
       50
102
RTVSPost2010PropOp48
 70
     1
102
RTVSPost2010Prop49
280
     0
102
RTVSPost2010PropOp49
 70
     1
102
RTVSPost2010Prop50
 90
       50
102
RTVSPost2010PropOp50
 70
     1
102
RTVSPost2010Prop51ColorIndex
 90
      256
102
RTVSPost2010Prop51ColorRGB
 90
-16777216
102
RTVSPost2010PropOp51
 70
     0
102
RTVSPost2010Prop52
140
1.0
102
RTVSPost2010PropOp52
 70
     0
102
RTVSPost2010Prop53
 90
        2
102
RTVSPost2010PropOp53
 70
     1
102
RTVSPost2010Prop54
  1
strokes_ogs.tif
102
RTVSPost2010PropOp54
 70
     1
102
RTVSPost2010Prop55
280
     0
102
RTVSPost2010PropOp55
 70
     1
102
RTVSPost2010Prop56
140
1.0
102
RTVSPost2010PropOp56
 70
     1
102
RTVSPost2010Prop57
140
1.0
102
RTVSPost2010PropOp57
 70
     1
  0
XRECORD
  5
3A0
102
{ACAD_REACTORS
330
39F
102
}
330
39F
100
AcDbXrecord
280
     1
102
RTVSPropertyOp0
 70
     1
102
RTVSPropertyOp1
 70
     1
102
RTVSPropertyOp2
 70
     1
102
RTVSPropertyOp3
 70
     1
102
RTVSPropertyOp4
 70
     1
102
RTVSPropertyOp5
 70
     1
102
RTVSPropertyOp6
 70
     1
102
RTVSPropertyOp7
 70
     1
102
RTVSPropertyOp8
 70
     1
102
RTVSPropertyOp9
 70
     1
102
RTVSPropertyOp10
 70
     1
102
RTVSPropertyOp11
 70
     1
102
RTVSPropertyOp12
 70
     1
102
RTVSPropertyOp13
 70
     1
102
RTVSPropertyOp14
 70
     1
102
RTVSPropertyOp15
 70
     1
102
RTVSPropertyOp16
 70
     1
102
RTVSPropertyOp17
 70
     1
102
RTVSPropertyOp18
 70
     1
102
RTVSPropertyOp19
 70
     1
102
RTVSPropertyOp20
 70
     1
102
RTVSPropertyOp21
 70
     1
102
RTVSPropertyOp22
 70
     1
102
RTVSPropertyOp23
 70
     1
102
RTVSPropertyOp24
 70
     1
102
RTVSPropertyOp25
 70
     1
102
RTVSPropertyOp26
 70
     1
102
RTVSPropertyOp27
 70
     1
102
RTVSPropertyOp28
 70
     1
102
RTVSPropertyOp29
 70
     1
102
RTVSPropertyOp30
 70
     1
102
RTVSPropertyOp31
 70
     1
102
RTVSPropertyOp32
 70
     1
102
RTVSPropertyOp33
 70
     1
102
RTVSPropertyOp34
 70
     1
102
RTVSPropertyOp35
 70
     1
102
RTVSPropertyOp36
 70
     1
102
RTVSPropertyOp37
 70
     1
102
RTVSPropertyOp38
 70
     1
102
RTVSPropertyOp39
 70
     1
102
RTVSPropertyOp40
 70
     1
102
RTVSPropertyOp41
 70
     1
102
RTVSPropertyOp42
 70
     1
102
RTVSPropertyOp43
 70
     1
102
RTVSPropertyOp44
 70
     1
102
RTVSPropertyOp45
 70
     1
102
RTVSPropertyOp46
 70
     1
102
RTVSPropertyOp47
 70
     1
102
RTVSPropertyOp48
 70
     1
102
RTVSPropertyOp49
 70
     1
102
RTVSPropertyOp50
 70
     1
102
RTVSPropertyOp51
 70
     0
102
RTVSPropertyOp52
 70
     0
102
RTVSPropertyOp53
 70
     1
102
RTVSPropertyOp54
 70
     1
102
RTVSPropertyOp55
 70
     1
102
RTVSPropertyOp56
 70
     1
102
RTVSPropertyOp57
 70
     1
102
RTVSPost2010Prop28
280
     0
102
RTVSPost2010PropOp28
 70
     1
102
RTVSPost2010Prop29
280
     1
102
RTVSPost2010PropOp29
 70
     1
102
RTVSPost2010Prop30
280
     1
102
RTVSPost2010PropOp30
 70
     1
102
RTVSPost2010Prop31
280
     0
102
RTVSPost2010PropOp31
 70
     1
102
RTVSPost2010Prop32
280
     0
102
RTVSPost2010PropOp32
 70
     1
102
RTVSPost2010Prop33
280
     0
102
RTVSPost2010PropOp33
 70
     1
102
RTVSPost2010Prop34
280
     0
102
RTVSPost2010PropOp34
 70
     1
102
RTVSPost2010Prop35
280
     0
102
RTVSPost2010PropOp35
 70
     1
102
RTVSPost2010Prop36
280
     0
102
RTVSPost2010PropOp36
 70
     1
102
RTVSPost2010Prop37
 90
       50
102
RTVSPost2010PropOp37
 70
     1
102
RTVSPost2010Prop38
140
0.0
102
RTVSPost2010PropOp38
 70
     1
102
RTVSPost2010Prop39
140
1.0
102
RTVSPost2010PropOp39
 70
     1
102
RTVSPost2010Prop40
 90
        0
102
RTVSPost2010PropOp40
 70
     1
102
RTVSPost2010Prop41ColorIndex
 90
       18
102
RTVSPost2010Prop41ColorRGB
 90
        0
102
RTVSPost2010PropOp41
 70
     1
102
RTVSPost2010Prop42
 90
       50
102
RTVSPost2010PropOp42
 70
     1
102
RTVSPost2010Prop43
 90
        3
102
RTVSPost2010PropOp43
 70
     1
102
RTVSPost2010Prop44ColorIndex
 90
        5
102
RTVSPost2010Prop44ColorRGB
 90
      255
102
RTVSPost2010PropOp44
 70
     1
102
RTVSPost2010Prop45
280
     0
102
RTVSPost2010PropOp45
 70
     1
102
RTVSPost2010Prop46
 90
       50
102
RTVSPost2010PropOp46
 70
     1
102
RTVSPost2010Prop47
 90
       50
102
RTVSPost2010PropOp47
 70
     1
102
RTVSPost2010Prop48
 90
       50
102
RTVSPost2010PropOp48
 70
     1
102
RTVSPost2010Prop49
280
     0
102
RTVSPost2010PropOp49
 70
     1
102
RTVSPost2010Prop50
 90
       50
102
RTVSPost2010PropOp50
 70
     1
102
RTVSPost2010Prop51ColorIndex
 90
      256
102
RTVSPost2010Prop51ColorRGB
 90
-16777216
102
RTVSPost2010PropOp51
 70
     0
102
RTVSPost2010Prop52
140
1.0
102
RTVSPost2010PropOp52
 70
     0
102
RTVSPost2010Prop53
 90
        2
102
RTVSPost2010PropOp53
 70
     1
102
RTVSPost2010Prop54
  1
strokes_ogs.tif
102
RTVSPost2010PropOp54
 70
     1
102
RTVSPost2010Prop55
280
     0
102
RTVSPost2010PropOp55
 70
     1
102
RTVSPost2010Prop56
140
1.0
102
RTVSPost2010PropOp56
 70
     1
102
RTVSPost2010Prop57
140
1.0
102
RTVSPost2010PropOp57
 70
     1
  0
XRECORD
  5
3A2
102
{ACAD_REACTORS
330
3A1
102
}
330
3A1
100
AcDbXrecord
280
     1
102
RTVSPropertyOp0
 70
     1
102
RTVSPropertyOp1
 70
     1
102
RTVSPropertyOp2
 70
     1
102
RTVSPropertyOp3
 70
     1
102
RTVSPropertyOp4
 70
     1
102
RTVSPropertyOp5
 70
     1
102
RTVSPropertyOp6
 70
     1
102
RTVSPropertyOp7
 70
     1
102
RTVSPropertyOp8
 70
     1
102
RTVSPropertyOp9
 70
     1
102
RTVSPropertyOp10
 70
     1
102
RTVSPropertyOp11
 70
     1
102
RTVSPropertyOp12
 70
     1
102
RTVSPropertyOp13
 70
     1
102
RTVSPropertyOp14
 70
     1
102
RTVSPropertyOp15
 70
     1
102
RTVSPropertyOp16
 70
     1
102
RTVSPropertyOp17
 70
     1
102
RTVSPropertyOp18
 70
     1
102
RTVSPropertyOp19
 70
     1
102
RTVSPropertyOp20
 70
     1
102
RTVSPropertyOp21
 70
     1
102
RTVSPropertyOp22
 70
     1
102
RTVSPropertyOp23
 70
     1
102
RTVSPropertyOp24
 70
     1
102
RTVSPropertyOp25
 70
     1
102
RTVSPropertyOp26
 70
     1
102
RTVSPropertyOp27
 70
     1
102
RTVSPropertyOp28
 70
     1
102
RTVSPropertyOp29
 70
     1
102
RTVSPropertyOp30
 70
     1
102
RTVSPropertyOp31
 70
     1
102
RTVSPropertyOp32
 70
     1
102
RTVSPropertyOp33
 70
     1
102
RTVSPropertyOp34
 70
     1
102
RTVSPropertyOp35
 70
     1
102
RTVSPropertyOp36
 70
     1
102
RTVSPropertyOp37
 70
     1
102
RTVSPropertyOp38
 70
     1
102
RTVSPropertyOp39
 70
     1
102
RTVSPropertyOp40
 70
     1
102
RTVSPropertyOp41
 70
     1
102
RTVSPropertyOp42
 70
     1
102
RTVSPropertyOp43
 70
     1
102
RTVSPropertyOp44
 70
     1
102
RTVSPropertyOp45
 70
     1
102
RTVSPropertyOp46
 70
     1
102
RTVSPropertyOp47
 70
     1
102
RTVSPropertyOp48
 70
     1
102
RTVSPropertyOp49
 70
     1
102
RTVSPropertyOp50
 70
     1
102
RTVSPropertyOp51
 70
     0
102
RTVSPropertyOp52
 70
     0
102
RTVSPropertyOp53
 70
     1
102
RTVSPropertyOp54
 70
     1
102
RTVSPropertyOp55
 70
     1
102
RTVSPropertyOp56
 70
     1
102
RTVSPropertyOp57
 70
     1
102
RTVSPost2010Prop28
280
     0
102
RTVSPost2010PropOp28
 70
     1
102
RTVSPost2010Prop29
280
     1
102
RTVSPost2010PropOp29
 70
     1
102
RTVSPost2010Prop30
280
     1
102
RTVSPost2010PropOp30
 70
     1
102
RTVSPost2010Prop31
280
     0
102
RTVSPost2010PropOp31
 70
     1
102
RTVSPost2010Prop32
280
     0
102
RTVSPost2010PropOp32
 70
     1
102
RTVSPost2010Prop33
280
     0
102
RTVSPost2010PropOp33
 70
     1
102
RTVSPost2010Prop34
280
     0
102
RTVSPost2010PropOp34
 70
     1
102
RTVSPost2010Prop35
280
     0
102
RTVSPost2010PropOp35
 70
     1
102
RTVSPost2010Prop36
280
     0
102
RTVSPost2010PropOp36
 70
     1
102
RTVSPost2010Prop37
 90
       50
102
RTVSPost2010PropOp37
 70
     1
102
RTVSPost2010Prop38
140
0.0
102
RTVSPost2010PropOp38
 70
     1
102
RTVSPost2010Prop39
140
1.0
102
RTVSPost2010PropOp39
 70
     1
102
RTVSPost2010Prop40
 90
        0
102
RTVSPost2010PropOp40
 70
     1
102
RTVSPost2010Prop41ColorIndex
 90
       18
102
RTVSPost2010Prop41ColorRGB
 90
        0
102
RTVSPost2010PropOp41
 70
     1
102
RTVSPost2010Prop42
 90
       50
102
RTVSPost2010PropOp42
 70
     1
102
RTVSPost2010Prop43
 90
        3
102
RTVSPost2010PropOp43
 70
     1
102
RTVSPost2010Prop44ColorIndex
 90
        5
102
RTVSPost2010Prop44ColorRGB
 90
      255
102
RTVSPost2010PropOp44
 70
     1
102
RTVSPost2010Prop45
280
     0
102
RTVSPost2010PropOp45
 70
     1
102
RTVSPost2010Prop46
 90
       50
102
RTVSPost2010PropOp46
 70
     1
102
RTVSPost2010Prop47
 90
       50
102
RTVSPost2010PropOp47
 70
     1
102
RTVSPost2010Prop48
 90
       50
102
RTVSPost2010PropOp48
 70
     1
102
RTVSPost2010Prop49
280
     0
102
RTVSPost2010PropOp49
 70
     1
102
RTVSPost2010Prop50
 90
       50
102
RTVSPost2010PropOp50
 70
     1
102
RTVSPost2010Prop51ColorIndex
 90
      256
102
RTVSPost2010Prop51ColorRGB
 90
-16777216
102
RTVSPost2010PropOp51
 70
     0
102
RTVSPost2010Prop52
140
1.0
102
RTVSPost2010PropOp52
 70
     0
102
RTVSPost2010Prop53
 90
        2
102
RTVSPost2010PropOp53
 70
     1
102
RTVSPost2010Prop54
  1
strokes_ogs.tif
102
RTVSPost2010PropOp54
 70
     1
102
RTVSPost2010Prop55
280
     0
102
RTVSPost2010PropOp55
 70
     1
102
RTVSPost2010Prop56
140
1.0
102
RTVSPost2010PropOp56
 70
     1
102
RTVSPost2010Prop57
140
1.0
102
RTVSPost2010PropOp57
 70
     1
  0
XRECORD
  5
3B2
102
{ACAD_REACTORS
330
3B1
102
}
330
3B1
100
AcDbXrecord
280
     1
102
RTVSPropertyOp0
 70
     0
102
RTVSPropertyOp1
 70
     0
102
RTVSPropertyOp2
 70
     0
102
RTVSPropertyOp3
 70
     0
102
RTVSPropertyOp4
 70
     0
102
RTVSPropertyOp5
 70
     0
102
RTVSPropertyOp6
 70
     0
102
RTVSPropertyOp7
 70
     0
102
RTVSPropertyOp8
 70
     0
102
RTVSPropertyOp9
 70
     0
102
RTVSPropertyOp10
 70
     0
102
RTVSPropertyOp11
 70
     0
102
RTVSPropertyOp12
 70
     0
102
RTVSPropertyOp13
 70
     0
102
RTVSPropertyOp14
 70
     2
102
RTVSPropertyOp15
 70
     0
102
RTVSPropertyOp16
 70
     0
102
RTVSPropertyOp17
 70
     0
102
RTVSPropertyOp18
 70
     0
102
RTVSPropertyOp19
 70
     0
102
RTVSPropertyOp20
 70
     0
102
RTVSPropertyOp21
 70
     0
102
RTVSPropertyOp22
 70
     0
102
RTVSPropertyOp23
 70
     0
102
RTVSPropertyOp24
 70
     0
102
RTVSPropertyOp25
 70
     0
102
RTVSPropertyOp26
 70
     0
102
RTVSPropertyOp27
 70
     0
102
RTVSPropertyOp28
 70
     0
102
RTVSPropertyOp29
 70
     0
102
RTVSPropertyOp30
 70
     0
102
RTVSPropertyOp31
 70
     0
102
RTVSPropertyOp32
 70
     0
102
RTVSPropertyOp33
 70
     0
102
RTVSPropertyOp34
 70
     0
102
RTVSPropertyOp35
 70
     0
102
RTVSPropertyOp36
 70
     0
102
RTVSPropertyOp37
 70
     0
102
RTVSPropertyOp38
 70
     0
102
RTVSPropertyOp39
 70
     0
102
RTVSPropertyOp40
 70
     0
102
RTVSPropertyOp41
 70
     0
102
RTVSPropertyOp42
 70
     0
102
RTVSPropertyOp43
 70
     0
102
RTVSPropertyOp44
 70
     0
102
RTVSPropertyOp45
 70
     0
102
RTVSPropertyOp46
 70
     0
102
RTVSPropertyOp47
 70
     0
102
RTVSPropertyOp48
 70
     0
102
RTVSPropertyOp49
 70
     0
102
RTVSPropertyOp50
 70
     0
102
RTVSPropertyOp51
 70
     0
102
RTVSPropertyOp52
 70
     0
102
RTVSPropertyOp53
 70
     0
102
RTVSPropertyOp54
 70
     0
102
RTVSPropertyOp55
 70
     0
102
RTVSPropertyOp56
 70
     0
102
RTVSPropertyOp57
 70
     0
102
RTVSPost2010Prop28
280
     0
102
RTVSPost2010PropOp28
 70
     0
102
RTVSPost2010Prop29
280
     1
102
RTVSPost2010PropOp29
 70
     0
102
RTVSPost2010Prop30
280
     1
102
RTVSPost2010PropOp30
 70
     0
102
RTVSPost2010Prop31
280
     0
102
RTVSPost2010PropOp31
 70
     0
102
RTVSPost2010Prop32
280
     0
102
RTVSPost2010PropOp32
 70
     0
102
RTVSPost2010Prop33
280
     0
102
RTVSPost2010PropOp33
 70
     0
102
RTVSPost2010Prop34
280
     0
102
RTVSPost2010PropOp34
 70
     0
102
RTVSPost2010Prop35
280
     0
102
RTVSPost2010PropOp35
 70
     0
102
RTVSPost2010Prop36
280
     0
102
RTVSPost2010PropOp36
 70
     0
102
RTVSPost2010Prop37
 90
       50
102
RTVSPost2010PropOp37
 70
     0
102
RTVSPost2010Prop38
140
0.0
102
RTVSPost2010PropOp38
 70
     0
102
RTVSPost2010Prop39
140
1.0
102
RTVSPost2010PropOp39
 70
     0
102
RTVSPost2010Prop40
 90
        0
102
RTVSPost2010PropOp40
 70
     0
102
RTVSPost2010Prop41ColorIndex
 90
       18
102
RTVSPost2010Prop41ColorRGB
 90
        0
102
RTVSPost2010PropOp41
 70
     0
102
RTVSPost2010Prop42
 90
       50
102
RTVSPost2010PropOp42
 70
     0
102
RTVSPost2010Prop43
 90
        3
102
RTVSPost2010PropOp43
 70
     0
102
RTVSPost2010Prop44ColorIndex
 90
        5
102
RTVSPost2010Prop44ColorRGB
 90
      255
102
RTVSPost2010PropOp44
 70
     0
102
RTVSPost2010Prop45
280
     0
102
RTVSPost2010PropOp45
 70
     0
102
RTVSPost2010Prop46
 90
       50
102
RTVSPost2010PropOp46
 70
     0
102
RTVSPost2010Prop47
 90
       50
102
RTVSPost2010PropOp47
 70
     0
102
RTVSPost2010Prop48
 90
       50
102
RTVSPost2010PropOp48
 70
     0
102
RTVSPost2010Prop49
280
     0
102
RTVSPost2010PropOp49
 70
     0
102
RTVSPost2010Prop50
 90
       50
102
RTVSPost2010PropOp50
 70
     0
102
RTVSPost2010Prop51ColorIndex
 90
      256
102
RTVSPost2010Prop51ColorRGB
 90
-16777216
102
RTVSPost2010PropOp51
 70
     0
102
RTVSPost2010Prop52
140
1.0
102
RTVSPost2010PropOp52
 70
     0
102
RTVSPost2010Prop53
 90
        2
102
RTVSPost2010PropOp53
 70
     0
102
RTVSPost2010Prop54
  1
strokes_ogs.tif
102
RTVSPost2010PropOp54
 70
     0
102
RTVSPost2010Prop55
280
     0
102
RTVSPost2010PropOp55
 70
     0
102
RTVSPost2010Prop56
140
1.0
102
RTVSPost2010PropOp56
 70
     0
102
RTVSPost2010Prop57
140
1.0
102
RTVSPost2010PropOp57
 70
     0
  0
XRECORD
  5
3AA
102
{ACAD_REACTORS
330
3A9
102
}
330
3A9
100
AcDbXrecord
280
     1
102
RTVSPropertyOp0
 70
     1
102
RTVSPropertyOp1
 70
     1
102
RTVSPropertyOp2
 70
     1
102
RTVSPropertyOp3
 70
     1
102
RTVSPropertyOp4
 70
     1
102
RTVSPropertyOp5
 70
     1
102
RTVSPropertyOp6
 70
     1
102
RTVSPropertyOp7
 70
     1
102
RTVSPropertyOp8
 70
     1
102
RTVSPropertyOp9
 70
     1
102
RTVSPropertyOp10
 70
     1
102
RTVSPropertyOp11
 70
     1
102
RTVSPropertyOp12
 70
     1
102
RTVSPropertyOp13
 70
     1
102
RTVSPropertyOp14
 70
     1
102
RTVSPropertyOp15
 70
     1
102
RTVSPropertyOp16
 70
     1
102
RTVSPropertyOp17
 70
     1
102
RTVSPropertyOp18
 70
     1
102
RTVSPropertyOp19
 70
     1
102
RTVSPropertyOp20
 70
     1
102
RTVSPropertyOp21
 70
     1
102
RTVSPropertyOp22
 70
     1
102
RTVSPropertyOp23
 70
     1
102
RTVSPropertyOp24
 70
     1
102
RTVSPropertyOp25
 70
     1
102
RTVSPropertyOp26
 70
     1
102
RTVSPropertyOp27
 70
     1
102
RTVSPropertyOp28
 70
     1
102
RTVSPropertyOp29
 70
     1
102
RTVSPropertyOp30
 70
     1
102
RTVSPropertyOp31
 70
     1
102
RTVSPropertyOp32
 70
     1
102
RTVSPropertyOp33
 70
     1
102
RTVSPropertyOp34
 70
     1
102
RTVSPropertyOp35
 70
     1
102
RTVSPropertyOp36
 70
     1
102
RTVSPropertyOp37
 70
     1
102
RTVSPropertyOp38
 70
     1
102
RTVSPropertyOp39
 70
     1
102
RTVSPropertyOp40
 70
     1
102
RTVSPropertyOp41
 70
     1
102
RTVSPropertyOp42
 70
     1
102
RTVSPropertyOp43
 70
     1
102
RTVSPropertyOp44
 70
     1
102
RTVSPropertyOp45
 70
     1
102
RTVSPropertyOp46
 70
     1
102
RTVSPropertyOp47
 70
     1
102
RTVSPropertyOp48
 70
     1
102
RTVSPropertyOp49
 70
     1
102
RTVSPropertyOp50
 70
     1
102
RTVSPropertyOp51
 70
     0
102
RTVSPropertyOp52
 70
     0
102
RTVSPropertyOp53
 70
     1
102
RTVSPropertyOp54
 70
     1
102
RTVSPropertyOp55
 70
     1
102
RTVSPropertyOp56
 70
     1
102
RTVSPropertyOp57
 70
     1
102
RTVSPost2010Prop28
280
     0
102
RTVSPost2010PropOp28
 70
     1
102
RTVSPost2010Prop29
280
     1
102
RTVSPost2010PropOp29
 70
     1
102
RTVSPost2010Prop30
280
     1
102
RTVSPost2010PropOp30
 70
     1
102
RTVSPost2010Prop31
280
     0
102
RTVSPost2010PropOp31
 70
     1
102
RTVSPost2010Prop32
280
     0
102
RTVSPost2010PropOp32
 70
     1
102
RTVSPost2010Prop33
280
     0
102
RTVSPost2010PropOp33
 70
     1
102
RTVSPost2010Prop34
280
     0
102
RTVSPost2010PropOp34
 70
     1
102
RTVSPost2010Prop35
280
     0
102
RTVSPost2010PropOp35
 70
     1
102
RTVSPost2010Prop36
280
     0
102
RTVSPost2010PropOp36
 70
     1
102
RTVSPost2010Prop37
 90
       50
102
RTVSPost2010PropOp37
 70
     1
102
RTVSPost2010Prop38
140
0.0
102
RTVSPost2010PropOp38
 70
     1
102
RTVSPost2010Prop39
140
1.0
102
RTVSPost2010PropOp39
 70
     1
102
RTVSPost2010Prop40
 90
        0
102
RTVSPost2010PropOp40
 70
     1
102
RTVSPost2010Prop41ColorIndex
 90
       18
102
RTVSPost2010Prop41ColorRGB
 90
        0
102
RTVSPost2010PropOp41
 70
     1
102
RTVSPost2010Prop42
 90
       50
102
RTVSPost2010PropOp42
 70
     1
102
RTVSPost2010Prop43
 90
        3
102
RTVSPost2010PropOp43
 70
     1
102
RTVSPost2010Prop44ColorIndex
 90
        5
102
RTVSPost2010Prop44ColorRGB
 90
      255
102
RTVSPost2010PropOp44
 70
     1
102
RTVSPost2010Prop45
280
     0
102
RTVSPost2010PropOp45
 70
     1
102
RTVSPost2010Prop46
 90
       50
102
RTVSPost2010PropOp46
 70
     1
102
RTVSPost2010Prop47
 90
       50
102
RTVSPost2010PropOp47
 70
     1
102
RTVSPost2010Prop48
 90
       50
102
RTVSPost2010PropOp48
 70
     1
102
RTVSPost2010Prop49
280
     0
102
RTVSPost2010PropOp49
 70
     1
102
RTVSPost2010Prop50
 90
       50
102
RTVSPost2010PropOp50
 70
     1
102
RTVSPost2010Prop51ColorIndex
 90
      256
102
RTVSPost2010Prop51ColorRGB
 90
-16777216
102
RTVSPost2010PropOp51
 70
     0
102
RTVSPost2010Prop52
140
1.0
102
RTVSPost2010PropOp52
 70
     0
102
RTVSPost2010Prop53
 90
        2
102
RTVSPost2010PropOp53
 70
     1
102
RTVSPost2010Prop54
  1
strokes_ogs.tif
102
RTVSPost2010PropOp54
 70
     1
102
RTVSPost2010Prop55
280
     0
102
RTVSPost2010PropOp55
 70
     1
102
RTVSPost2010Prop56
140
1.0
102
RTVSPost2010PropOp56
 70
     1
102
RTVSPost2010Prop57
140
1.0
102
RTVSPost2010PropOp57
 70
     1
  0
XRECORD
  5
38E
102
{ACAD_REACTORS
330
38D
102
}
330
38D
100
AcDbXrecord
280
     1
102
RTVSPropertyOp0
 70
     1
102
RTVSPropertyOp1
 70
     1
102
RTVSPropertyOp2
 70
     1
102
RTVSPropertyOp3
 70
     1
102
RTVSPropertyOp4
 70
     1
102
RTVSPropertyOp5
 70
     1
102
RTVSPropertyOp6
 70
     1
102
RTVSPropertyOp7
 70
     1
102
RTVSPropertyOp8
 70
     1
102
RTVSPropertyOp9
 70
     1
102
RTVSPropertyOp10
 70
     1
102
RTVSPropertyOp11
 70
     1
102
RTVSPropertyOp12
 70
     1
102
RTVSPropertyOp13
 70
     1
102
RTVSPropertyOp14
 70
     1
102
RTVSPropertyOp15
 70
     1
102
RTVSPropertyOp16
 70
     1
102
RTVSPropertyOp17
 70
     1
102
RTVSPropertyOp18
 70
     1
102
RTVSPropertyOp19
 70
     1
102
RTVSPropertyOp20
 70
     1
102
RTVSPropertyOp21
 70
     1
102
RTVSPropertyOp22
 70
     1
102
RTVSPropertyOp23
 70
     1
102
RTVSPropertyOp24
 70
     1
102
RTVSPropertyOp25
 70
     1
102
RTVSPropertyOp26
 70
     1
102
RTVSPropertyOp27
 70
     1
102
RTVSPropertyOp28
 70
     1
102
RTVSPropertyOp29
 70
     1
102
RTVSPropertyOp30
 70
     1
102
RTVSPropertyOp31
 70
     1
102
RTVSPropertyOp32
 70
     1
102
RTVSPropertyOp33
 70
     1
102
RTVSPropertyOp34
 70
     1
102
RTVSPropertyOp35
 70
     1
102
RTVSPropertyOp36
 70
     1
102
RTVSPropertyOp37
 70
     1
102
RTVSPropertyOp38
 70
     1
102
RTVSPropertyOp39
 70
     1
102
RTVSPropertyOp40
 70
     1
102
RTVSPropertyOp41
 70
     1
102
RTVSPropertyOp42
 70
     1
102
RTVSPropertyOp43
 70
     1
102
RTVSPropertyOp44
 70
     1
102
RTVSPropertyOp45
 70
     1
102
RTVSPropertyOp46
 70
     1
102
RTVSPropertyOp47
 70
     1
102
RTVSPropertyOp48
 70
     1
102
RTVSPropertyOp49
 70
     1
102
RTVSPropertyOp50
 70
     1
102
RTVSPropertyOp51
 70
     0
102
RTVSPropertyOp52
 70
     0
102
RTVSPropertyOp53
 70
     1
102
RTVSPropertyOp54
 70
     1
102
RTVSPropertyOp55
 70
     1
102
RTVSPropertyOp56
 70
     1
102
RTVSPropertyOp57
 70
     1
102
RTVSPost2010Prop28
280
     0
102
RTVSPost2010PropOp28
 70
     1
102
RTVSPost2010Prop29
280
     1
102
RTVSPost2010PropOp29
 70
     1
102
RTVSPost2010Prop30
280
     1
102
RTVSPost2010PropOp30
 70
     1
102
RTVSPost2010Prop31
280
     0
102
RTVSPost2010PropOp31
 70
     1
102
RTVSPost2010Prop32
280
     0
102
RTVSPost2010PropOp32
 70
     1
102
RTVSPost2010Prop33
280
     0
102
RTVSPost2010PropOp33
 70
     1
102
RTVSPost2010Prop34
280
     0
102
RTVSPost2010PropOp34
 70
     1
102
RTVSPost2010Prop35
280
     0
102
RTVSPost2010PropOp35
 70
     1
102
RTVSPost2010Prop36
280
     0
102
RTVSPost2010PropOp36
 70
     1
102
RTVSPost2010Prop37
 90
       50
102
RTVSPost2010PropOp37
 70
     1
102
RTVSPost2010Prop38
140
0.0
102
RTVSPost2010PropOp38
 70
     1
102
RTVSPost2010Prop39
140
1.0
102
RTVSPost2010PropOp39
 70
     1
102
RTVSPost2010Prop40
 90
        0
102
RTVSPost2010PropOp40
 70
     1
102
RTVSPost2010Prop41ColorIndex
 90
       18
102
RTVSPost2010Prop41ColorRGB
 90
        0
102
RTVSPost2010PropOp41
 70
     1
102
RTVSPost2010Prop42
 90
       50
102
RTVSPost2010PropOp42
 70
     1
102
RTVSPost2010Prop43
 90
        3
102
RTVSPost2010PropOp43
 70
     1
102
RTVSPost2010Prop44ColorIndex
 90
        5
102
RTVSPost2010Prop44ColorRGB
 90
      255
102
RTVSPost2010PropOp44
 70
     1
102
RTVSPost2010Prop45
280
     0
102
RTVSPost2010PropOp45
 70
     1
102
RTVSPost2010Prop46
 90
       50
102
RTVSPost2010PropOp46
 70
     1
102
RTVSPost2010Prop47
 90
       50
102
RTVSPost2010PropOp47
 70
     1
102
RTVSPost2010Prop48
 90
       50
102
RTVSPost2010PropOp48
 70
     1
102
RTVSPost2010Prop49
280
     0
102
RTVSPost2010PropOp49
 70
     1
102
RTVSPost2010Prop50
 90
       50
102
RTVSPost2010PropOp50
 70
     1
102
RTVSPost2010Prop51ColorIndex
 90
      256
102
RTVSPost2010Prop51ColorRGB
 90
-16777216
102
RTVSPost2010PropOp51
 70
     0
102
RTVSPost2010Prop52
140
1.0
102
RTVSPost2010PropOp52
 70
     0
102
RTVSPost2010Prop53
 90
        2
102
RTVSPost2010PropOp53
 70
     1
102
RTVSPost2010Prop54
  1
strokes_ogs.tif
102
RTVSPost2010PropOp54
 70
     1
102
RTVSPost2010Prop55
280
     0
102
RTVSPost2010PropOp55
 70
     1
102
RTVSPost2010Prop56
140
1.0
102
RTVSPost2010PropOp56
 70
     1
102
RTVSPost2010Prop57
140
1.0
102
RTVSPost2010PropOp57
 70
     1
  0
XRECORD
  5
390
102
{ACAD_REACTORS
330
38F
102
}
330
38F
100
AcDbXrecord
280
     1
102
RTVSPropertyOp0
 70
     1
102
RTVSPropertyOp1
 70
     1
102
RTVSPropertyOp2
 70
     1
102
RTVSPropertyOp3
 70
     1
102
RTVSPropertyOp4
 70
     1
102
RTVSPropertyOp5
 70
     1
102
RTVSPropertyOp6
 70
     1
102
RTVSPropertyOp7
 70
     1
102
RTVSPropertyOp8
 70
     1
102
RTVSPropertyOp9
 70
     1
102
RTVSPropertyOp10
 70
     1
102
RTVSPropertyOp11
 70
     1
102
RTVSPropertyOp12
 70
     1
102
RTVSPropertyOp13
 70
     1
102
RTVSPropertyOp14
 70
     1
102
RTVSPropertyOp15
 70
     1
102
RTVSPropertyOp16
 70
     1
102
RTVSPropertyOp17
 70
     1
102
RTVSPropertyOp18
 70
     1
102
RTVSPropertyOp19
 70
     1
102
RTVSPropertyOp20
 70
     1
102
RTVSPropertyOp21
 70
     1
102
RTVSPropertyOp22
 70
     1
102
RTVSPropertyOp23
 70
     1
102
RTVSPropertyOp24
 70
     1
102
RTVSPropertyOp25
 70
     1
102
RTVSPropertyOp26
 70
     1
102
RTVSPropertyOp27
 70
     1
102
RTVSPropertyOp28
 70
     1
102
RTVSPropertyOp29
 70
     1
102
RTVSPropertyOp30
 70
     1
102
RTVSPropertyOp31
 70
     1
102
RTVSPropertyOp32
 70
     1
102
RTVSPropertyOp33
 70
     1
102
RTVSPropertyOp34
 70
     1
102
RTVSPropertyOp35
 70
     1
102
RTVSPropertyOp36
 70
     1
102
RTVSPropertyOp37
 70
     1
102
RTVSPropertyOp38
 70
     1
102
RTVSPropertyOp39
 70
     1
102
RTVSPropertyOp40
 70
     1
102
RTVSPropertyOp41
 70
     1
102
RTVSPropertyOp42
 70
     1
102
RTVSPropertyOp43
 70
     1
102
RTVSPropertyOp44
 70
     1
102
RTVSPropertyOp45
 70
     1
102
RTVSPropertyOp46
 70
     1
102
RTVSPropertyOp47
 70
     1
102
RTVSPropertyOp48
 70
     1
102
RTVSPropertyOp49
 70
     1
102
RTVSPropertyOp50
 70
     1
102
RTVSPropertyOp51
 70
     0
102
RTVSPropertyOp52
 70
     0
102
RTVSPropertyOp53
 70
     1
102
RTVSPropertyOp54
 70
     1
102
RTVSPropertyOp55
 70
     1
102
RTVSPropertyOp56
 70
     1
102
RTVSPropertyOp57
 70
     1
102
RTVSPost2010Prop28
280
     0
102
RTVSPost2010PropOp28
 70
     1
102
RTVSPost2010Prop29
280
     1
102
RTVSPost2010PropOp29
 70
     1
102
RTVSPost2010Prop30
280
     1
102
RTVSPost2010PropOp30
 70
     1
102
RTVSPost2010Prop31
280
     0
102
RTVSPost2010PropOp31
 70
     1
102
RTVSPost2010Prop32
280
     0
102
RTVSPost2010PropOp32
 70
     1
102
RTVSPost2010Prop33
280
     0
102
RTVSPost2010PropOp33
 70
     1
102
RTVSPost2010Prop34
280
     0
102
RTVSPost2010PropOp34
 70
     1
102
RTVSPost2010Prop35
280
     0
102
RTVSPost2010PropOp35
 70
     1
102
RTVSPost2010Prop36
280
     0
102
RTVSPost2010PropOp36
 70
     1
102
RTVSPost2010Prop37
 90
       50
102
RTVSPost2010PropOp37
 70
     1
102
RTVSPost2010Prop38
140
0.0
102
RTVSPost2010PropOp38
 70
     1
102
RTVSPost2010Prop39
140
1.0
102
RTVSPost2010PropOp39
 70
     1
102
RTVSPost2010Prop40
 90
        0
102
RTVSPost2010PropOp40
 70
     1
102
RTVSPost2010Prop41ColorIndex
 90
       18
102
RTVSPost2010Prop41ColorRGB
 90
        0
102
RTVSPost2010PropOp41
 70
     1
102
RTVSPost2010Prop42
 90
       50
102
RTVSPost2010PropOp42
 70
     1
102
RTVSPost2010Prop43
 90
        3
102
RTVSPost2010PropOp43
 70
     1
102
RTVSPost2010Prop44ColorIndex
 90
        5
102
RTVSPost2010Prop44ColorRGB
 90
      255
102
RTVSPost2010PropOp44
 70
     1
102
RTVSPost2010Prop45
280
     0
102
RTVSPost2010PropOp45
 70
     1
102
RTVSPost2010Prop46
 90
       50
102
RTVSPost2010PropOp46
 70
     1
102
RTVSPost2010Prop47
 90
       50
102
RTVSPost2010PropOp47
 70
     1
102
RTVSPost2010Prop48
 90
       50
102
RTVSPost2010PropOp48
 70
     1
102
RTVSPost2010Prop49
280
     0
102
RTVSPost2010PropOp49
 70
     1
102
RTVSPost2010Prop50
 90
       50
102
RTVSPost2010PropOp50
 70
     1
102
RTVSPost2010Prop51ColorIndex
 90
      256
102
RTVSPost2010Prop51ColorRGB
 90
-16777216
102
RTVSPost2010PropOp51
 70
     0
102
RTVSPost2010Prop52
140
1.0
102
RTVSPost2010PropOp52
 70
     0
102
RTVSPost2010Prop53
 90
        2
102
RTVSPost2010PropOp53
 70
     1
102
RTVSPost2010Prop54
  1
strokes_ogs.tif
102
RTVSPost2010PropOp54
 70
     1
102
RTVSPost2010Prop55
280
     0
102
RTVSPost2010PropOp55
 70
     1
102
RTVSPost2010Prop56
140
1.0
102
RTVSPost2010PropOp56
 70
     1
102
RTVSPost2010Prop57
140
1.0
102
RTVSPost2010PropOp57
 70
     1
  0
XRECORD
  5
392
102
{ACAD_REACTORS
330
391
102
}
330
391
100
AcDbXrecord
280
     1
102
RTVSPropertyOp0
 70
     1
102
RTVSPropertyOp1
 70
     1
102
RTVSPropertyOp2
 70
     1
102
RTVSPropertyOp3
 70
     1
102
RTVSPropertyOp4
 70
     1
102
RTVSPropertyOp5
 70
     1
102
RTVSPropertyOp6
 70
     1
102
RTVSPropertyOp7
 70
     1
102
RTVSPropertyOp8
 70
     1
102
RTVSPropertyOp9
 70
     1
102
RTVSPropertyOp10
 70
     1
102
RTVSPropertyOp11
 70
     1
102
RTVSPropertyOp12
 70
     1
102
RTVSPropertyOp13
 70
     1
102
RTVSPropertyOp14
 70
     1
102
RTVSPropertyOp15
 70
     1
102
RTVSPropertyOp16
 70
     1
102
RTVSPropertyOp17
 70
     1
102
RTVSPropertyOp18
 70
     1
102
RTVSPropertyOp19
 70
     1
102
RTVSPropertyOp20
 70
     1
102
RTVSPropertyOp21
 70
     1
102
RTVSPropertyOp22
 70
     1
102
RTVSPropertyOp23
 70
     1
102
RTVSPropertyOp24
 70
     1
102
RTVSPropertyOp25
 70
     1
102
RTVSPropertyOp26
 70
     1
102
RTVSPropertyOp27
 70
     1
102
RTVSPropertyOp28
 70
     1
102
RTVSPropertyOp29
 70
     1
102
RTVSPropertyOp30
 70
     1
102
RTVSPropertyOp31
 70
     1
102
RTVSPropertyOp32
 70
     1
102
RTVSPropertyOp33
 70
     1
102
RTVSPropertyOp34
 70
     1
102
RTVSPropertyOp35
 70
     1
102
RTVSPropertyOp36
 70
     1
102
RTVSPropertyOp37
 70
     1
102
RTVSPropertyOp38
 70
     1
102
RTVSPropertyOp39
 70
     1
102
RTVSPropertyOp40
 70
     1
102
RTVSPropertyOp41
 70
     1
102
RTVSPropertyOp42
 70
     1
102
RTVSPropertyOp43
 70
     1
102
RTVSPropertyOp44
 70
     1
102
RTVSPropertyOp45
 70
     1
102
RTVSPropertyOp46
 70
     1
102
RTVSPropertyOp47
 70
     1
102
RTVSPropertyOp48
 70
     1
102
RTVSPropertyOp49
 70
     1
102
RTVSPropertyOp50
 70
     1
102
RTVSPropertyOp51
 70
     0
102
RTVSPropertyOp52
 70
     0
102
RTVSPropertyOp53
 70
     1
102
RTVSPropertyOp54
 70
     1
102
RTVSPropertyOp55
 70
     1
102
RTVSPropertyOp56
 70
     1
102
RTVSPropertyOp57
 70
     1
102
RTVSPost2010Prop28
280
     0
102
RTVSPost2010PropOp28
 70
     1
102
RTVSPost2010Prop29
280
     1
102
RTVSPost2010PropOp29
 70
     1
102
RTVSPost2010Prop30
280
     1
102
RTVSPost2010PropOp30
 70
     1
102
RTVSPost2010Prop31
280
     0
102
RTVSPost2010PropOp31
 70
     1
102
RTVSPost2010Prop32
280
     0
102
RTVSPost2010PropOp32
 70
     1
102
RTVSPost2010Prop33
280
     0
102
RTVSPost2010PropOp33
 70
     1
102
RTVSPost2010Prop34
280
     0
102
RTVSPost2010PropOp34
 70
     1
102
RTVSPost2010Prop35
280
     0
102
RTVSPost2010PropOp35
 70
     1
102
RTVSPost2010Prop36
280
     0
102
RTVSPost2010PropOp36
 70
     1
102
RTVSPost2010Prop37
 90
       50
102
RTVSPost2010PropOp37
 70
     1
102
RTVSPost2010Prop38
140
0.0
102
RTVSPost2010PropOp38
 70
     1
102
RTVSPost2010Prop39
140
1.0
102
RTVSPost2010PropOp39
 70
     1
102
RTVSPost2010Prop40
 90
        0
102
RTVSPost2010PropOp40
 70
     1
102
RTVSPost2010Prop41ColorIndex
 90
       18
102
RTVSPost2010Prop41ColorRGB
 90
        0
102
RTVSPost2010PropOp41
 70
     1
102
RTVSPost2010Prop42
 90
       50
102
RTVSPost2010PropOp42
 70
     1
102
RTVSPost2010Prop43
 90
        3
102
RTVSPost2010PropOp43
 70
     1
102
RTVSPost2010Prop44ColorIndex
 90
        5
102
RTVSPost2010Prop44ColorRGB
 90
      255
102
RTVSPost2010PropOp44
 70
     1
102
RTVSPost2010Prop45
280
     0
102
RTVSPost2010PropOp45
 70
     1
102
RTVSPost2010Prop46
 90
       50
102
RTVSPost2010PropOp46
 70
     1
102
RTVSPost2010Prop47
 90
       50
102
RTVSPost2010PropOp47
 70
     1
102
RTVSPost2010Prop48
 90
       50
102
RTVSPost2010PropOp48
 70
     1
102
RTVSPost2010Prop49
280
     0
102
RTVSPost2010PropOp49
 70
     1
102
RTVSPost2010Prop50
 90
       50
102
RTVSPost2010PropOp50
 70
     1
102
RTVSPost2010Prop51ColorIndex
 90
      256
102
RTVSPost2010Prop51ColorRGB
 90
-16777216
102
RTVSPost2010PropOp51
 70
     0
102
RTVSPost2010Prop52
140
1.0
102
RTVSPost2010PropOp52
 70
     0
102
RTVSPost2010Prop53
 90
        2
102
RTVSPost2010PropOp53
 70
     1
102
RTVSPost2010Prop54
  1
strokes_ogs.tif
102
RTVSPost2010PropOp54
 70
     1
102
RTVSPost2010Prop55
280
     0
102
RTVSPost2010PropOp55
 70
     1
102
RTVSPost2010Prop56
140
1.0
102
RTVSPost2010PropOp56
 70
     1
102
RTVSPost2010Prop57
140
1.0
102
RTVSPost2010PropOp57
 70
     1
  0
XRECORD
  5
394
102
{ACAD_REACTORS
330
393
102
}
330
393
100
AcDbXrecord
280
     1
102
RTVSPropertyOp0
 70
     1
102
RTVSPropertyOp1
 70
     1
102
RTVSPropertyOp2
 70
     1
102
RTVSPropertyOp3
 70
     1
102
RTVSPropertyOp4
 70
     1
102
RTVSPropertyOp5
 70
     1
102
RTVSPropertyOp6
 70
     1
102
RTVSPropertyOp7
 70
     1
102
RTVSPropertyOp8
 70
     1
102
RTVSPropertyOp9
 70
     1
102
RTVSPropertyOp10
 70
     1
102
RTVSPropertyOp11
 70
     1
102
RTVSPropertyOp12
 70
     1
102
RTVSPropertyOp13
 70
     1
102
RTVSPropertyOp14
 70
     1
102
RTVSPropertyOp15
 70
     1
102
RTVSPropertyOp16
 70
     1
102
RTVSPropertyOp17
 70
     1
102
RTVSPropertyOp18
 70
     1
102
RTVSPropertyOp19
 70
     1
102
RTVSPropertyOp20
 70
     1
102
RTVSPropertyOp21
 70
     1
102
RTVSPropertyOp22
 70
     1
102
RTVSPropertyOp23
 70
     1
102
RTVSPropertyOp24
 70
     1
102
RTVSPropertyOp25
 70
     1
102
RTVSPropertyOp26
 70
     1
102
RTVSPropertyOp27
 70
     1
102
RTVSPropertyOp28
 70
     1
102
RTVSPropertyOp29
 70
     1
102
RTVSPropertyOp30
 70
     1
102
RTVSPropertyOp31
 70
     1
102
RTVSPropertyOp32
 70
     1
102
RTVSPropertyOp33
 70
     1
102
RTVSPropertyOp34
 70
     1
102
RTVSPropertyOp35
 70
     1
102
RTVSPropertyOp36
 70
     1
102
RTVSPropertyOp37
 70
     1
102
RTVSPropertyOp38
 70
     1
102
RTVSPropertyOp39
 70
     1
102
RTVSPropertyOp40
 70
     1
102
RTVSPropertyOp41
 70
     1
102
RTVSPropertyOp42
 70
     1
102
RTVSPropertyOp43
 70
     1
102
RTVSPropertyOp44
 70
     1
102
RTVSPropertyOp45
 70
     1
102
RTVSPropertyOp46
 70
     1
102
RTVSPropertyOp47
 70
     1
102
RTVSPropertyOp48
 70
     1
102
RTVSPropertyOp49
 70
     1
102
RTVSPropertyOp50
 70
     1
102
RTVSPropertyOp51
 70
     0
102
RTVSPropertyOp52
 70
     0
102
RTVSPropertyOp53
 70
     1
102
RTVSPropertyOp54
 70
     1
102
RTVSPropertyOp55
 70
     1
102
RTVSPropertyOp56
 70
     1
102
RTVSPropertyOp57
 70
     1
102
RTVSPost2010Prop28
280
     0
102
RTVSPost2010PropOp28
 70
     1
102
RTVSPost2010Prop29
280
     1
102
RTVSPost2010PropOp29
 70
     1
102
RTVSPost2010Prop30
280
     1
102
RTVSPost2010PropOp30
 70
     1
102
RTVSPost2010Prop31
280
     0
102
RTVSPost2010PropOp31
 70
     1
102
RTVSPost2010Prop32
280
     0
102
RTVSPost2010PropOp32
 70
     1
102
RTVSPost2010Prop33
280
     0
102
RTVSPost2010PropOp33
 70
     1
102
RTVSPost2010Prop34
280
     0
102
RTVSPost2010PropOp34
 70
     1
102
RTVSPost2010Prop35
280
     0
102
RTVSPost2010PropOp35
 70
     1
102
RTVSPost2010Prop36
280
     0
102
RTVSPost2010PropOp36
 70
     1
102
RTVSPost2010Prop37
 90
       50
102
RTVSPost2010PropOp37
 70
     1
102
RTVSPost2010Prop38
140
0.0
102
RTVSPost2010PropOp38
 70
     1
102
RTVSPost2010Prop39
140
1.0
102
RTVSPost2010PropOp39
 70
     1
102
RTVSPost2010Prop40
 90
        0
102
RTVSPost2010PropOp40
 70
     1
102
RTVSPost2010Prop41ColorIndex
 90
       18
102
RTVSPost2010Prop41ColorRGB
 90
        0
102
RTVSPost2010PropOp41
 70
     1
102
RTVSPost2010Prop42
 90
       50
102
RTVSPost2010PropOp42
 70
     1
102
RTVSPost2010Prop43
 90
        3
102
RTVSPost2010PropOp43
 70
     1
102
RTVSPost2010Prop44ColorIndex
 90
        5
102
RTVSPost2010Prop44ColorRGB
 90
      255
102
RTVSPost2010PropOp44
 70
     1
102
RTVSPost2010Prop45
280
     0
102
RTVSPost2010PropOp45
 70
     1
102
RTVSPost2010Prop46
 90
       50
102
RTVSPost2010PropOp46
 70
     1
102
RTVSPost2010Prop47
 90
       50
102
RTVSPost2010PropOp47
 70
     1
102
RTVSPost2010Prop48
 90
       50
102
RTVSPost2010PropOp48
 70
     1
102
RTVSPost2010Prop49
280
     0
102
RTVSPost2010PropOp49
 70
     1
102
RTVSPost2010Prop50
 90
       50
102
RTVSPost2010PropOp50
 70
     1
102
RTVSPost2010Prop51ColorIndex
 90
      256
102
RTVSPost2010Prop51ColorRGB
 90
-16777216
102
RTVSPost2010PropOp51
 70
     0
102
RTVSPost2010Prop52
140
1.0
102
RTVSPost2010PropOp52
 70
     0
102
RTVSPost2010Prop53
 90
        2
102
RTVSPost2010PropOp53
 70
     1
102
RTVSPost2010Prop54
  1
strokes_ogs.tif
102
RTVSPost2010PropOp54
 70
     1
102
RTVSPost2010Prop55
280
     0
102
RTVSPost2010PropOp55
 70
     1
102
RTVSPost2010Prop56
140
1.0
102
RTVSPost2010PropOp56
 70
     1
102
RTVSPost2010Prop57
140
1.0
102
RTVSPost2010PropOp57
 70
     1
  0
XRECORD
  5
39A
102
{ACAD_REACTORS
330
399
102
}
330
399
100
AcDbXrecord
280
     1
102
RTVSPropertyOp0
 70
     1
102
RTVSPropertyOp1
 70
     1
102
RTVSPropertyOp2
 70
     1
102
RTVSPropertyOp3
 70
     1
102
RTVSPropertyOp4
 70
     1
102
RTVSPropertyOp5
 70
     1
102
RTVSPropertyOp6
 70
     1
102
RTVSPropertyOp7
 70
     1
102
RTVSPropertyOp8
 70
     1
102
RTVSPropertyOp9
 70
     1
102
RTVSPropertyOp10
 70
     1
102
RTVSPropertyOp11
 70
     1
102
RTVSPropertyOp12
 70
     1
102
RTVSPropertyOp13
 70
     1
102
RTVSPropertyOp14
 70
     1
102
RTVSPropertyOp15
 70
     1
102
RTVSPropertyOp16
 70
     1
102
RTVSPropertyOp17
 70
     1
102
RTVSPropertyOp18
 70
     1
102
RTVSPropertyOp19
 70
     1
102
RTVSPropertyOp20
 70
     1
102
RTVSPropertyOp21
 70
     1
102
RTVSPropertyOp22
 70
     1
102
RTVSPropertyOp23
 70
     1
102
RTVSPropertyOp24
 70
     1
102
RTVSPropertyOp25
 70
     1
102
RTVSPropertyOp26
 70
     1
102
RTVSPropertyOp27
 70
     1
102
RTVSPropertyOp28
 70
     1
102
RTVSPropertyOp29
 70
     1
102
RTVSPropertyOp30
 70
     1
102
RTVSPropertyOp31
 70
     1
102
RTVSPropertyOp32
 70
     1
102
RTVSPropertyOp33
 70
     1
102
RTVSPropertyOp34
 70
     1
102
RTVSPropertyOp35
 70
     1
102
RTVSPropertyOp36
 70
     1
102
RTVSPropertyOp37
 70
     1
102
RTVSPropertyOp38
 70
     1
102
RTVSPropertyOp39
 70
     1
102
RTVSPropertyOp40
 70
     1
102
RTVSPropertyOp41
 70
     1
102
RTVSPropertyOp42
 70
     1
102
RTVSPropertyOp43
 70
     1
102
RTVSPropertyOp44
 70
     1
102
RTVSPropertyOp45
 70
     1
102
RTVSPropertyOp46
 70
     1
102
RTVSPropertyOp47
 70
     1
102
RTVSPropertyOp48
 70
     1
102
RTVSPropertyOp49
 70
     1
102
RTVSPropertyOp50
 70
     1
102
RTVSPropertyOp51
 70
     0
102
RTVSPropertyOp52
 70
     0
102
RTVSPropertyOp53
 70
     1
102
RTVSPropertyOp54
 70
     1
102
RTVSPropertyOp55
 70
     1
102
RTVSPropertyOp56
 70
     1
102
RTVSPropertyOp57
 70
     1
102
RTVSPost2010Prop28
280
     0
102
RTVSPost2010PropOp28
 70
     1
102
RTVSPost2010Prop29
280
     1
102
RTVSPost2010PropOp29
 70
     1
102
RTVSPost2010Prop30
280
     1
102
RTVSPost2010PropOp30
 70
     1
102
RTVSPost2010Prop31
280
     0
102
RTVSPost2010PropOp31
 70
     1
102
RTVSPost2010Prop32
280
     0
102
RTVSPost2010PropOp32
 70
     1
102
RTVSPost2010Prop33
280
     0
102
RTVSPost2010PropOp33
 70
     1
102
RTVSPost2010Prop34
280
     0
102
RTVSPost2010PropOp34
 70
     1
102
RTVSPost2010Prop35
280
     0
102
RTVSPost2010PropOp35
 70
     1
102
RTVSPost2010Prop36
280
     0
102
RTVSPost2010PropOp36
 70
     1
102
RTVSPost2010Prop37
 90
       50
102
RTVSPost2010PropOp37
 70
     1
102
RTVSPost2010Prop38
140
0.0
102
RTVSPost2010PropOp38
 70
     1
102
RTVSPost2010Prop39
140
1.0
102
RTVSPost2010PropOp39
 70
     1
102
RTVSPost2010Prop40
 90
        0
102
RTVSPost2010PropOp40
 70
     1
102
RTVSPost2010Prop41ColorIndex
 90
       18
102
RTVSPost2010Prop41ColorRGB
 90
        0
102
RTVSPost2010PropOp41
 70
     1
102
RTVSPost2010Prop42
 90
       50
102
RTVSPost2010PropOp42
 70
     1
102
RTVSPost2010Prop43
 90
        3
102
RTVSPost2010PropOp43
 70
     1
102
RTVSPost2010Prop44ColorIndex
 90
        5
102
RTVSPost2010Prop44ColorRGB
 90
      255
102
RTVSPost2010PropOp44
 70
     1
102
RTVSPost2010Prop45
280
     0
102
RTVSPost2010PropOp45
 70
     1
102
RTVSPost2010Prop46
 90
       50
102
RTVSPost2010PropOp46
 70
     1
102
RTVSPost2010Prop47
 90
       50
102
RTVSPost2010PropOp47
 70
     1
102
RTVSPost2010Prop48
 90
       50
102
RTVSPost2010PropOp48
 70
     1
102
RTVSPost2010Prop49
280
     0
102
RTVSPost2010PropOp49
 70
     1
102
RTVSPost2010Prop50
 90
       50
102
RTVSPost2010PropOp50
 70
     1
102
RTVSPost2010Prop51ColorIndex
 90
      256
102
RTVSPost2010Prop51ColorRGB
 90
-16777216
102
RTVSPost2010PropOp51
 70
     0
102
RTVSPost2010Prop52
140
1.0
102
RTVSPost2010PropOp52
 70
     0
102
RTVSPost2010Prop53
 90
        2
102
RTVSPost2010PropOp53
 70
     1
102
RTVSPost2010Prop54
  1
strokes_ogs.tif
102
RTVSPost2010PropOp54
 70
     1
102
RTVSPost2010Prop55
280
     0
102
RTVSPost2010PropOp55
 70
     1
102
RTVSPost2010Prop56
140
1.0
102
RTVSPost2010PropOp56
 70
     1
102
RTVSPost2010Prop57
140
1.0
102
RTVSPost2010PropOp57
 70
     1
  0
XRECORD
  5
3AE
102
{ACAD_REACTORS
330
3AD
102
}
330
3AD
100
AcDbXrecord
280
     1
102
RTVSPropertyOp0
 70
     0
102
RTVSPropertyOp1
 70
     0
102
RTVSPropertyOp2
 70
     0
102
RTVSPropertyOp3
 70
     0
102
RTVSPropertyOp4
 70
     0
102
RTVSPropertyOp5
 70
     0
102
RTVSPropertyOp6
 70
     0
102
RTVSPropertyOp7
 70
     0
102
RTVSPropertyOp8
 70
     0
102
RTVSPropertyOp9
 70
     0
102
RTVSPropertyOp10
 70
     0
102
RTVSPropertyOp11
 70
     0
102
RTVSPropertyOp12
 70
     0
102
RTVSPropertyOp13
 70
     0
102
RTVSPropertyOp14
 70
     2
102
RTVSPropertyOp15
 70
     0
102
RTVSPropertyOp16
 70
     0
102
RTVSPropertyOp17
 70
     0
102
RTVSPropertyOp18
 70
     0
102
RTVSPropertyOp19
 70
     0
102
RTVSPropertyOp20
 70
     0
102
RTVSPropertyOp21
 70
     0
102
RTVSPropertyOp22
 70
     0
102
RTVSPropertyOp23
 70
     0
102
RTVSPropertyOp24
 70
     0
102
RTVSPropertyOp25
 70
     0
102
RTVSPropertyOp26
 70
     0
102
RTVSPropertyOp27
 70
     0
102
RTVSPropertyOp28
 70
     0
102
RTVSPropertyOp29
 70
     0
102
RTVSPropertyOp30
 70
     0
102
RTVSPropertyOp31
 70
     0
102
RTVSPropertyOp32
 70
     0
102
RTVSPropertyOp33
 70
     0
102
RTVSPropertyOp34
 70
     0
102
RTVSPropertyOp35
 70
     0
102
RTVSPropertyOp36
 70
     0
102
RTVSPropertyOp37
 70
     0
102
RTVSPropertyOp38
 70
     0
102
RTVSPropertyOp39
 70
     0
102
RTVSPropertyOp40
 70
     0
102
RTVSPropertyOp41
 70
     0
102
RTVSPropertyOp42
 70
     0
102
RTVSPropertyOp43
 70
     0
102
RTVSPropertyOp44
 70
     0
102
RTVSPropertyOp45
 70
     0
102
RTVSPropertyOp46
 70
     0
102
RTVSPropertyOp47
 70
     0
102
RTVSPropertyOp48
 70
     0
102
RTVSPropertyOp49
 70
     0
102
RTVSPropertyOp50
 70
     0
102
RTVSPropertyOp51
 70
     0
102
RTVSPropertyOp52
 70
     0
102
RTVSPropertyOp53
 70
     0
102
RTVSPropertyOp54
 70
     0
102
RTVSPropertyOp55
 70
     0
102
RTVSPropertyOp56
 70
     0
102
RTVSPropertyOp57
 70
     0
102
RTVSPost2010Prop28
280
     0
102
RTVSPost2010PropOp28
 70
     0
102
RTVSPost2010Prop29
280
     1
102
RTVSPost2010PropOp29
 70
     0
102
RTVSPost2010Prop30
280
     1
102
RTVSPost2010PropOp30
 70
     0
102
RTVSPost2010Prop31
280
     0
102
RTVSPost2010PropOp31
 70
     0
102
RTVSPost2010Prop32
280
     0
102
RTVSPost2010PropOp32
 70
     0
102
RTVSPost2010Prop33
280
     0
102
RTVSPost2010PropOp33
 70
     0
102
RTVSPost2010Prop34
280
     0
102
RTVSPost2010PropOp34
 70
     0
102
RTVSPost2010Prop35
280
     0
102
RTVSPost2010PropOp35
 70
     0
102
RTVSPost2010Prop36
280
     0
102
RTVSPost2010PropOp36
 70
     0
102
RTVSPost2010Prop37
 90
       50
102
RTVSPost2010PropOp37
 70
     0
102
RTVSPost2010Prop38
140
0.0
102
RTVSPost2010PropOp38
 70
     0
102
RTVSPost2010Prop39
140
1.0
102
RTVSPost2010PropOp39
 70
     0
102
RTVSPost2010Prop40
 90
        0
102
RTVSPost2010PropOp40
 70
     0
102
RTVSPost2010Prop41ColorIndex
 90
       18
102
RTVSPost2010Prop41ColorRGB
 90
        0
102
RTVSPost2010PropOp41
 70
     0
102
RTVSPost2010Prop42
 90
       50
102
RTVSPost2010PropOp42
 70
     0
102
RTVSPost2010Prop43
 90
        3
102
RTVSPost2010PropOp43
 70
     0
102
RTVSPost2010Prop44ColorIndex
 90
        5
102
RTVSPost2010Prop44ColorRGB
 90
      255
102
RTVSPost2010PropOp44
 70
     0
102
RTVSPost2010Prop45
280
     0
102
RTVSPost2010PropOp45
 70
     0
102
RTVSPost2010Prop46
 90
       50
102
RTVSPost2010PropOp46
 70
     0
102
RTVSPost2010Prop47
 90
       50
102
RTVSPost2010PropOp47
 70
     0
102
RTVSPost2010Prop48
 90
       50
102
RTVSPost2010PropOp48
 70
     0
102
RTVSPost2010Prop49
280
     0
102
RTVSPost2010PropOp49
 70
     0
102
RTVSPost2010Prop50
 90
       50
102
RTVSPost2010PropOp50
 70
     0
102
RTVSPost2010Prop51ColorIndex
 90
      256
102
RTVSPost2010Prop51ColorRGB
 90
-16777216
102
RTVSPost2010PropOp51
 70
     0
102
RTVSPost2010Prop52
140
1.0
102
RTVSPost2010PropOp52
 70
     0
102
RTVSPost2010Prop53
 90
        2
102
RTVSPost2010PropOp53
 70
     0
102
RTVSPost2010Prop54
  1
strokes_ogs.tif
102
RTVSPost2010PropOp54
 70
     0
102
RTVSPost2010Prop55
280
     0
102
RTVSPost2010PropOp55
 70
     0
102
RTVSPost2010Prop56
140
1.0
102
RTVSPost2010PropOp56
 70
     0
102
RTVSPost2010Prop57
140
1.0
102
RTVSPost2010PropOp57
 70
     0
  0
XRECORD
  5
3A8
102
{ACAD_REACTORS
330
3A7
102
}
330
3A7
100
AcDbXrecord
280
     1
102
RTVSPropertyOp0
 70
     1
102
RTVSPropertyOp1
 70
     1
102
RTVSPropertyOp2
 70
     1
102
RTVSPropertyOp3
 70
     1
102
RTVSPropertyOp4
 70
     1
102
RTVSPropertyOp5
 70
     1
102
RTVSPropertyOp6
 70
     1
102
RTVSPropertyOp7
 70
     1
102
RTVSPropertyOp8
 70
     1
102
RTVSPropertyOp9
 70
     1
102
RTVSPropertyOp10
 70
     1
102
RTVSPropertyOp11
 70
     1
102
RTVSPropertyOp12
 70
     1
102
RTVSPropertyOp13
 70
     1
102
RTVSPropertyOp14
 70
     1
102
RTVSPropertyOp15
 70
     1
102
RTVSPropertyOp16
 70
     1
102
RTVSPropertyOp17
 70
     1
102
RTVSPropertyOp18
 70
     1
102
RTVSPropertyOp19
 70
     1
102
RTVSPropertyOp20
 70
     1
102
RTVSPropertyOp21
 70
     1
102
RTVSPropertyOp22
 70
     1
102
RTVSPropertyOp23
 70
     1
102
RTVSPropertyOp24
 70
     1
102
RTVSPropertyOp25
 70
     1
102
RTVSPropertyOp26
 70
     1
102
RTVSPropertyOp27
 70
     1
102
RTVSPropertyOp28
 70
     1
102
RTVSPropertyOp29
 70
     1
102
RTVSPropertyOp30
 70
     1
102
RTVSPropertyOp31
 70
     1
102
RTVSPropertyOp32
 70
     1
102
RTVSPropertyOp33
 70
     1
102
RTVSPropertyOp34
 70
     1
102
RTVSPropertyOp35
 70
     1
102
RTVSPropertyOp36
 70
     1
102
RTVSPropertyOp37
 70
     1
102
RTVSPropertyOp38
 70
     1
102
RTVSPropertyOp39
 70
     1
102
RTVSPropertyOp40
 70
     1
102
RTVSPropertyOp41
 70
     1
102
RTVSPropertyOp42
 70
     1
102
RTVSPropertyOp43
 70
     1
102
RTVSPropertyOp44
 70
     1
102
RTVSPropertyOp45
 70
     1
102
RTVSPropertyOp46
 70
     1
102
RTVSPropertyOp47
 70
     1
102
RTVSPropertyOp48
 70
     1
102
RTVSPropertyOp49
 70
     1
102
RTVSPropertyOp50
 70
     1
102
RTVSPropertyOp51
 70
     0
102
RTVSPropertyOp52
 70
     0
102
RTVSPropertyOp53
 70
     1
102
RTVSPropertyOp54
 70
     1
102
RTVSPropertyOp55
 70
     1
102
RTVSPropertyOp56
 70
     1
102
RTVSPropertyOp57
 70
     1
102
RTVSPost2010Prop28
280
     0
102
RTVSPost2010PropOp28
 70
     1
102
RTVSPost2010Prop29
280
     1
102
RTVSPost2010PropOp29
 70
     1
102
RTVSPost2010Prop30
280
     1
102
RTVSPost2010PropOp30
 70
     1
102
RTVSPost2010Prop31
280
     0
102
RTVSPost2010PropOp31
 70
     1
102
RTVSPost2010Prop32
280
     0
102
RTVSPost2010PropOp32
 70
     1
102
RTVSPost2010Prop33
280
     0
102
RTVSPost2010PropOp33
 70
     1
102
RTVSPost2010Prop34
280
     0
102
RTVSPost2010PropOp34
 70
     1
102
RTVSPost2010Prop35
280
     0
102
RTVSPost2010PropOp35
 70
     1
102
RTVSPost2010Prop36
280
     0
102
RTVSPost2010PropOp36
 70
     1
102
RTVSPost2010Prop37
 90
       50
102
RTVSPost2010PropOp37
 70
     1
102
RTVSPost2010Prop38
140
0.0
102
RTVSPost2010PropOp38
 70
     1
102
RTVSPost2010Prop39
140
1.0
102
RTVSPost2010PropOp39
 70
     1
102
RTVSPost2010Prop40
 90
        0
102
RTVSPost2010PropOp40
 70
     1
102
RTVSPost2010Prop41ColorIndex
 90
       18
102
RTVSPost2010Prop41ColorRGB
 90
        0
102
RTVSPost2010PropOp41
 70
     1
102
RTVSPost2010Prop42
 90
       50
102
RTVSPost2010PropOp42
 70
     1
102
RTVSPost2010Prop43
 90
        3
102
RTVSPost2010PropOp43
 70
     1
102
RTVSPost2010Prop44ColorIndex
 90
        5
102
RTVSPost2010Prop44ColorRGB
 90
      255
102
RTVSPost2010PropOp44
 70
     1
102
RTVSPost2010Prop45
280
     0
102
RTVSPost2010PropOp45
 70
     1
102
RTVSPost2010Prop46
 90
       50
102
RTVSPost2010PropOp46
 70
     1
102
RTVSPost2010Prop47
 90
       50
102
RTVSPost2010PropOp47
 70
     1
102
RTVSPost2010Prop48
 90
       50
102
RTVSPost2010PropOp48
 70
     1
102
RTVSPost2010Prop49
280
     0
102
RTVSPost2010PropOp49
 70
     1
102
RTVSPost2010Prop50
 90
       50
102
RTVSPost2010PropOp50
 70
     1
102
RTVSPost2010Prop51ColorIndex
 90
      256
102
RTVSPost2010Prop51ColorRGB
 90
-16777216
102
RTVSPost2010PropOp51
 70
     0
102
RTVSPost2010Prop52
140
1.0
102
RTVSPost2010PropOp52
 70
     0
102
RTVSPost2010Prop53
 90
        2
102
RTVSPost2010PropOp53
 70
     1
102
RTVSPost2010Prop54
  1
strokes_ogs.tif
102
RTVSPost2010PropOp54
 70
     1
102
RTVSPost2010Prop55
280
     0
102
RTVSPost2010PropOp55
 70
     1
102
RTVSPost2010Prop56
140
1.0
102
RTVSPost2010PropOp56
 70
     1
102
RTVSPost2010Prop57
140
1.0
102
RTVSPost2010PropOp57
 70
     1
  0
XRECORD
  5
3B0
102
{ACAD_REACTORS
330
3AF
102
}
330
3AF
100
AcDbXrecord
280
     1
102
RTVSPropertyOp0
 70
     0
102
RTVSPropertyOp1
 70
     0
102
RTVSPropertyOp2
 70
     0
102
RTVSPropertyOp3
 70
     0
102
RTVSPropertyOp4
 70
     0
102
RTVSPropertyOp5
 70
     0
102
RTVSPropertyOp6
 70
     0
102
RTVSPropertyOp7
 70
     0
102
RTVSPropertyOp8
 70
     0
102
RTVSPropertyOp9
 70
     0
102
RTVSPropertyOp10
 70
     0
102
RTVSPropertyOp11
 70
     0
102
RTVSPropertyOp12
 70
     0
102
RTVSPropertyOp13
 70
     0
102
RTVSPropertyOp14
 70
     2
102
RTVSPropertyOp15
 70
     0
102
RTVSPropertyOp16
 70
     0
102
RTVSPropertyOp17
 70
     0
102
RTVSPropertyOp18
 70
     0
102
RTVSPropertyOp19
 70
     0
102
RTVSPropertyOp20
 70
     0
102
RTVSPropertyOp21
 70
     0
102
RTVSPropertyOp22
 70
     0
102
RTVSPropertyOp23
 70
     0
102
RTVSPropertyOp24
 70
     0
102
RTVSPropertyOp25
 70
     0
102
RTVSPropertyOp26
 70
     0
102
RTVSPropertyOp27
 70
     0
102
RTVSPropertyOp28
 70
     0
102
RTVSPropertyOp29
 70
     0
102
RTVSPropertyOp30
 70
     0
102
RTVSPropertyOp31
 70
     0
102
RTVSPropertyOp32
 70
     0
102
RTVSPropertyOp33
 70
     0
102
RTVSPropertyOp34
 70
     0
102
RTVSPropertyOp35
 70
     0
102
RTVSPropertyOp36
 70
     0
102
RTVSPropertyOp37
 70
     0
102
RTVSPropertyOp38
 70
     0
102
RTVSPropertyOp39
 70
     0
102
RTVSPropertyOp40
 70
     0
102
RTVSPropertyOp41
 70
     0
102
RTVSPropertyOp42
 70
     0
102
RTVSPropertyOp43
 70
     0
102
RTVSPropertyOp44
 70
     0
102
RTVSPropertyOp45
 70
     0
102
RTVSPropertyOp46
 70
     0
102
RTVSPropertyOp47
 70
     0
102
RTVSPropertyOp48
 70
     0
102
RTVSPropertyOp49
 70
     0
102
RTVSPropertyOp50
 70
     0
102
RTVSPropertyOp51
 70
     0
102
RTVSPropertyOp52
 70
     0
102
RTVSPropertyOp53
 70
     0
102
RTVSPropertyOp54
 70
     0
102
RTVSPropertyOp55
 70
     0
102
RTVSPropertyOp56
 70
     0
102
RTVSPropertyOp57
 70
     0
102
RTVSPost2010Prop28
280
     0
102
RTVSPost2010PropOp28
 70
     0
102
RTVSPost2010Prop29
280
     1
102
RTVSPost2010PropOp29
 70
     0
102
RTVSPost2010Prop30
280
     1
102
RTVSPost2010PropOp30
 70
     0
102
RTVSPost2010Prop31
280
     0
102
RTVSPost2010PropOp31
 70
     0
102
RTVSPost2010Prop32
280
     0
102
RTVSPost2010PropOp32
 70
     0
102
RTVSPost2010Prop33
280
     0
102
RTVSPost2010PropOp33
 70
     0
102
RTVSPost2010Prop34
280
     0
102
RTVSPost2010PropOp34
 70
     0
102
RTVSPost2010Prop35
280
     0
102
RTVSPost2010PropOp35
 70
     0
102
RTVSPost2010Prop36
280
     0
102
RTVSPost2010PropOp36
 70
     0
102
RTVSPost2010Prop37
 90
       50
102
RTVSPost2010PropOp37
 70
     0
102
RTVSPost2010Prop38
140
0.0
102
RTVSPost2010PropOp38
 70
     0
102
RTVSPost2010Prop39
140
1.0
102
RTVSPost2010PropOp39
 70
     0
102
RTVSPost2010Prop40
 90
        0
102
RTVSPost2010PropOp40
 70
     0
102
RTVSPost2010Prop41ColorIndex
 90
       18
102
RTVSPost2010Prop41ColorRGB
 90
        0
102
RTVSPost2010PropOp41
 70
     0
102
RTVSPost2010Prop42
 90
       50
102
RTVSPost2010PropOp42
 70
     0
102
RTVSPost2010Prop43
 90
        3
102
RTVSPost2010PropOp43
 70
     0
102
RTVSPost2010Prop44ColorIndex
 90
        5
102
RTVSPost2010Prop44ColorRGB
 90
      255
102
RTVSPost2010PropOp44
 70
     0
102
RTVSPost2010Prop45
280
     0
102
RTVSPost2010PropOp45
 70
     0
102
RTVSPost2010Prop46
 90
       50
102
RTVSPost2010PropOp46
 70
     0
102
RTVSPost2010Prop47
 90
       50
102
RTVSPost2010PropOp47
 70
     0
102
RTVSPost2010Prop48
 90
       50
102
RTVSPost2010PropOp48
 70
     0
102
RTVSPost2010Prop49
280
     0
102
RTVSPost2010PropOp49
 70
     0
102
RTVSPost2010Prop50
 90
       50
102
RTVSPost2010PropOp50
 70
     0
102
RTVSPost2010Prop51ColorIndex
 90
      256
102
RTVSPost2010Prop51ColorRGB
 90
-16777216
102
RTVSPost2010PropOp51
 70
     0
102
RTVSPost2010Prop52
140
1.0
102
RTVSPost2010PropOp52
 70
     0
102
RTVSPost2010Prop53
 90
        2
102
RTVSPost2010PropOp53
 70
     0
102
RTVSPost2010Prop54
  1
strokes_ogs.tif
102
RTVSPost2010PropOp54
 70
     0
102
RTVSPost2010Prop55
280
     0
102
RTVSPost2010PropOp55
 70
     0
102
RTVSPost2010Prop56
140
1.0
102
RTVSPost2010PropOp56
 70
     0
102
RTVSPost2010Prop57
140
1.0
102
RTVSPost2010PropOp57
 70
     0
  0
XRECORD
  5
39E
102
{ACAD_REACTORS
330
39D
102
}
330
39D
100
AcDbXrecord
280
     1
102
RTVSPropertyOp0
 70
     1
102
RTVSPropertyOp1
 70
     1
102
RTVSPropertyOp2
 70
     1
102
RTVSPropertyOp3
 70
     1
102
RTVSPropertyOp4
 70
     1
102
RTVSPropertyOp5
 70
     1
102
RTVSPropertyOp6
 70
     1
102
RTVSPropertyOp7
 70
     1
102
RTVSPropertyOp8
 70
     1
102
RTVSPropertyOp9
 70
     1
102
RTVSPropertyOp10
 70
     1
102
RTVSPropertyOp11
 70
     1
102
RTVSPropertyOp12
 70
     1
102
RTVSPropertyOp13
 70
     1
102
RTVSPropertyOp14
 70
     1
102
RTVSPropertyOp15
 70
     1
102
RTVSPropertyOp16
 70
     1
102
RTVSPropertyOp17
 70
     1
102
RTVSPropertyOp18
 70
     1
102
RTVSPropertyOp19
 70
     1
102
RTVSPropertyOp20
 70
     1
102
RTVSPropertyOp21
 70
     1
102
RTVSPropertyOp22
 70
     1
102
RTVSPropertyOp23
 70
     1
102
RTVSPropertyOp24
 70
     1
102
RTVSPropertyOp25
 70
     1
102
RTVSPropertyOp26
 70
     1
102
RTVSPropertyOp27
 70
     1
102
RTVSPropertyOp28
 70
     1
102
RTVSPropertyOp29
 70
     1
102
RTVSPropertyOp30
 70
     1
102
RTVSPropertyOp31
 70
     1
102
RTVSPropertyOp32
 70
     1
102
RTVSPropertyOp33
 70
     1
102
RTVSPropertyOp34
 70
     1
102
RTVSPropertyOp35
 70
     1
102
RTVSPropertyOp36
 70
     1
102
RTVSPropertyOp37
 70
     1
102
RTVSPropertyOp38
 70
     1
102
RTVSPropertyOp39
 70
     1
102
RTVSPropertyOp40
 70
     1
102
RTVSPropertyOp41
 70
     1
102
RTVSPropertyOp42
 70
     1
102
RTVSPropertyOp43
 70
     1
102
RTVSPropertyOp44
 70
     1
102
RTVSPropertyOp45
 70
     1
102
RTVSPropertyOp46
 70
     1
102
RTVSPropertyOp47
 70
     1
102
RTVSPropertyOp48
 70
     1
102
RTVSPropertyOp49
 70
     1
102
RTVSPropertyOp50
 70
     1
102
RTVSPropertyOp51
 70
     0
102
RTVSPropertyOp52
 70
     0
102
RTVSPropertyOp53
 70
     1
102
RTVSPropertyOp54
 70
     1
102
RTVSPropertyOp55
 70
     1
102
RTVSPropertyOp56
 70
     1
102
RTVSPropertyOp57
 70
     1
102
RTVSPost2010Prop28
280
     0
102
RTVSPost2010PropOp28
 70
     1
102
RTVSPost2010Prop29
280
     1
102
RTVSPost2010PropOp29
 70
     1
102
RTVSPost2010Prop30
280
     1
102
RTVSPost2010PropOp30
 70
     1
102
RTVSPost2010Prop31
280
     0
102
RTVSPost2010PropOp31
 70
     1
102
RTVSPost2010Prop32
280
     0
102
RTVSPost2010PropOp32
 70
     1
102
RTVSPost2010Prop33
280
     0
102
RTVSPost2010PropOp33
 70
     1
102
RTVSPost2010Prop34
280
     0
102
RTVSPost2010PropOp34
 70
     1
102
RTVSPost2010Prop35
280
     0
102
RTVSPost2010PropOp35
 70
     1
102
RTVSPost2010Prop36
280
     0
102
RTVSPost2010PropOp36
 70
     1
102
RTVSPost2010Prop37
 90
       50
102
RTVSPost2010PropOp37
 70
     1
102
RTVSPost2010Prop38
140
0.0
102
RTVSPost2010PropOp38
 70
     1
102
RTVSPost2010Prop39
140
1.0
102
RTVSPost2010PropOp39
 70
     1
102
RTVSPost2010Prop40
 90
        0
102
RTVSPost2010PropOp40
 70
     1
102
RTVSPost2010Prop41ColorIndex
 90
       18
102
RTVSPost2010Prop41ColorRGB
 90
        0
102
RTVSPost2010PropOp41
 70
     1
102
RTVSPost2010Prop42
 90
       50
102
RTVSPost2010PropOp42
 70
     1
102
RTVSPost2010Prop43
 90
        3
102
RTVSPost2010PropOp43
 70
     1
102
RTVSPost2010Prop44ColorIndex
 90
        5
102
RTVSPost2010Prop44ColorRGB
 90
      255
102
RTVSPost2010PropOp44
 70
     1
102
RTVSPost2010Prop45
280
     0
102
RTVSPost2010PropOp45
 70
     1
102
RTVSPost2010Prop46
 90
       50
102
RTVSPost2010PropOp46
 70
     1
102
RTVSPost2010Prop47
 90
       50
102
RTVSPost2010PropOp47
 70
     1
102
RTVSPost2010Prop48
 90
       50
102
RTVSPost2010PropOp48
 70
     1
102
RTVSPost2010Prop49
280
     0
102
RTVSPost2010PropOp49
 70
     1
102
RTVSPost2010Prop50
 90
       50
102
RTVSPost2010PropOp50
 70
     1
102
RTVSPost2010Prop51ColorIndex
 90
      256
102
RTVSPost2010Prop51ColorRGB
 90
-16777216
102
RTVSPost2010PropOp51
 70
     0
102
RTVSPost2010Prop52
140
1.0
102
RTVSPost2010PropOp52
 70
     0
102
RTVSPost2010Prop53
 90
        2
102
RTVSPost2010PropOp53
 70
     1
102
RTVSPost2010Prop54
  1
strokes_ogs.tif
102
RTVSPost2010PropOp54
 70
     1
102
RTVSPost2010Prop55
280
     0
102
RTVSPost2010PropOp55
 70
     1
102
RTVSPost2010Prop56
140
1.0
102
RTVSPost2010PropOp56
 70
     1
102
RTVSPost2010Prop57
140
1.0
102
RTVSPost2010PropOp57
 70
     1
  0
XRECORD
  5
3BC
102
{ACAD_REACTORS
330
3BB
102
}
330
3BB
100
AcDbXrecord
280
     1
102
RTVSPropertyOp0
 70
     1
102
RTVSPropertyOp1
 70
     1
102
RTVSPropertyOp2
 70
     1
102
RTVSPropertyOp3
 70
     1
102
RTVSPropertyOp4
 70
     1
102
RTVSPropertyOp5
 70
     1
102
RTVSPropertyOp6
 70
     1
102
RTVSPropertyOp7
 70
     1
102
RTVSPropertyOp8
 70
     1
102
RTVSPropertyOp9
 70
     1
102
RTVSPropertyOp10
 70
     1
102
RTVSPropertyOp11
 70
     1
102
RTVSPropertyOp12
 70
     1
102
RTVSPropertyOp13
 70
     1
102
RTVSPropertyOp14
 70
     1
102
RTVSPropertyOp15
 70
     1
102
RTVSPropertyOp16
 70
     1
102
RTVSPropertyOp17
 70
     1
102
RTVSPropertyOp18
 70
     1
102
RTVSPropertyOp19
 70
     1
102
RTVSPropertyOp20
 70
     1
102
RTVSPropertyOp21
 70
     1
102
RTVSPropertyOp22
 70
     1
102
RTVSPropertyOp23
 70
     1
102
RTVSPropertyOp24
 70
     1
102
RTVSPropertyOp25
 70
     1
102
RTVSPropertyOp26
 70
     1
102
RTVSPropertyOp27
 70
     1
102
RTVSPropertyOp28
 70
     1
102
RTVSPropertyOp29
 70
     1
102
RTVSPropertyOp30
 70
     1
102
RTVSPropertyOp31
 70
     1
102
RTVSPropertyOp32
 70
     1
102
RTVSPropertyOp33
 70
     1
102
RTVSPropertyOp34
 70
     1
102
RTVSPropertyOp35
 70
     1
102
RTVSPropertyOp36
 70
     1
102
RTVSPropertyOp37
 70
     1
102
RTVSPropertyOp38
 70
     1
102
RTVSPropertyOp39
 70
     1
102
RTVSPropertyOp40
 70
     1
102
RTVSPropertyOp41
 70
     1
102
RTVSPropertyOp42
 70
     1
102
RTVSPropertyOp43
 70
     1
102
RTVSPropertyOp44
 70
     1
102
RTVSPropertyOp45
 70
     1
102
RTVSPropertyOp46
 70
     1
102
RTVSPropertyOp47
 70
     1
102
RTVSPropertyOp48
 70
     1
102
RTVSPropertyOp49
 70
     1
102
RTVSPropertyOp50
 70
     1
102
RTVSPropertyOp51
 70
     0
102
RTVSPropertyOp52
 70
     0
102
RTVSPropertyOp53
 70
     1
102
RTVSPropertyOp54
 70
     1
102
RTVSPropertyOp55
 70
     1
102
RTVSPropertyOp56
 70
     1
102
RTVSPropertyOp57
 70
     1
102
RTVSPost2010Prop28
280
     0
102
RTVSPost2010PropOp28
 70
     1
102
RTVSPost2010Prop29
280
     1
102
RTVSPost2010PropOp29
 70
     1
102
RTVSPost2010Prop30
280
     1
102
RTVSPost2010PropOp30
 70
     1
102
RTVSPost2010Prop31
280
     0
102
RTVSPost2010PropOp31
 70
     1
102
RTVSPost2010Prop32
280
     0
102
RTVSPost2010PropOp32
 70
     1
102
RTVSPost2010Prop33
280
     0
102
RTVSPost2010PropOp33
 70
     1
102
RTVSPost2010Prop34
280
     0
102
RTVSPost2010PropOp34
 70
     1
102
RTVSPost2010Prop35
280
     0
102
RTVSPost2010PropOp35
 70
     1
102
RTVSPost2010Prop36
280
     0
102
RTVSPost2010PropOp36
 70
     1
102
RTVSPost2010Prop37
 90
       50
102
RTVSPost2010PropOp37
 70
     1
102
RTVSPost2010Prop38
140
0.0
102
RTVSPost2010PropOp38
 70
     1
102
RTVSPost2010Prop39
140
1.0
102
RTVSPost2010PropOp39
 70
     1
102
RTVSPost2010Prop40
 90
        0
102
RTVSPost2010PropOp40
 70
     1
102
RTVSPost2010Prop41ColorIndex
 90
       18
102
RTVSPost2010Prop41ColorRGB
 90
        0
102
RTVSPost2010PropOp41
 70
     1
102
RTVSPost2010Prop42
 90
       50
102
RTVSPost2010PropOp42
 70
     1
102
RTVSPost2010Prop43
 90
        3
102
RTVSPost2010PropOp43
 70
     1
102
RTVSPost2010Prop44ColorIndex
 90
        5
102
RTVSPost2010Prop44ColorRGB
 90
      255
102
RTVSPost2010PropOp44
 70
     1
102
RTVSPost2010Prop45
280
     0
102
RTVSPost2010PropOp45
 70
     1
102
RTVSPost2010Prop46
 90
       50
102
RTVSPost2010PropOp46
 70
     1
102
RTVSPost2010Prop47
 90
       50
102
RTVSPost2010PropOp47
 70
     1
102
RTVSPost2010Prop48
 90
       50
102
RTVSPost2010PropOp48
 70
     1
102
RTVSPost2010Prop49
280
     0
102
RTVSPost2010PropOp49
 70
     1
102
RTVSPost2010Prop50
 90
       50
102
RTVSPost2010PropOp50
 70
     1
102
RTVSPost2010Prop51ColorIndex
 90
      256
102
RTVSPost2010Prop51ColorRGB
 90
-16777216
102
RTVSPost2010PropOp51
 70
     0
102
RTVSPost2010Prop52
140
1.0
102
RTVSPost2010PropOp52
 70
     0
102
RTVSPost2010Prop53
 90
        2
102
RTVSPost2010PropOp53
 70
     1
102
RTVSPost2010Prop54
  1
strokes_ogs.tif
102
RTVSPost2010PropOp54
 70
     1
102
RTVSPost2010Prop55
280
     0
102
RTVSPost2010PropOp55
 70
     1
102
RTVSPost2010Prop56
140
1.0
102
RTVSPost2010PropOp56
 70
     1
102
RTVSPost2010Prop57
140
1.0
102
RTVSPost2010PropOp57
 70
     1
  0
XRECORD
  5
3BA
102
{ACAD_REACTORS
330
3B9
102
}
330
3B9
100
AcDbXrecord
280
     1
102
RTVSPropertyOp0
 70
     1
102
RTVSPropertyOp1
 70
     1
102
RTVSPropertyOp2
 70
     1
102
RTVSPropertyOp3
 70
     1
102
RTVSPropertyOp4
 70
     1
102
RTVSPropertyOp5
 70
     1
102
RTVSPropertyOp6
 70
     1
102
RTVSPropertyOp7
 70
     1
102
RTVSPropertyOp8
 70
     1
102
RTVSPropertyOp9
 70
     1
102
RTVSPropertyOp10
 70
     1
102
RTVSPropertyOp11
 70
     1
102
RTVSPropertyOp12
 70
     1
102
RTVSPropertyOp13
 70
     1
102
RTVSPropertyOp14
 70
     1
102
RTVSPropertyOp15
 70
     1
102
RTVSPropertyOp16
 70
     1
102
RTVSPropertyOp17
 70
     1
102
RTVSPropertyOp18
 70
     1
102
RTVSPropertyOp19
 70
     1
102
RTVSPropertyOp20
 70
     1
102
RTVSPropertyOp21
 70
     1
102
RTVSPropertyOp22
 70
     1
102
RTVSPropertyOp23
 70
     1
102
RTVSPropertyOp24
 70
     1
102
RTVSPropertyOp25
 70
     1
102
RTVSPropertyOp26
 70
     1
102
RTVSPropertyOp27
 70
     1
102
RTVSPropertyOp28
 70
     1
102
RTVSPropertyOp29
 70
     1
102
RTVSPropertyOp30
 70
     1
102
RTVSPropertyOp31
 70
     1
102
RTVSPropertyOp32
 70
     1
102
RTVSPropertyOp33
 70
     1
102
RTVSPropertyOp34
 70
     1
102
RTVSPropertyOp35
 70
     1
102
RTVSPropertyOp36
 70
     1
102
RTVSPropertyOp37
 70
     1
102
RTVSPropertyOp38
 70
     1
102
RTVSPropertyOp39
 70
     1
102
RTVSPropertyOp40
 70
     1
102
RTVSPropertyOp41
 70
     1
102
RTVSPropertyOp42
 70
     1
102
RTVSPropertyOp43
 70
     1
102
RTVSPropertyOp44
 70
     1
102
RTVSPropertyOp45
 70
     1
102
RTVSPropertyOp46
 70
     1
102
RTVSPropertyOp47
 70
     1
102
RTVSPropertyOp48
 70
     1
102
RTVSPropertyOp49
 70
     1
102
RTVSPropertyOp50
 70
     1
102
RTVSPropertyOp51
 70
     0
102
RTVSPropertyOp52
 70
     0
102
RTVSPropertyOp53
 70
     1
102
RTVSPropertyOp54
 70
     1
102
RTVSPropertyOp55
 70
     1
102
RTVSPropertyOp56
 70
     1
102
RTVSPropertyOp57
 70
     1
102
RTVSPost2010Prop28
280
     0
102
RTVSPost2010PropOp28
 70
     1
102
RTVSPost2010Prop29
280
     1
102
RTVSPost2010PropOp29
 70
     1
102
RTVSPost2010Prop30
280
     1
102
RTVSPost2010PropOp30
 70
     1
102
RTVSPost2010Prop31
280
     0
102
RTVSPost2010PropOp31
 70
     1
102
RTVSPost2010Prop32
280
     0
102
RTVSPost2010PropOp32
 70
     1
102
RTVSPost2010Prop33
280
     0
102
RTVSPost2010PropOp33
 70
     1
102
RTVSPost2010Prop34
280
     0
102
RTVSPost2010PropOp34
 70
     1
102
RTVSPost2010Prop35
280
     0
102
RTVSPost2010PropOp35
 70
     1
102
RTVSPost2010Prop36
280
     0
102
RTVSPost2010PropOp36
 70
     1
102
RTVSPost2010Prop37
 90
       50
102
RTVSPost2010PropOp37
 70
     1
102
RTVSPost2010Prop38
140
0.0
102
RTVSPost2010PropOp38
 70
     1
102
RTVSPost2010Prop39
140
1.0
102
RTVSPost2010PropOp39
 70
     1
102
RTVSPost2010Prop40
 90
        0
102
RTVSPost2010PropOp40
 70
     1
102
RTVSPost2010Prop41ColorIndex
 90
       18
102
RTVSPost2010Prop41ColorRGB
 90
        0
102
RTVSPost2010PropOp41
 70
     1
102
RTVSPost2010Prop42
 90
       50
102
RTVSPost2010PropOp42
 70
     1
102
RTVSPost2010Prop43
 90
        3
102
RTVSPost2010PropOp43
 70
     1
102
RTVSPost2010Prop44ColorIndex
 90
        5
102
RTVSPost2010Prop44ColorRGB
 90
      255
102
RTVSPost2010PropOp44
 70
     1
102
RTVSPost2010Prop45
280
     0
102
RTVSPost2010PropOp45
 70
     1
102
RTVSPost2010Prop46
 90
       50
102
RTVSPost2010PropOp46
 70
     1
102
RTVSPost2010Prop47
 90
       50
102
RTVSPost2010PropOp47
 70
     1
102
RTVSPost2010Prop48
 90
       50
102
RTVSPost2010PropOp48
 70
     1
102
RTVSPost2010Prop49
280
     0
102
RTVSPost2010PropOp49
 70
     1
102
RTVSPost2010Prop50
 90
       50
102
RTVSPost2010PropOp50
 70
     1
102
RTVSPost2010Prop51ColorIndex
 90
      256
102
RTVSPost2010Prop51ColorRGB
 90
-16777216
102
RTVSPost2010PropOp51
 70
     0
102
RTVSPost2010Prop52
140
1.0
102
RTVSPost2010PropOp52
 70
     0
102
RTVSPost2010Prop53
 90
        2
102
RTVSPost2010PropOp53
 70
     1
102
RTVSPost2010Prop54
  1
strokes_ogs.tif
102
RTVSPost2010PropOp54
 70
     1
102
RTVSPost2010Prop55
280
     0
102
RTVSPost2010PropOp55
 70
     1
102
RTVSPost2010Prop56
140
1.0
102
RTVSPost2010PropOp56
 70
     1
102
RTVSPost2010Prop57
140
1.0
102
RTVSPost2010PropOp57
 70
     1
  0
XRECORD
  5
3B4
102
{ACAD_REACTORS
330
3B3
102
}
330
3B3
100
AcDbXrecord
280
     1
102
RTVSPropertyOp0
 70
     1
102
RTVSPropertyOp1
 70
     1
102
RTVSPropertyOp2
 70
     1
102
RTVSPropertyOp3
 70
     1
102
RTVSPropertyOp4
 70
     1
102
RTVSPropertyOp5
 70
     1
102
RTVSPropertyOp6
 70
     1
102
RTVSPropertyOp7
 70
     1
102
RTVSPropertyOp8
 70
     1
102
RTVSPropertyOp9
 70
     1
102
RTVSPropertyOp10
 70
     1
102
RTVSPropertyOp11
 70
     1
102
RTVSPropertyOp12
 70
     1
102
RTVSPropertyOp13
 70
     1
102
RTVSPropertyOp14
 70
     1
102
RTVSPropertyOp15
 70
     1
102
RTVSPropertyOp16
 70
     1
102
RTVSPropertyOp17
 70
     1
102
RTVSPropertyOp18
 70
     1
102
RTVSPropertyOp19
 70
     1
102
RTVSPropertyOp20
 70
     1
102
RTVSPropertyOp21
 70
     1
102
RTVSPropertyOp22
 70
     1
102
RTVSPropertyOp23
 70
     1
102
RTVSPropertyOp24
 70
     1
102
RTVSPropertyOp25
 70
     1
102
RTVSPropertyOp26
 70
     1
102
RTVSPropertyOp27
 70
     1
102
RTVSPropertyOp28
 70
     1
102
RTVSPropertyOp29
 70
     1
102
RTVSPropertyOp30
 70
     1
102
RTVSPropertyOp31
 70
     1
102
RTVSPropertyOp32
 70
     1
102
RTVSPropertyOp33
 70
     1
102
RTVSPropertyOp34
 70
     1
102
RTVSPropertyOp35
 70
     1
102
RTVSPropertyOp36
 70
     1
102
RTVSPropertyOp37
 70
     1
102
RTVSPropertyOp38
 70
     1
102
RTVSPropertyOp39
 70
     1
102
RTVSPropertyOp40
 70
     1
102
RTVSPropertyOp41
 70
     1
102
RTVSPropertyOp42
 70
     1
102
RTVSPropertyOp43
 70
     1
102
RTVSPropertyOp44
 70
     1
102
RTVSPropertyOp45
 70
     1
102
RTVSPropertyOp46
 70
     1
102
RTVSPropertyOp47
 70
     1
102
RTVSPropertyOp48
 70
     1
102
RTVSPropertyOp49
 70
     1
102
RTVSPropertyOp50
 70
     1
102
RTVSPropertyOp51
 70
     0
102
RTVSPropertyOp52
 70
     0
102
RTVSPropertyOp53
 70
     1
102
RTVSPropertyOp54
 70
     1
102
RTVSPropertyOp55
 70
     1
102
RTVSPropertyOp56
 70
     1
102
RTVSPropertyOp57
 70
     1
102
RTVSPost2010Prop28
280
     0
102
RTVSPost2010PropOp28
 70
     1
102
RTVSPost2010Prop29
280
     1
102
RTVSPost2010PropOp29
 70
     1
102
RTVSPost2010Prop30
280
     1
102
RTVSPost2010PropOp30
 70
     1
102
RTVSPost2010Prop31
280
     0
102
RTVSPost2010PropOp31
 70
     1
102
RTVSPost2010Prop32
280
     0
102
RTVSPost2010PropOp32
 70
     1
102
RTVSPost2010Prop33
280
     0
102
RTVSPost2010PropOp33
 70
     1
102
RTVSPost2010Prop34
280
     0
102
RTVSPost2010PropOp34
 70
     1
102
RTVSPost2010Prop35
280
     0
102
RTVSPost2010PropOp35
 70
     1
102
RTVSPost2010Prop36
280
     0
102
RTVSPost2010PropOp36
 70
     1
102
RTVSPost2010Prop37
 90
       50
102
RTVSPost2010PropOp37
 70
     1
102
RTVSPost2010Prop38
140
0.0
102
RTVSPost2010PropOp38
 70
     1
102
RTVSPost2010Prop39
140
1.0
102
RTVSPost2010PropOp39
 70
     1
102
RTVSPost2010Prop40
 90
        0
102
RTVSPost2010PropOp40
 70
     1
102
RTVSPost2010Prop41ColorIndex
 90
       18
102
RTVSPost2010Prop41ColorRGB
 90
        0
102
RTVSPost2010PropOp41
 70
     1
102
RTVSPost2010Prop42
 90
       50
102
RTVSPost2010PropOp42
 70
     1
102
RTVSPost2010Prop43
 90
        3
102
RTVSPost2010PropOp43
 70
     1
102
RTVSPost2010Prop44ColorIndex
 90
        5
102
RTVSPost2010Prop44ColorRGB
 90
      255
102
RTVSPost2010PropOp44
 70
     1
102
RTVSPost2010Prop45
280
     0
102
RTVSPost2010PropOp45
 70
     1
102
RTVSPost2010Prop46
 90
       50
102
RTVSPost2010PropOp46
 70
     1
102
RTVSPost2010Prop47
 90
       50
102
RTVSPost2010PropOp47
 70
     1
102
RTVSPost2010Prop48
 90
       50
102
RTVSPost2010PropOp48
 70
     1
102
RTVSPost2010Prop49
280
     0
102
RTVSPost2010PropOp49
 70
     1
102
RTVSPost2010Prop50
 90
       50
102
RTVSPost2010PropOp50
 70
     1
102
RTVSPost2010Prop51ColorIndex
 90
      256
102
RTVSPost2010Prop51ColorRGB
 90
-16777216
102
RTVSPost2010PropOp51
 70
     0
102
RTVSPost2010Prop52
140
1.0
102
RTVSPost2010PropOp52
 70
     0
102
RTVSPost2010Prop53
 90
        2
102
RTVSPost2010PropOp53
 70
     1
102
RTVSPost2010Prop54
  1
strokes_ogs.tif
102
RTVSPost2010PropOp54
 70
     1
102
RTVSPost2010Prop55
280
     0
102
RTVSPost2010PropOp55
 70
     1
102
RTVSPost2010Prop56
140
1.0
102
RTVSPost2010PropOp56
 70
     1
102
RTVSPost2010Prop57
140
1.0
102
RTVSPost2010PropOp57
 70
     1
  0
XRECORD
  5
3B6
102
{ACAD_REACTORS
330
3B5
102
}
330
3B5
100
AcDbXrecord
280
     1
102
RTVSPropertyOp0
 70
     1
102
RTVSPropertyOp1
 70
     1
102
RTVSPropertyOp2
 70
     1
102
RTVSPropertyOp3
 70
     1
102
RTVSPropertyOp4
 70
     1
102
RTVSPropertyOp5
 70
     1
102
RTVSPropertyOp6
 70
     1
102
RTVSPropertyOp7
 70
     1
102
RTVSPropertyOp8
 70
     1
102
RTVSPropertyOp9
 70
     1
102
RTVSPropertyOp10
 70
     1
102
RTVSPropertyOp11
 70
     1
102
RTVSPropertyOp12
 70
     1
102
RTVSPropertyOp13
 70
     1
102
RTVSPropertyOp14
 70
     1
102
RTVSPropertyOp15
 70
     1
102
RTVSPropertyOp16
 70
     1
102
RTVSPropertyOp17
 70
     1
102
RTVSPropertyOp18
 70
     1
102
RTVSPropertyOp19
 70
     1
102
RTVSPropertyOp20
 70
     1
102
RTVSPropertyOp21
 70
     1
102
RTVSPropertyOp22
 70
     1
102
RTVSPropertyOp23
 70
     1
102
RTVSPropertyOp24
 70
     1
102
RTVSPropertyOp25
 70
     1
102
RTVSPropertyOp26
 70
     1
102
RTVSPropertyOp27
 70
     1
102
RTVSPropertyOp28
 70
     1
102
RTVSPropertyOp29
 70
     1
102
RTVSPropertyOp30
 70
     1
102
RTVSPropertyOp31
 70
     1
102
RTVSPropertyOp32
 70
     1
102
RTVSPropertyOp33
 70
     1
102
RTVSPropertyOp34
 70
     1
102
RTVSPropertyOp35
 70
     1
102
RTVSPropertyOp36
 70
     1
102
RTVSPropertyOp37
 70
     1
102
RTVSPropertyOp38
 70
     1
102
RTVSPropertyOp39
 70
     1
102
RTVSPropertyOp40
 70
     1
102
RTVSPropertyOp41
 70
     1
102
RTVSPropertyOp42
 70
     1
102
RTVSPropertyOp43
 70
     1
102
RTVSPropertyOp44
 70
     1
102
RTVSPropertyOp45
 70
     1
102
RTVSPropertyOp46
 70
     1
102
RTVSPropertyOp47
 70
     1
102
RTVSPropertyOp48
 70
     1
102
RTVSPropertyOp49
 70
     1
102
RTVSPropertyOp50
 70
     1
102
RTVSPropertyOp51
 70
     0
102
RTVSPropertyOp52
 70
     0
102
RTVSPropertyOp53
 70
     1
102
RTVSPropertyOp54
 70
     1
102
RTVSPropertyOp55
 70
     1
102
RTVSPropertyOp56
 70
     1
102
RTVSPropertyOp57
 70
     1
102
RTVSPost2010Prop28
280
     0
102
RTVSPost2010PropOp28
 70
     1
102
RTVSPost2010Prop29
280
     1
102
RTVSPost2010PropOp29
 70
     1
102
RTVSPost2010Prop30
280
     1
102
RTVSPost2010PropOp30
 70
     1
102
RTVSPost2010Prop31
280
     0
102
RTVSPost2010PropOp31
 70
     1
102
RTVSPost2010Prop32
280
     0
102
RTVSPost2010PropOp32
 70
     1
102
RTVSPost2010Prop33
280
     0
102
RTVSPost2010PropOp33
 70
     1
102
RTVSPost2010Prop34
280
     0
102
RTVSPost2010PropOp34
 70
     1
102
RTVSPost2010Prop35
280
     0
102
RTVSPost2010PropOp35
 70
     1
102
RTVSPost2010Prop36
280
     0
102
RTVSPost2010PropOp36
 70
     1
102
RTVSPost2010Prop37
 90
       50
102
RTVSPost2010PropOp37
 70
     1
102
RTVSPost2010Prop38
140
0.0
102
RTVSPost2010PropOp38
 70
     1
102
RTVSPost2010Prop39
140
1.0
102
RTVSPost2010PropOp39
 70
     1
102
RTVSPost2010Prop40
 90
        0
102
RTVSPost2010PropOp40
 70
     1
102
RTVSPost2010Prop41ColorIndex
 90
       18
102
RTVSPost2010Prop41ColorRGB
 90
        0
102
RTVSPost2010PropOp41
 70
     1
102
RTVSPost2010Prop42
 90
       50
102
RTVSPost2010PropOp42
 70
     1
102
RTVSPost2010Prop43
 90
        3
102
RTVSPost2010PropOp43
 70
     1
102
RTVSPost2010Prop44ColorIndex
 90
        5
102
RTVSPost2010Prop44ColorRGB
 90
      255
102
RTVSPost2010PropOp44
 70
     1
102
RTVSPost2010Prop45
280
     0
102
RTVSPost2010PropOp45
 70
     1
102
RTVSPost2010Prop46
 90
       50
102
RTVSPost2010PropOp46
 70
     1
102
RTVSPost2010Prop47
 90
       50
102
RTVSPost2010PropOp47
 70
     1
102
RTVSPost2010Prop48
 90
       50
102
RTVSPost2010PropOp48
 70
     1
102
RTVSPost2010Prop49
280
     0
102
RTVSPost2010PropOp49
 70
     1
102
RTVSPost2010Prop50
 90
       50
102
RTVSPost2010PropOp50
 70
     1
102
RTVSPost2010Prop51ColorIndex
 90
      256
102
RTVSPost2010Prop51ColorRGB
 90
-16777216
102
RTVSPost2010PropOp51
 70
     0
102
RTVSPost2010Prop52
140
1.0
102
RTVSPost2010PropOp52
 70
     0
102
RTVSPost2010Prop53
 90
        2
102
RTVSPost2010PropOp53
 70
     1
102
RTVSPost2010Prop54
  1
strokes_ogs.tif
102
RTVSPost2010PropOp54
 70
     1
102
RTVSPost2010Prop55
280
     0
102
RTVSPost2010PropOp55
 70
     1
102
RTVSPost2010Prop56
140
1.0
102
RTVSPost2010PropOp56
 70
     1
102
RTVSPost2010Prop57
140
1.0
102
RTVSPost2010PropOp57
 70
     1
  0
XRECORD
  5
3A6
102
{ACAD_REACTORS
330
3A5
102
}
330
3A5
100
AcDbXrecord
280
     1
102
RTVSPropertyOp0
 70
     1
102
RTVSPropertyOp1
 70
     1
102
RTVSPropertyOp2
 70
     1
102
RTVSPropertyOp3
 70
     1
102
RTVSPropertyOp4
 70
     1
102
RTVSPropertyOp5
 70
     1
102
RTVSPropertyOp6
 70
     1
102
RTVSPropertyOp7
 70
     1
102
RTVSPropertyOp8
 70
     1
102
RTVSPropertyOp9
 70
     1
102
RTVSPropertyOp10
 70
     1
102
RTVSPropertyOp11
 70
     1
102
RTVSPropertyOp12
 70
     1
102
RTVSPropertyOp13
 70
     1
102
RTVSPropertyOp14
 70
     1
102
RTVSPropertyOp15
 70
     1
102
RTVSPropertyOp16
 70
     1
102
RTVSPropertyOp17
 70
     1
102
RTVSPropertyOp18
 70
     1
102
RTVSPropertyOp19
 70
     1
102
RTVSPropertyOp20
 70
     1
102
RTVSPropertyOp21
 70
     1
102
RTVSPropertyOp22
 70
     1
102
RTVSPropertyOp23
 70
     1
102
RTVSPropertyOp24
 70
     1
102
RTVSPropertyOp25
 70
     1
102
RTVSPropertyOp26
 70
     1
102
RTVSPropertyOp27
 70
     1
102
RTVSPropertyOp28
 70
     1
102
RTVSPropertyOp29
 70
     1
102
RTVSPropertyOp30
 70
     1
102
RTVSPropertyOp31
 70
     1
102
RTVSPropertyOp32
 70
     1
102
RTVSPropertyOp33
 70
     1
102
RTVSPropertyOp34
 70
     1
102
RTVSPropertyOp35
 70
     1
102
RTVSPropertyOp36
 70
     1
102
RTVSPropertyOp37
 70
     1
102
RTVSPropertyOp38
 70
     1
102
RTVSPropertyOp39
 70
     1
102
RTVSPropertyOp40
 70
     1
102
RTVSPropertyOp41
 70
     1
102
RTVSPropertyOp42
 70
     1
102
RTVSPropertyOp43
 70
     1
102
RTVSPropertyOp44
 70
     1
102
RTVSPropertyOp45
 70
     1
102
RTVSPropertyOp46
 70
     1
102
RTVSPropertyOp47
 70
     1
102
RTVSPropertyOp48
 70
     1
102
RTVSPropertyOp49
 70
     1
102
RTVSPropertyOp50
 70
     1
102
RTVSPropertyOp51
 70
     0
102
RTVSPropertyOp52
 70
     0
102
RTVSPropertyOp53
 70
     1
102
RTVSPropertyOp54
 70
     1
102
RTVSPropertyOp55
 70
     1
102
RTVSPropertyOp56
 70
     1
102
RTVSPropertyOp57
 70
     1
102
RTVSPost2010Prop28
280
     0
102
RTVSPost2010PropOp28
 70
     1
102
RTVSPost2010Prop29
280
     1
102
RTVSPost2010PropOp29
 70
     1
102
RTVSPost2010Prop30
280
     1
102
RTVSPost2010PropOp30
 70
     1
102
RTVSPost2010Prop31
280
     0
102
RTVSPost2010PropOp31
 70
     1
102
RTVSPost2010Prop32
280
     0
102
RTVSPost2010PropOp32
 70
     1
102
RTVSPost2010Prop33
280
     0
102
RTVSPost2010PropOp33
 70
     1
102
RTVSPost2010Prop34
280
     0
102
RTVSPost2010PropOp34
 70
     1
102
RTVSPost2010Prop35
280
     0
102
RTVSPost2010PropOp35
 70
     1
102
RTVSPost2010Prop36
280
     0
102
RTVSPost2010PropOp36
 70
     1
102
RTVSPost2010Prop37
 90
       50
102
RTVSPost2010PropOp37
 70
     1
102
RTVSPost2010Prop38
140
0.0
102
RTVSPost2010PropOp38
 70
     1
102
RTVSPost2010Prop39
140
1.0
102
RTVSPost2010PropOp39
 70
     1
102
RTVSPost2010Prop40
 90
        0
102
RTVSPost2010PropOp40
 70
     1
102
RTVSPost2010Prop41ColorIndex
 90
       18
102
RTVSPost2010Prop41ColorRGB
 90
        0
102
RTVSPost2010PropOp41
 70
     1
102
RTVSPost2010Prop42
 90
       50
102
RTVSPost2010PropOp42
 70
     1
102
RTVSPost2010Prop43
 90
        3
102
RTVSPost2010PropOp43
 70
     1
102
RTVSPost2010Prop44ColorIndex
 90
        5
102
RTVSPost2010Prop44ColorRGB
 90
      255
102
RTVSPost2010PropOp44
 70
     1
102
RTVSPost2010Prop45
280
     0
102
RTVSPost2010PropOp45
 70
     1
102
RTVSPost2010Prop46
 90
       50
102
RTVSPost2010PropOp46
 70
     1
102
RTVSPost2010Prop47
 90
       50
102
RTVSPost2010PropOp47
 70
     1
102
RTVSPost2010Prop48
 90
       50
102
RTVSPost2010PropOp48
 70
     1
102
RTVSPost2010Prop49
280
     0
102
RTVSPost2010PropOp49
 70
     1
102
RTVSPost2010Prop50
 90
       50
102
RTVSPost2010PropOp50
 70
     1
102
RTVSPost2010Prop51ColorIndex
 90
      256
102
RTVSPost2010Prop51ColorRGB
 90
-16777216
102
RTVSPost2010PropOp51
 70
     0
102
RTVSPost2010Prop52
140
1.0
102
RTVSPost2010PropOp52
 70
     0
102
RTVSPost2010Prop53
 90
        2
102
RTVSPost2010PropOp53
 70
     1
102
RTVSPost2010Prop54
  1
strokes_ogs.tif
102
RTVSPost2010PropOp54
 70
     1
102
RTVSPost2010Prop55
280
     0
102
RTVSPost2010PropOp55
 70
     1
102
RTVSPost2010Prop56
140
1.0
102
RTVSPost2010PropOp56
 70
     1
102
RTVSPost2010Prop57
140
1.0
102
RTVSPost2010PropOp57
 70
     1
  0
XRECORD
  5
398
102
{ACAD_REACTORS
330
397
102
}
330
397
100
AcDbXrecord
280
     1
102
RTVSPropertyOp0
 70
     1
102
RTVSPropertyOp1
 70
     1
102
RTVSPropertyOp2
 70
     1
102
RTVSPropertyOp3
 70
     1
102
RTVSPropertyOp4
 70
     1
102
RTVSPropertyOp5
 70
     1
102
RTVSPropertyOp6
 70
     1
102
RTVSPropertyOp7
 70
     1
102
RTVSPropertyOp8
 70
     1
102
RTVSPropertyOp9
 70
     1
102
RTVSPropertyOp10
 70
     1
102
RTVSPropertyOp11
 70
     1
102
RTVSPropertyOp12
 70
     1
102
RTVSPropertyOp13
 70
     1
102
RTVSPropertyOp14
 70
     1
102
RTVSPropertyOp15
 70
     1
102
RTVSPropertyOp16
 70
     1
102
RTVSPropertyOp17
 70
     1
102
RTVSPropertyOp18
 70
     1
102
RTVSPropertyOp19
 70
     1
102
RTVSPropertyOp20
 70
     1
102
RTVSPropertyOp21
 70
     1
102
RTVSPropertyOp22
 70
     1
102
RTVSPropertyOp23
 70
     1
102
RTVSPropertyOp24
 70
     1
102
RTVSPropertyOp25
 70
     1
102
RTVSPropertyOp26
 70
     1
102
RTVSPropertyOp27
 70
     1
102
RTVSPropertyOp28
 70
     1
102
RTVSPropertyOp29
 70
     1
102
RTVSPropertyOp30
 70
     1
102
RTVSPropertyOp31
 70
     1
102
RTVSPropertyOp32
 70
     1
102
RTVSPropertyOp33
 70
     1
102
RTVSPropertyOp34
 70
     1
102
RTVSPropertyOp35
 70
     1
102
RTVSPropertyOp36
 70
     1
102
RTVSPropertyOp37
 70
     1
102
RTVSPropertyOp38
 70
     1
102
RTVSPropertyOp39
 70
     1
102
RTVSPropertyOp40
 70
     1
102
RTVSPropertyOp41
 70
     1
102
RTVSPropertyOp42
 70
     1
102
RTVSPropertyOp43
 70
     1
102
RTVSPropertyOp44
 70
     1
102
RTVSPropertyOp45
 70
     1
102
RTVSPropertyOp46
 70
     1
102
RTVSPropertyOp47
 70
     1
102
RTVSPropertyOp48
 70
     1
102
RTVSPropertyOp49
 70
     1
102
RTVSPropertyOp50
 70
     1
102
RTVSPropertyOp51
 70
     0
102
RTVSPropertyOp52
 70
     0
102
RTVSPropertyOp53
 70
     1
102
RTVSPropertyOp54
 70
     1
102
RTVSPropertyOp55
 70
     1
102
RTVSPropertyOp56
 70
     1
102
RTVSPropertyOp57
 70
     1
102
RTVSPost2010Prop28
280
     0
102
RTVSPost2010PropOp28
 70
     1
102
RTVSPost2010Prop29
280
     1
102
RTVSPost2010PropOp29
 70
     1
102
RTVSPost2010Prop30
280
     1
102
RTVSPost2010PropOp30
 70
     1
102
RTVSPost2010Prop31
280
     0
102
RTVSPost2010PropOp31
 70
     1
102
RTVSPost2010Prop32
280
     0
102
RTVSPost2010PropOp32
 70
     1
102
RTVSPost2010Prop33
280
     0
102
RTVSPost2010PropOp33
 70
     1
102
RTVSPost2010Prop34
280
     0
102
RTVSPost2010PropOp34
 70
     1
102
RTVSPost2010Prop35
280
     0
102
RTVSPost2010PropOp35
 70
     1
102
RTVSPost2010Prop36
280
     0
102
RTVSPost2010PropOp36
 70
     1
102
RTVSPost2010Prop37
 90
       50
102
RTVSPost2010PropOp37
 70
     1
102
RTVSPost2010Prop38
140
0.0
102
RTVSPost2010PropOp38
 70
     1
102
RTVSPost2010Prop39
140
1.0
102
RTVSPost2010PropOp39
 70
     1
102
RTVSPost2010Prop40
 90
        0
102
RTVSPost2010PropOp40
 70
     1
102
RTVSPost2010Prop41ColorIndex
 90
       18
102
RTVSPost2010Prop41ColorRGB
 90
        0
102
RTVSPost2010PropOp41
 70
     1
102
RTVSPost2010Prop42
 90
       50
102
RTVSPost2010PropOp42
 70
     1
102
RTVSPost2010Prop43
 90
        3
102
RTVSPost2010PropOp43
 70
     1
102
RTVSPost2010Prop44ColorIndex
 90
        5
102
RTVSPost2010Prop44ColorRGB
 90
      255
102
RTVSPost2010PropOp44
 70
     1
102
RTVSPost2010Prop45
280
     0
102
RTVSPost2010PropOp45
 70
     1
102
RTVSPost2010Prop46
 90
       50
102
RTVSPost2010PropOp46
 70
     1
102
RTVSPost2010Prop47
 90
       50
102
RTVSPost2010PropOp47
 70
     1
102
RTVSPost2010Prop48
 90
       50
102
RTVSPost2010PropOp48
 70
     1
102
RTVSPost2010Prop49
280
     0
102
RTVSPost2010PropOp49
 70
     1
102
RTVSPost2010Prop50
 90
       50
102
RTVSPost2010PropOp50
 70
     1
102
RTVSPost2010Prop51ColorIndex
 90
      256
102
RTVSPost2010Prop51ColorRGB
 90
-16777216
102
RTVSPost2010PropOp51
 70
     0
102
RTVSPost2010Prop52
140
1.0
102
RTVSPost2010PropOp52
 70
     0
102
RTVSPost2010Prop53
 90
        2
102
RTVSPost2010PropOp53
 70
     1
102
RTVSPost2010Prop54
  1
strokes_ogs.tif
102
RTVSPost2010PropOp54
 70
     1
102
RTVSPost2010Prop55
280
     0
102
RTVSPost2010PropOp55
 70
     1
102
RTVSPost2010Prop56
140
1.0
102
RTVSPost2010PropOp56
 70
     1
102
RTVSPost2010Prop57
140
1.0
102
RTVSPost2010PropOp57
 70
     1
  0
XRECORD
  5
3B8
102
{ACAD_REACTORS
330
3B7
102
}
330
3B7
100
AcDbXrecord
280
     1
102
RTVSPropertyOp0
 70
     1
102
RTVSPropertyOp1
 70
     1
102
RTVSPropertyOp2
 70
     1
102
RTVSPropertyOp3
 70
     1
102
RTVSPropertyOp4
 70
     1
102
RTVSPropertyOp5
 70
     1
102
RTVSPropertyOp6
 70
     1
102
RTVSPropertyOp7
 70
     1
102
RTVSPropertyOp8
 70
     1
102
RTVSPropertyOp9
 70
     1
102
RTVSPropertyOp10
 70
     1
102
RTVSPropertyOp11
 70
     1
102
RTVSPropertyOp12
 70
     1
102
RTVSPropertyOp13
 70
     1
102
RTVSPropertyOp14
 70
     1
102
RTVSPropertyOp15
 70
     1
102
RTVSPropertyOp16
 70
     1
102
RTVSPropertyOp17
 70
     1
102
RTVSPropertyOp18
 70
     1
102
RTVSPropertyOp19
 70
     1
102
RTVSPropertyOp20
 70
     1
102
RTVSPropertyOp21
 70
     1
102
RTVSPropertyOp22
 70
     1
102
RTVSPropertyOp23
 70
     1
102
RTVSPropertyOp24
 70
     1
102
RTVSPropertyOp25
 70
     1
102
RTVSPropertyOp26
 70
     1
102
RTVSPropertyOp27
 70
     1
102
RTVSPropertyOp28
 70
     1
102
RTVSPropertyOp29
 70
     1
102
RTVSPropertyOp30
 70
     1
102
RTVSPropertyOp31
 70
     1
102
RTVSPropertyOp32
 70
     1
102
RTVSPropertyOp33
 70
     1
102
RTVSPropertyOp34
 70
     1
102
RTVSPropertyOp35
 70
     1
102
RTVSPropertyOp36
 70
     1
102
RTVSPropertyOp37
 70
     1
102
RTVSPropertyOp38
 70
     1
102
RTVSPropertyOp39
 70
     1
102
RTVSPropertyOp40
 70
     1
102
RTVSPropertyOp41
 70
     1
102
RTVSPropertyOp42
 70
     1
102
RTVSPropertyOp43
 70
     1
102
RTVSPropertyOp44
 70
     1
102
RTVSPropertyOp45
 70
     1
102
RTVSPropertyOp46
 70
     1
102
RTVSPropertyOp47
 70
     1
102
RTVSPropertyOp48
 70
     1
102
RTVSPropertyOp49
 70
     1
102
RTVSPropertyOp50
 70
     1
102
RTVSPropertyOp51
 70
     0
102
RTVSPropertyOp52
 70
     0
102
RTVSPropertyOp53
 70
     1
102
RTVSPropertyOp54
 70
     1
102
RTVSPropertyOp55
 70
     1
102
RTVSPropertyOp56
 70
     1
102
RTVSPropertyOp57
 70
     1
102
RTVSPost2010Prop28
280
     0
102
RTVSPost2010PropOp28
 70
     1
102
RTVSPost2010Prop29
280
     1
102
RTVSPost2010PropOp29
 70
     1
102
RTVSPost2010Prop30
280
     1
102
RTVSPost2010PropOp30
 70
     1
102
RTVSPost2010Prop31
280
     0
102
RTVSPost2010PropOp31
 70
     1
102
RTVSPost2010Prop32
280
     0
102
RTVSPost2010PropOp32
 70
     1
102
RTVSPost2010Prop33
280
     0
102
RTVSPost2010PropOp33
 70
     1
102
RTVSPost2010Prop34
280
     0
102
RTVSPost2010PropOp34
 70
     1
102
RTVSPost2010Prop35
280
     0
102
RTVSPost2010PropOp35
 70
     1
102
RTVSPost2010Prop36
280
     0
102
RTVSPost2010PropOp36
 70
     1
102
RTVSPost2010Prop37
 90
       50
102
RTVSPost2010PropOp37
 70
     1
102
RTVSPost2010Prop38
140
0.0
102
RTVSPost2010PropOp38
 70
     1
102
RTVSPost2010Prop39
140
1.0
102
RTVSPost2010PropOp39
 70
     1
102
RTVSPost2010Prop40
 90
        0
102
RTVSPost2010PropOp40
 70
     1
102
RTVSPost2010Prop41ColorIndex
 90
       18
102
RTVSPost2010Prop41ColorRGB
 90
        0
102
RTVSPost2010PropOp41
 70
     1
102
RTVSPost2010Prop42
 90
       50
102
RTVSPost2010PropOp42
 70
     1
102
RTVSPost2010Prop43
 90
        3
102
RTVSPost2010PropOp43
 70
     1
102
RTVSPost2010Prop44ColorIndex
 90
        5
102
RTVSPost2010Prop44ColorRGB
 90
      255
102
RTVSPost2010PropOp44
 70
     1
102
RTVSPost2010Prop45
280
     0
102
RTVSPost2010PropOp45
 70
     1
102
RTVSPost2010Prop46
 90
       50
102
RTVSPost2010PropOp46
 70
     1
102
RTVSPost2010Prop47
 90
       50
102
RTVSPost2010PropOp47
 70
     1
102
RTVSPost2010Prop48
 90
       50
102
RTVSPost2010PropOp48
 70
     1
102
RTVSPost2010Prop49
280
     0
102
RTVSPost2010PropOp49
 70
     1
102
RTVSPost2010Prop50
 90
       50
102
RTVSPost2010PropOp50
 70
     1
102
RTVSPost2010Prop51ColorIndex
 90
      256
102
RTVSPost2010Prop51ColorRGB
 90
-16777216
102
RTVSPost2010PropOp51
 70
     0
102
RTVSPost2010Prop52
140
1.0
102
RTVSPost2010PropOp52
 70
     0
102
RTVSPost2010Prop53
 90
        2
102
RTVSPost2010PropOp53
 70
     1
102
RTVSPost2010Prop54
  1
strokes_ogs.tif
102
RTVSPost2010PropOp54
 70
     1
102
RTVSPost2010Prop55
280
     0
102
RTVSPost2010PropOp55
 70
     1
102
RTVSPost2010Prop56
140
1.0
102
RTVSPost2010PropOp56
 70
     1
102
RTVSPost2010Prop57
140
1.0
102
RTVSPost2010PropOp57
 70
     1
  0
ENDSEC
  0
EOF
