  0
SECTION
  2
HEADER
  9
$ACADVER
  1
AC1015
  9
$ACADMAINTVER
 70
     6
  9
$DWGCODEPAGE
  3
ANSI_932
  9
$INSBASE
 10
0.0
 20
0.0
 30
0.0
  9
$EXTMIN
 10
-186.925351739797
 20
-22.54048149838888
 30
0.0
  9
$EXTMAX
 10
-38.1007975655848
 20
95.1587003469852
 30
0.0
  9
$LIMMIN
 10
0.0
 20
0.0
  9
$LIMMAX
 10
12.0
 20
9.0
  9
$ORTHOMODE
 70
     0
  9
$REGENMODE
 70
     1
  9
$FILLMODE
 70
     1
  9
$QTEXTMODE
 70
     0
  9
$MIRRTEXT
 70
     1
  9
$LTSCALE
 40
1.0
  9
$ATTMODE
 70
     1
  9
$TEXTSIZE
 40
0.2
  9
$TRACEWID
 40
0.05
  9
$TEXTSTYLE
  7
Standard
  9
$CLAYER
  8
0
  9
$CELTYPE
  6
ByLayer
  9
$CECOLOR
 62
   256
  9
$CELTSCALE
 40
1.0
  9
$DISPSILH
 70
     0
  9
$DIMSCALE
 40
1.0
  9
$DIMASZ
 40
0.18
  9
$DIMEXO
 40
0.0625
  9
$DIMDLI
 40
0.38
  9
$DIMRND
 40
0.0
  9
$DIMDLE
 40
0.0
  9
$DIMEXE
 40
0.18
  9
$DIMTP
 40
0.0
  9
$DIMTM
 40
0.0
  9
$DIMTXT
 40
0.18
  9
$DIMCEN
 40
0.09
  9
$DIMTSZ
 40
0.0
  9
$DIMTOL
 70
     0
  9
$DIMLIM
 70
     0
  9
$DIMTIH
 70
     1
  9
$DIMTOH
 70
     1
  9
$DIMSE1
 70
     0
  9
$DIMSE2
 70
     0
  9
$DIMTAD
 70
     0
  9
$DIMZIN
 70
     0
  9
$DIMBLK
  1

  9
$DIMASO
 70
     1
  9
$DIMSHO
 70
     1
  9
$DIMPOST
  1

  9
$DIMAPOST
  1

  9
$DIMALT
 70
     0
  9
$DIMALTD
 70
     2
  9
$DIMALTF
 40
25.4
  9
$DIMLFAC
 40
1.0
  9
$DIMTOFL
 70
     0
  9
$DIMTVP
 40
0.0
  9
$DIMTIX
 70
     0
  9
$DIMSOXD
 70
     0
  9
$DIMSAH
 70
     0
  9
$DIMBLK1
  1

  9
$DIMBLK2
  1

  9
$DIMSTYLE
  2
Standard
  9
$DIMCLRD
 70
     0
  9
$DIMCLRE
 70
     0
  9
$DIMCLRT
 70
     0
  9
$DIMTFAC
 40
1.0
  9
$DIMGAP
 40
0.09
  9
$DIMJUST
 70
     0
  9
$DIMSD1
 70
     0
  9
$DIMSD2
 70
     0
  9
$DIMTOLJ
 70
     1
  9
$DIMTZIN
 70
     0
  9
$DIMALTZ
 70
     0
  9
$DIMALTTZ
 70
     0
  9
$DIMUPT
 70
     0
  9
$DIMDEC
 70
     4
  9
$DIMTDEC
 70
     4
  9
$DIMALTU
 70
     2
  9
$DIMALTTD
 70
     2
  9
$DIMTXSTY
  7
Standard
  9
$DIMAUNIT
 70
     0
  9
$DIMADEC
 70
     0
  9
$DIMALTRND
 40
0.0
  9
$DIMAZIN
 70
     0
  9
$DIMDSEP
 70
    46
  9
$DIMATFIT
 70
     3
  9
$DIMFRAC
 70
     0
  9
$DIMLDRBLK
  1

  9
$DIMLUNIT
 70
     2
  9
$DIMLWD
 70
    -2
  9
$DIMLWE
 70
    -2
  9
$DIMTMOVE
 70
     0
  9
$LUNITS
 70
     2
  9
$LUPREC
 70
     4
  9
$SKETCHINC
 40
0.1
  9
$FILLETRAD
 40
0.5
  9
$AUNITS
 70
     0
  9
$AUPREC
 70
     0
  9
$MENU
  1
.
  9
$ELEVATION
 40
0.0
  9
$PELEVATION
 40
0.0
  9
$THICKNESS
 40
0.0
  9
$LIMCHECK
 70
     0
  9
$CHAMFERA
 40
0.0
  9
$CHAMFERB
 40
0.0
  9
$CHAMFERC
 40
0.0
  9
$CHAMFERD
 40
0.0
  9
$SKPOLY
 70
     0
  9
$TDCREATE
 40
2458080.416662349
  9
$TDUCREATE
 40
2458080.041662349
  9
$TDUPDATE
 40
2458080.41666397
  9
$TDUUPDATE
 40
2458080.04166397
  9
$TDINDWG
 40
0.0000000116
  9
$TDUSRTIMER
 40
0.0000000116
  9
$USRTIMER
 70
     1
  9
$ANGBASE
 50
0.0
  9
$ANGDIR
 70
     0
  9
$PDMODE
 70
     0
  9
$PDSIZE
 40
0.0
  9
$PLINEWID
 40
0.0
  9
$SPLFRAME
 70
     0
  9
$SPLINETYPE
 70
     6
  9
$SPLINESEGS
 70
     8
  9
$HANDSEED
  5
39D
  9
$SURFTAB1
 70
     6
  9
$SURFTAB2
 70
     6
  9
$SURFTYPE
 70
     6
  9
$SURFU
 70
     6
  9
$SURFV
 70
     6
  9
$UCSBASE
  2

  9
$UCSNAME
  2

  9
$UCSORG
 10
0.0
 20
0.0
 30
0.0
  9
$UCSXDIR
 10
1.0
 20
0.0
 30
0.0
  9
$UCSYDIR
 10
0.0
 20
1.0
 30
0.0
  9
$UCSORTHOREF
  2

  9
$UCSORTHOVIEW
 70
     0
  9
$UCSORGTOP
 10
0.0
 20
0.0
 30
0.0
  9
$UCSORGBOTTOM
 10
0.0
 20
0.0
 30
0.0
  9
$UCSORGLEFT
 10
0.0
 20
0.0
 30
0.0
  9
$UCSORGRIGHT
 10
0.0
 20
0.0
 30
0.0
  9
$UCSORGFRONT
 10
0.0
 20
0.0
 30
0.0
  9
$UCSORGBACK
 10
0.0
 20
0.0
 30
0.0
  9
$PUCSBASE
  2

  9
$PUCSNAME
  2

  9
$PUCSORG
 10
0.0
 20
0.0
 30
0.0
  9
$PUCSXDIR
 10
1.0
 20
0.0
 30
0.0
  9
$PUCSYDIR
 10
0.0
 20
1.0
 30
0.0
  9
$PUCSORTHOREF
  2

  9
$PUCSORTHOVIEW
 70
     0
  9
$PUCSORGTOP
 10
0.0
 20
0.0
 30
0.0
  9
$PUCSORGBOTTOM
 10
0.0
 20
0.0
 30
0.0
  9
$PUCSORGLEFT
 10
0.0
 20
0.0
 30
0.0
  9
$PUCSORGRIGHT
 10
0.0
 20
0.0
 30
0.0
  9
$PUCSORGFRONT
 10
0.0
 20
0.0
 30
0.0
  9
$PUCSORGBACK
 10
0.0
 20
0.0
 30
0.0
  9
$USERI1
 70
     0
  9
$USERI2
 70
     0
  9
$USERI3
 70
     0
  9
$USERI4
 70
     0
  9
$USERI5
 70
     0
  9
$USERR1
 40
19.0
  9
$USERR2
 40
0.0
  9
$USERR3
 40
0.0
  9
$USERR4
 40
0.0
  9
$USERR5
 40
0.0
  9
$WORLDVIEW
 70
     1
  9
$SHADEDGE
 70
     3
  9
$SHADEDIF
 70
    70
  9
$TILEMODE
 70
     1
  9
$MAXACTVP
 70
    64
  9
$PINSBASE
 10
0.0
 20
0.0
 30
0.0
  9
$PLIMCHECK
 70
     0
  9
$PEXTMIN
 10
1.00000000000000E+20
 20
1.00000000000000E+20
 30
1.00000000000000E+20
  9
$PEXTMAX
 10
-1.00000000000000E+20
 20
-1.00000000000000E+20
 30
-1.00000000000000E+20
  9
$PLIMMIN
 10
0.0
 20
0.0
  9
$PLIMMAX
 10
12.0
 20
9.0
  9
$UNITMODE
 70
     0
  9
$VISRETAIN
 70
     1
  9
$PLINEGEN
 70
     0
  9
$PSLTSCALE
 70
     1
  9
$TREEDEPTH
 70
  3020
  9
$CMLSTYLE
  2
Standard
  9
$CMLJUST
 70
     0
  9
$CMLSCALE
 40
1.0
  9
$PROXYGRAPHICS
 70
     1
  9
$MEASUREMENT
 70
     1
  9
$CELWEIGHT
370
    -1
  9
$ENDCAPS
280
     0
  9
$JOINSTYLE
280
     0
  9
$LWDISPLAY
290
     0
  9
$INSUNITS
 70
     4
  9
$HYPERLINKBASE
  1

  9
$STYLESHEET
  1

  9
$XEDIT
290
     1
  9
$CEPSNTYPE
380
     0
  9
$PSTYLEMODE
290
     1
  9
$FINGERPRINTGUID
  2
{E838B3B9-F3D4-4A2E-9747-046BB13DD4B7}
  9
$VERSIONGUID
  2
{FAEB1C32-E019-11D5-929B-00C0DF256EC4}
  9
$EXTNAMES
290
     1
  9
$PSVPSCALE
 40
0.0
  9
$OLESTARTUP
290
     0
  0
ENDSEC
  0
SECTION
  2
CLASSES
  0
CLASS
  1
ACDBDICTIONARYWDFLT
  2
AcDbDictionaryWithDefault
  3
ObjectDBX Classes
 90
        0
280
     0
281
     0
  0
CLASS
  1
VISUALSTYLE
  2
AcDbVisualStyle
  3
ObjectDBX Classes
 90
     4095
280
     0
281
     0
  0
CLASS
  1
MATERIAL
  2
AcDbMaterial
  3
ObjectDBX Classes
 90
     1153
280
     0
281
     0
  0
CLASS
  1
SCALE
  2
AcDbScale
  3
ObjectDBX Classes
 90
     1153
280
     0
281
     0
  0
CLASS
  1
SUN
  2
AcDbSun
  3
SCENEOE
 90
     1153
280
     0
281
     0
  0
CLASS
  1
DICTIONARYVAR
  2
AcDbDictionaryVar
  3
ObjectDBX Classes
 90
        0
280
     0
281
     0
  0
CLASS
  1
ACDBPLACEHOLDER
  2
AcDbPlaceHolder
  3
ObjectDBX Classes
 90
        0
280
     0
281
     0
  0
CLASS
  1
LAYOUT
  2
AcDbLayout
  3
ObjectDBX Classes
 90
        0
280
     0
281
     0
  0
ENDSEC
  0
SECTION
  2
TABLES
  0
TABLE
  2
VPORT
  5
8
330
0
100
AcDbSymbolTable
 70
     1
  0
VPORT
  5
29
330
8
100
AcDbSymbolTableRecord
100
AcDbViewportTableRecord
  2
*Active
 70
     0
 10
0.0
 20
0.0
 11
1.0
 21
1.0
 12
-112.5130746526909
 22
36.30910942429816
 13
0.0
 23
0.0
 14
0.5
 24
0.5
 15
0.5
 25
0.5
 16
0.0
 26
0.0
 36
1.0
 17
0.0
 27
0.0
 37
0.0
 40
129.4691000299115
 41
1.60267857142857
 42
50.0
 43
0.0
 44
0.0
 50
0.0
 51
0.0
 71
     0
 72
   100
 73
     1
 74
     3
 75
     0
 76
     0
 77
     0
 78
     0
281
     0
 65
     1
110
0.0
120
0.0
130
0.0
111
1.0
121
0.0
131
0.0
112
0.0
122
1.0
132
0.0
 79
     0
146
0.0
  0
ENDTAB
  0
TABLE
  2
LTYPE
  5
5
330
0
100
AcDbSymbolTable
 70
     8
  0
LTYPE
  5
14
330
5
100
AcDbSymbolTableRecord
100
AcDbLinetypeTableRecord
  2
ByBlock
 70
     0
  3

 72
    65
 73
     0
 40
0.0
  0
LTYPE
  5
15
330
5
100
AcDbSymbolTableRecord
100
AcDbLinetypeTableRecord
  2
ByLayer
 70
     0
  3

 72
    65
 73
     0
 40
0.0
  0
LTYPE
  5
16
330
5
100
AcDbSymbolTableRecord
100
AcDbLinetypeTableRecord
  2
Continuous
 70
     0
  3
Solid line
 72
    65
 73
     0
 40
0.0
  0
LTYPE
  5
6A
330
5
100
AcDbSymbolTableRecord
100
AcDbLinetypeTableRecord
  2
DASHED
 70
     0
  3
Dashed
 72
    65
 73
     2
 40
15.0
 49
7.0
 74
     0
 49
-8.0
 74
     0
  0
LTYPE
  5
6B
330
5
100
AcDbSymbolTableRecord
100
AcDbLinetypeTableRecord
  2
DOTTED
 70
     0
  3
Dotted
 72
    65
 73
     2
 40
1.0
 49
0.0
 74
     0
 49
-1.0
 74
     0
  0
LTYPE
  5
6C
330
5
100
AcDbSymbolTableRecord
100
AcDbLinetypeTableRecord
  2
DOT_CENTER
 70
     0
  3
Dot_Center
 72
    65
 73
     4
 40
14.0
 49
12.0
 74
     0
 49
-1.0
 74
     0
 49
0.0
 74
     0
 49
-1.0
 74
     0
  0
LTYPE
  5
6D
330
5
100
AcDbSymbolTableRecord
100
AcDbLinetypeTableRecord
  2
LONG_DASHED
 70
     0
  3
Long_Dashed
 72
    65
 73
     2
 40
15.0
 49
10.0
 74
     0
 49
-5.0
 74
     0
  0
LTYPE
  5
6E
330
5
100
AcDbSymbolTableRecord
100
AcDbLinetypeTableRecord
  2
DASH_CENTER
 70
     0
  3
Dash_Center
 72
    65
 73
     4
 40
14.0
 49
11.0
 74
     0
 49
-1.0
 74
     0
 49
1.0
 74
     0
 49
-1.0
 74
     0
  0
LTYPE
  5
6F
330
5
100
AcDbSymbolTableRecord
100
AcDbLinetypeTableRecord
  2
PHANTOM
 70
     0
  3
Phantom
 72
    65
 73
     6
 40
13.0
 49
10.0
 74
     0
 49
-1.0
 74
     0
 49
0.0
 74
     0
 49
-1.0
 74
     0
 49
0.0
 74
     0
 49
-1.0
 74
     0
  0
LTYPE
  5
70
330
5
100
AcDbSymbolTableRecord
100
AcDbLinetypeTableRecord
  2
CENTER_DASH_DASH
 70
     0
  3
Center_Dash_Dash
 72
    65
 73
     6
 40
14.0
 49
9.0
 74
     0
 49
-1.0
 74
     0
 49
1.0
 74
     0
 49
-1.0
 74
     0
 49
1.0
 74
     0
 49
-1.0
 74
     0
  0
ENDTAB
  0
TABLE
  2
LAYER
  5
2
330
0
100
AcDbSymbolTable
 70
     2
  0
LAYER
  5
10
330
2
100
AcDbSymbolTableRecord
100
AcDbLayerTableRecord
  2
0
 70
     0
 62
     7
  6
Continuous
370
    -3
390
F
  0
LAYER
  5
71
330
2
100
AcDbSymbolTableRecord
100
AcDbLayerTableRecord
  2
1
 70
     0
 62
     7
  6
Continuous
370
    -3
390
F
  0
ENDTAB
  0
TABLE
  2
STYLE
  5
3
330
0
100
AcDbSymbolTable
 70
     1
  0
STYLE
  5
11
330
3
100
AcDbSymbolTableRecord
100
AcDbTextStyleTableRecord
  2
Standard
 70
     0
 40
0.0
 41
1.0
 50
0.0
 71
     0
 42
0.2
  3
txt
  4

  0
ENDTAB
  0
TABLE
  2
VIEW
  5
6
330
0
100
AcDbSymbolTable
 70
     0
  0
ENDTAB
  0
TABLE
  2
UCS
  5
7
330
0
100
AcDbSymbolTable
 70
     0
  0
ENDTAB
  0
TABLE
  2
APPID
  5
9
330
0
100
AcDbSymbolTable
 70
     1
  0
APPID
  5
12
330
9
100
AcDbSymbolTableRecord
100
AcDbRegAppTableRecord
  2
ACAD
 70
     0
  0
ENDTAB
  0
TABLE
  2
DIMSTYLE
  5
A
330
0
100
AcDbSymbolTable
 70
     1
100
AcDbDimStyleTable
  0
DIMSTYLE
105
27
330
A
100
AcDbSymbolTableRecord
100
AcDbDimStyleTableRecord
  2
Standard
 70
     0
178
     0
340
11
  0
ENDTAB
  0
TABLE
  2
BLOCK_RECORD
  5
1
330
0
100
AcDbSymbolTable
 70
     1
  0
BLOCK_RECORD
  5
1F
330
1
100
AcDbSymbolTableRecord
100
AcDbBlockTableRecord
  2
*Model_Space
340
22
  0
BLOCK_RECORD
  5
1B
330
1
100
AcDbSymbolTableRecord
100
AcDbBlockTableRecord
  2
*Paper_Space
340
1E
  0
BLOCK_RECORD
  5
23
330
1
100
AcDbSymbolTableRecord
100
AcDbBlockTableRecord
  2
*Paper_Space0
340
26
  0
ENDTAB
  0
ENDSEC
  0
SECTION
  2
BLOCKS
  0
BLOCK
  5
20
330
1F
100
AcDbEntity
  8
0
100
AcDbBlockBegin
  2
*Model_Space
 70
     0
 10
0.0
 20
0.0
 30
0.0
  3
*Model_Space
  1
*Model_Space
  0
ENDBLK
  5
21
330
1F
100
AcDbEntity
  8
0
100
AcDbBlockEnd
  0
BLOCK
  5
1C
330
1B
100
AcDbEntity
 67
     1
  8
0
100
AcDbBlockBegin
  2
*Paper_Space
 70
     0
 10
0.0
 20
0.0
 30
0.0
  3
*Paper_Space
  1
*Paper_Space
  0
ENDBLK
  5
1D
330
1B
100
AcDbEntity
 67
     1
  8
0
100
AcDbBlockEnd
  0
BLOCK
  5
24
330
23
100
AcDbEntity
  8
0
100
AcDbBlockBegin
  2
*Paper_Space0
 70
     0
 10
0.0
 20
0.0
 30
0.0
  3
*Paper_Space0
  1
*Paper_Space0
  0
ENDBLK
  5
25
330
23
100
AcDbEntity
  8
0
100
AcDbBlockEnd
  0
ENDSEC
  0
SECTION
  2
ENTITIES
  0
POINT
  5
72
330
1F
100
AcDbEntity
  8
1
 62
     3
 60
     1
100
AcDbPoint
 10
-163.0593263360127
 20
29.49999999999999
 30
0.0
  0
POINT
  5
73
330
1F
100
AcDbEntity
  8
1
 62
     3
 60
     1
100
AcDbPoint
 10
-178.7913771435815
 20
29.49999999999999
 30
0.0
  0
POINT
  5
74
330
1F
100
AcDbEntity
  8
1
 62
     3
 60
     1
100
AcDbPoint
 10
-104.8507975655852
 20
18.50000000000002
 30
0.0
  0
POINT
  5
75
330
1F
100
AcDbEntity
  8
1
 62
     3
 60
     1
100
AcDbPoint
 10
-106.8956676735471
 20
18.50000000000002
 30
0.0
  0
LINE
  5
76
330
1F
100
AcDbEntity
  8
1
  6
Continuous
 62
     3
100
AcDbLine
 10
-162.9253517397971
 20
18.49999999999998
 30
0.0
 11
-162.9253517397971
 21
17.00000000000001
 31
0.0
  0
LINE
  5
77
330
1F
100
AcDbEntity
  8
1
  6
Continuous
 62
     3
100
AcDbLine
 10
-162.9253517397971
 20
17.99999999999996
 30
0.0
 11
-162.9253517397971
 21
17.00000000000001
 31
0.0
  0
LINE
  5
78
330
1F
100
AcDbEntity
  8
1
  6
Continuous
 62
     3
100
AcDbLine
 10
-178.7913771435815
 20
29.49999999999999
 30
0.0
 11
-163.0593263360127
 21
29.49999999999999
 31
0.0
  0
LINE
  5
79
102
{ACAD_REACTORS
330
34D
102
}
330
1F
100
AcDbEntity
  8
1
  6
Continuous
 62
     3
100
AcDbLine
 10
-98.60079756558511
 20
78.6587003469852
 30
0.0
 11
-97.100797565585
 21
78.65870034698526
 31
0.0
  0
LINE
  5
7A
102
{ACAD_REACTORS
330
34C
102
}
330
1F
100
AcDbEntity
  8
1
  6
Continuous
 62
     3
100
AcDbLine
 10
-100.8507975655851
 20
78.6587003469852
 30
0.0
 11
-99.35079756558515
 21
78.6587003469852
 31
0.0
  0
LINE
  5
7B
102
{ACAD_REACTORS
330
34B
102
}
330
1F
100
AcDbEntity
  8
1
  6
Continuous
 62
     3
100
AcDbLine
 10
-103.100797565585
 20
78.6587003469852
 30
0.0
 11
-101.6007975655852
 21
78.6587003469852
 31
0.0
  0
LINE
  5
7C
102
{ACAD_REACTORS
330
34D
102
}
330
1F
100
AcDbEntity
  8
1
  6
Continuous
 62
     3
100
AcDbLine
 10
-98.60079756558511
 20
82.6587003469852
 30
0.0
 11
-97.10079756558511
 21
82.6587003469852
 31
0.0
  0
LINE
  5
7D
102
{ACAD_REACTORS
330
34C
102
}
330
1F
100
AcDbEntity
  8
1
  6
Continuous
 62
     3
100
AcDbLine
 10
-100.8507975655851
 20
82.6587003469852
 30
0.0
 11
-99.35079756558515
 21
82.6587003469852
 31
0.0
  0
LINE
  5
7E
102
{ACAD_REACTORS
330
34B
102
}
330
1F
100
AcDbEntity
  8
1
  6
Continuous
 62
     3
100
AcDbLine
 10
-103.100797565585
 20
82.6587003469852
 30
0.0
 11
-101.6007975655852
 21
82.6587003469852
 31
0.0
  0
LINE
  5
7F
102
{ACAD_REACTORS
330
34B
102
}
330
1F
100
AcDbEntity
  8
1
  6
Continuous
 62
     3
100
AcDbLine
 10
-103.100797565585
 20
82.6587003469852
 30
0.0
 11
-103.100797565585
 21
78.6587003469852
 31
0.0
  0
LINE
  5
80
102
{ACAD_REACTORS
330
34B
102
}
330
1F
100
AcDbEntity
  8
1
  6
Continuous
 62
     3
100
AcDbLine
 10
-101.6007975655852
 20
82.6587003469852
 30
0.0
 11
-101.6007975655852
 21
78.6587003469852
 31
0.0
  0
LINE
  5
81
102
{ACAD_REACTORS
330
34C
102
}
330
1F
100
AcDbEntity
  8
1
  6
Continuous
 62
     3
100
AcDbLine
 10
-100.8507975655851
 20
82.6587003469852
 30
0.0
 11
-100.8507975655851
 21
78.6587003469852
 31
0.0
  0
LINE
  5
82
102
{ACAD_REACTORS
330
34C
102
}
330
1F
100
AcDbEntity
  8
1
  6
Continuous
 62
     3
100
AcDbLine
 10
-99.35079756558515
 20
82.6587003469852
 30
0.0
 11
-99.35079756558515
 21
78.6587003469852
 31
0.0
  0
LINE
  5
83
102
{ACAD_REACTORS
330
34D
102
}
330
1F
100
AcDbEntity
  8
1
  6
Continuous
 62
     3
100
AcDbLine
 10
-98.60079756558511
 20
82.6587003469852
 30
0.0
 11
-98.60079756558511
 21
78.6587003469852
 31
0.0
  0
LINE
  5
84
102
{ACAD_REACTORS
330
34D
102
}
330
1F
100
AcDbEntity
  8
1
  6
Continuous
 62
     3
100
AcDbLine
 10
-97.10079756558511
 20
82.6587003469852
 30
0.0
 11
-97.100797565585
 21
78.65870034698526
 31
0.0
  0
LINE
  5
85
330
1F
100
AcDbEntity
  8
1
  6
Continuous
 62
     3
100
AcDbLine
 10
-106.8956676735471
 20
18.50000000000002
 30
0.0
 11
-104.8507975655852
 21
18.50000000000002
 31
0.0
  0
LINE
  5
86
330
1F
100
AcDbEntity
  8
1
  6
Continuous
 62
     3
100
AcDbLine
 10
-73.01116053666689
 20
72.80374349581234
 30
0.0
 11
-73.01116053666689
 21
72.61167824245376
 31
0.0
  0
LINE
  5
87
330
1F
100
AcDbEntity
  8
1
  6
Continuous
 62
     3
100
AcDbLine
 10
-73.01116053666689
 20
88.70572245151664
 30
0.0
 11
-73.01116053666689
 21
88.51365719815806
 31
0.0
  0
LINE
  5
88
330
1F
100
AcDbEntity
  8
1
  6
Continuous
 62
     3
100
AcDbLine
 10
-125.4904345945032
 20
87.08131663631772
 30
0.0
 11
-125.4904345945032
 21
88.70572245151664
 31
0.0
  0
LINE
  5
89
330
1F
100
AcDbEntity
  8
1
  6
Continuous
 62
     3
100
AcDbLine
 10
-125.4904345945032
 20
72.61167824245376
 30
0.0
 11
-125.4904345945032
 21
74.23608405765268
 31
0.0
  0
LINE
  5
8A
330
1F
100
AcDbEntity
  8
1
  6
Continuous
 62
     3
100
AcDbLine
 10
-72.00079756558506
 20
72.86145445919061
 30
0.0
 11
-72.00079756558506
 21
67.9087003469852
 31
0.0
  0
LINE
  5
8B
330
1F
100
AcDbEntity
  8
1
  6
Continuous
 62
     3
100
AcDbLine
 10
-82.89581716730969
 20
74.23608405765268
 30
0.0
 11
-85.14595857682139
 21
74.23608405765268
 31
0.0
  0
LINE
  5
8C
330
1F
100
AcDbEntity
  8
1
  6
Continuous
 62
     3
100
AcDbLine
 10
-126.5007975655851
 20
80.6587003469852
 30
0.0
 11
-126.5007975655851
 21
93.4087003469852
 31
0.0
  0
LINE
  5
8D
330
1F
100
AcDbEntity
  8
1
  6
Continuous
 62
     3
100
AcDbLine
 10
-126.5007975655851
 20
93.4087003469852
 30
0.0
 11
-125.4904345945032
 21
95.1587003469852
 31
0.0
  0
LINE
  5
8E
330
1F
100
AcDbEntity
  8
1
  6
Continuous
 62
     3
100
AcDbLine
 10
-104.8704935726699
 20
87.08131663631772
 30
0.0
 11
-125.4904345945032
 21
87.08131663631772
 31
0.0
  0
LINE
  5
8F
330
1F
100
AcDbEntity
  8
1
  6
Continuous
 62
     3
100
AcDbLine
 10
-73.01116053666689
 20
88.70572245151664
 30
0.0
 11
-125.4904345945032
 21
88.70572245151664
 31
0.0
  0
LINE
  5
90
330
1F
100
AcDbEntity
  8
1
  6
Continuous
 62
     3
100
AcDbLine
 10
-112.3079043467718
 20
94.86580712817175
 30
0.0
 11
-111.3936907843986
 21
93.95159356579862
 31
0.0
  0
LINE
  5
91
330
1F
100
AcDbEntity
  8
1
  6
Continuous
 62
     3
100
AcDbLine
 10
-88.51501112795816
 20
93.65870034698517
 30
0.0
 11
-110.686584003212
 21
93.65870034698517
 31
0.0
  0
LINE
  5
92
330
1F
100
AcDbEntity
  8
1
  6
Continuous
 62
     3
100
AcDbLine
 10
-113.0150111279583
 20
95.1587003469852
 30
0.0
 11
-125.4904345945032
 21
95.1587003469852
 31
0.0
  0
LINE
  5
93
330
1F
100
AcDbEntity
  8
1
  6
Continuous
 62
     3
100
AcDbLine
 10
-73.01116053666689
 20
95.1587003469852
 30
0.0
 11
-72.00079756558506
 21
93.4087003469852
 31
0.0
  0
LINE
  5
94
330
1F
100
AcDbEntity
  8
1
  6
Continuous
 62
     3
100
AcDbLine
 10
-87.80790434677166
 20
93.95159356579863
 30
0.0
 11
-86.89369078439856
 21
94.86580712817174
 31
0.0
  0
LINE
  5
95
330
1F
100
AcDbEntity
  8
1
  6
Continuous
 62
     3
100
AcDbLine
 10
-73.01116053666689
 20
95.1587003469852
 30
0.0
 11
-86.18658400321198
 21
95.1587003469852
 31
0.0
  0
LINE
  5
96
330
1F
100
AcDbEntity
  8
1
  6
Continuous
 62
     3
100
AcDbLine
 10
-95.33110155850036
 20
87.08131663631772
 30
0.0
 11
-82.89581716730974
 21
87.08131663631772
 31
0.0
  0
LINE
  5
97
330
1F
100
AcDbEntity
  8
1
  6
Continuous
 62
     3
100
AcDbLine
 10
-72.00079756558506
 20
93.4087003469852
 30
0.0
 11
-72.00079756558506
 21
88.45594623477982
 31
0.0
  0
LINE
  5
98
330
1F
100
AcDbEntity
  8
1
  6
Continuous
 62
     3
100
AcDbLine
 10
-86.18658400321198
 20
66.1587003469852
 30
0.0
 11
-73.01116053666689
 21
66.1587003469852
 31
0.0
  0
LINE
  5
99
330
1F
100
AcDbEntity
  8
1
  6
Continuous
 62
     3
100
AcDbLine
 10
-86.89369078439856
 20
66.45159356579866
 30
0.0
 11
-87.80790434677166
 21
67.36580712817177
 31
0.0
  0
LINE
  5
9A
330
1F
100
AcDbEntity
  8
1
  6
Continuous
 62
     3
100
AcDbLine
 10
-72.00079756558506
 20
67.9087003469852
 30
0.0
 11
-73.01116053666689
 21
66.1587003469852
 31
0.0
  0
LINE
  5
9B
330
1F
100
AcDbEntity
  8
1
  6
Continuous
 62
     3
100
AcDbLine
 10
-125.4904345945032
 20
66.1587003469852
 30
0.0
 11
-113.0150111279583
 21
66.1587003469852
 31
0.0
  0
LINE
  5
9C
330
1F
100
AcDbEntity
  8
1
  6
Continuous
 62
     3
100
AcDbLine
 10
-110.686584003212
 20
67.65870034698523
 30
0.0
 11
-88.51501112795816
 21
67.65870034698523
 31
0.0
  0
LINE
  5
9D
330
1F
100
AcDbEntity
  8
1
  6
Continuous
 62
     3
100
AcDbLine
 10
-111.3936907843986
 20
67.36580712817178
 30
0.0
 11
-112.3079043467718
 21
66.45159356579865
 31
0.0
  0
LINE
  5
9E
330
1F
100
AcDbEntity
  8
1
  6
Continuous
 62
     3
100
AcDbLine
 10
-125.4904345945032
 20
72.61167824245376
 30
0.0
 11
-73.01116053666689
 21
72.61167824245376
 31
0.0
  0
LINE
  5
9F
330
1F
100
AcDbEntity
  8
1
  6
Continuous
 62
     3
100
AcDbLine
 10
-125.4904345945032
 20
74.23608405765268
 30
0.0
 11
-104.8704935726699
 21
74.23608405765268
 31
0.0
  0
LINE
  5
A0
330
1F
100
AcDbEntity
  8
1
  6
Continuous
 62
     3
100
AcDbLine
 10
-125.4904345945032
 20
66.1587003469852
 30
0.0
 11
-126.5007975655851
 21
67.9087003469852
 31
0.0
  0
LINE
  5
A1
330
1F
100
AcDbEntity
  8
1
  6
Continuous
 62
     3
100
AcDbLine
 10
-126.5007975655851
 20
67.9087003469852
 30
0.0
 11
-126.5007975655851
 21
80.6587003469852
 31
0.0
  0
LINE
  5
A2
330
1F
100
AcDbEntity
  8
1
  6
DOT_CENTER
 62
     4
100
AcDbLine
 10
-100.1007975655851
 20
94.6587003469852
 30
0.0
 11
-100.1007975655851
 21
66.6587003469852
 31
0.0
  0
LINE
  5
A3
330
1F
100
AcDbEntity
  8
1
  6
DOT_CENTER
 62
     4
100
AcDbLine
 10
-127.4957975655849
 20
80.6587003469852
 30
0.0
 11
-38.65143353124687
 21
80.6587003469852
 31
0.0
  0
LINE
  5
A4
330
1F
100
AcDbEntity
  8
1
  6
Continuous
 62
     3
100
AcDbLine
 10
-91.80592745762308
 20
23.00000000000002
 30
0.0
 11
-106.3956676735471
 21
23.00000000000002
 31
0.0
  0
LINE
  5
A5
330
1F
100
AcDbEntity
  8
1
  6
Continuous
 62
     3
100
AcDbLine
 10
-106.3956676735471
 20
17.50000000000002
 30
0.0
 11
-103.5150111279583
 21
17.50000000000002
 31
0.0
  0
LINE
  5
A6
330
1F
100
AcDbEntity
  8
1
  6
Continuous
 62
     3
100
AcDbLine
 10
-106.8956676735471
 20
22.50000000000002
 30
0.0
 11
-106.8956676735471
 21
18.00000000000002
 31
0.0
  0
LINE
  5
A7
330
1F
100
AcDbEntity
  8
1
  6
DOT_CENTER
 62
     4
100
AcDbLine
 10
-68.96762719627426
 20
0.00000000000001
 30
0.0
 11
-126.4957975655849
 21
0.00000000000001
 31
0.0
  0
LINE
  5
A8
330
1F
100
AcDbEntity
  8
1
  6
Continuous
 62
     3
100
AcDbLine
 10
-91.10079756558517
 20
14.00000000000001
 30
0.0
 11
-91.10079756558517
 21
17.49999999999998
 31
0.0
  0
LINE
  5
A9
330
1F
100
AcDbEntity
  8
1
  6
Continuous
 62
     3
100
AcDbLine
 10
-107.1007975655852
 20
29.00000000000001
 30
0.0
 11
-107.1007975655852
 21
14.00000000000001
 31
0.0
  0
LINE
  5
AA
330
1F
100
AcDbEntity
  8
1
  6
Continuous
 62
     3
100
AcDbLine
 10
-108.1007975655852
 20
13.00000000000001
 30
0.0
 11
-124.4904345945032
 21
13.00000000000001
 31
0.0
  0
LINE
  5
AB
330
1F
100
AcDbEntity
  8
1
  6
Continuous
 62
     3
100
AcDbLine
 10
-90.10079756558517
 20
13.00000000000001
 30
0.0
 11
-72.01116053666689
 21
13.00000000000001
 31
0.0
  0
LINE
  5
AC
330
1F
100
AcDbEntity
  8
1
  6
Continuous
 62
     3
100
AcDbLine
 10
-125.1007975655851
 20
-12.99999999999998
 30
0.0
 11
-124.4904345945032
 21
-12.99999999999999
 31
0.0
  0
LINE
  5
AD
330
1F
100
AcDbEntity
  8
1
  6
DOT_CENTER
 62
     4
100
AcDbLine
 10
-99.10079756558505
 20
32.42528670856633
 30
0.0
 11
-99.10079756558505
 21
-17.09999999999995
 31
0.0
  0
LINE
  5
AE
330
1F
100
AcDbEntity
  8
1
  6
Continuous
 62
     3
100
AcDbLine
 10
-111.6057975655852
 20
-0.93785113467826
 30
0.0
 11
-111.6057975655852
 21
0.93785113467825
 31
0.0
  0
LINE
  5
AF
330
1F
100
AcDbEntity
  8
1
  6
Continuous
 62
     3
100
AcDbLine
 10
-111.6057975655852
 20
-12.99999999999998
 30
0.0
 11
-111.6057975655852
 21
-12.06214886532175
 31
0.0
  0
LINE
  5
B0
330
1F
100
AcDbEntity
  8
1
  6
Continuous
 62
     3
100
AcDbLine
 10
-85.60579756558516
 20
-12.99999999999998
 30
0.0
 11
-85.60579756558516
 21
-12.06214886532175
 31
0.0
  0
LINE
  5
B1
330
1F
100
AcDbEntity
  8
1
  6
Continuous
 62
     3
100
AcDbLine
 10
-85.60579756558516
 20
-0.93785113467826
 30
0.0
 11
-85.60579756558516
 21
0.93785113467825
 31
0.0
  0
LINE
  5
B2
330
1F
100
AcDbEntity
  8
1
  6
Continuous
 62
     3
100
AcDbLine
 10
-85.60579756558516
 20
-12.06214886532175
 30
0.0
 11
-72.01116053666689
 21
-12.06214886532175
 31
0.0
  0
LINE
  5
B3
330
1F
100
AcDbEntity
  8
1
  6
Continuous
 62
     3
100
AcDbLine
 10
-111.6057975655852
 20
-0.93785113467826
 30
0.0
 11
-124.4904345945032
 21
-0.93785113467826
 31
0.0
  0
LINE
  5
B4
330
1F
100
AcDbEntity
  8
1
  6
Continuous
 62
     3
100
AcDbLine
 10
-85.60579756558516
 20
0.93785113467825
 30
0.0
 11
-72.01116053666689
 21
0.93785113467825
 31
0.0
  0
LINE
  5
B5
330
1F
100
AcDbEntity
  8
1
  6
Continuous
 62
     3
100
AcDbLine
 10
-110.1057975655852
 20
-12.99999999999998
 30
0.0
 11
-110.1057975655852
 21
3.48333950160461
 31
0.0
  0
LINE
  5
B6
330
1F
100
AcDbEntity
  8
1
  6
Continuous
 62
     3
100
AcDbLine
 10
-87.10579756558516
 20
3.48333950160461
 30
0.0
 11
-87.10579756558516
 21
-12.99999999999998
 31
0.0
  0
LINE
  5
B7
330
1F
100
AcDbEntity
  8
1
  6
Continuous
 62
     3
100
AcDbLine
 10
-87.60579756558516
 20
3.48333950160461
 30
0.0
 11
-109.6057975655852
 21
3.48333950160461
 31
0.0
  0
LINE
  5
B8
330
1F
100
AcDbEntity
  8
1
  6
Continuous
 62
     3
100
AcDbLine
 10
-101.1007975655851
 20
17.50000000000002
 30
0.0
 11
-101.1007975655851
 21
18.50000000000002
 31
0.0
  0
LINE
  5
B9
330
1F
100
AcDbEntity
  8
1
  6
Continuous
 62
     3
100
AcDbLine
 10
-97.10079756558505
 20
18.50000000000002
 30
0.0
 11
-97.10079756558505
 21
17.50000000000002
 31
0.0
  0
LINE
  5
BA
330
1F
100
AcDbEntity
  8
1
  6
Continuous
 62
     3
100
AcDbLine
 10
-100.6007975655851
 20
19.00000000000002
 30
0.0
 11
-97.60079756558505
 21
19.00000000000002
 31
0.0
  0
LINE
  5
BB
330
1F
100
AcDbEntity
  8
1
  6
Continuous
 62
     3
100
AcDbLine
 10
-104.8507975655852
 20
23.00000000000002
 30
0.0
 11
-104.8507975655852
 21
17.50000000000002
 31
0.0
  0
LINE
  5
BC
330
1F
100
AcDbEntity
  8
1
  6
Continuous
 62
     3
100
AcDbLine
 10
-124.4904345945032
 20
-0.93785113467826
 30
0.0
 11
-124.4904345945032
 21
0.93785113467825
 31
0.0
  0
LINE
  5
BD
330
1F
100
AcDbEntity
  8
1
  6
Continuous
 62
     3
100
AcDbLine
 10
-124.4904345945032
 20
0.93785113467825
 30
0.0
 11
-111.6057975655852
 21
0.93785113467825
 31
0.0
  0
LINE
  5
BE
330
1F
100
AcDbEntity
  8
1
  6
Continuous
 62
     3
100
AcDbLine
 10
-124.4904345945032
 20
13.00000000000001
 30
0.0
 11
-124.4904345945032
 21
12.06214886532175
 31
0.0
  0
LINE
  5
BF
330
1F
100
AcDbEntity
  8
1
  6
Continuous
 62
     3
100
AcDbLine
 10
-124.4904345945032
 20
13.00000000000001
 30
0.0
 11
-125.1007975655851
 21
13.00000000000002
 31
0.0
  0
LINE
  5
C0
330
1F
100
AcDbEntity
  8
1
  6
Continuous
 62
     3
100
AcDbLine
 10
-124.4904345945032
 20
-12.99999999999999
 30
0.0
 11
-124.4904345945032
 21
-12.06214886532175
 31
0.0
  0
LINE
  5
C1
330
1F
100
AcDbEntity
  8
1
  6
Continuous
 62
     3
100
AcDbLine
 10
-124.4904345945032
 20
-12.06214886532175
 30
0.0
 11
-111.6057975655852
 21
-12.06214886532175
 31
0.0
  0
LINE
  5
C2
330
1F
100
AcDbEntity
  8
1
  6
Continuous
 62
     3
100
AcDbLine
 10
-124.4904345945032
 20
-12.99999999999999
 30
0.0
 11
-72.01116053666689
 21
-12.99999999999999
 31
0.0
  0
LINE
  5
C3
330
1F
100
AcDbEntity
  8
1
  6
Continuous
 62
     3
100
AcDbLine
 10
-72.01116053666689
 20
12.06214886532175
 30
0.0
 11
-72.01116053666689
 21
13.00000000000001
 31
0.0
  0
LINE
  5
C4
330
1F
100
AcDbEntity
  8
1
  6
Continuous
 62
     3
100
AcDbLine
 10
-72.01116053666689
 20
12.06214886532175
 30
0.0
 11
-124.4904345945032
 21
12.06214886532175
 31
0.0
  0
LINE
  5
C5
330
1F
100
AcDbEntity
  8
1
  6
Continuous
 62
     3
100
AcDbLine
 10
-72.01116053666689
 20
13.00000000000001
 30
0.0
 11
-71.60079756558505
 21
13.00000000000001
 31
0.0
  0
LINE
  5
C6
330
1F
100
AcDbEntity
  8
1
  6
Continuous
 62
     3
100
AcDbLine
 10
-72.01116053666689
 20
0.93785113467825
 30
0.0
 11
-72.01116053666689
 21
-0.93785113467826
 31
0.0
  0
LINE
  5
C7
330
1F
100
AcDbEntity
  8
1
  6
Continuous
 62
     3
100
AcDbLine
 10
-72.01116053666689
 20
-0.93785113467826
 30
0.0
 11
-85.60579756558516
 21
-0.93785113467826
 31
0.0
  0
LINE
  5
C8
330
1F
100
AcDbEntity
  8
1
  6
Continuous
 62
     3
100
AcDbLine
 10
-72.01116053666689
 20
-12.99999999999999
 30
0.0
 11
-72.01116053666689
 21
-12.06214886532175
 31
0.0
  0
LINE
  5
C9
330
1F
100
AcDbEntity
  8
1
  6
Continuous
 62
     3
100
AcDbLine
 10
-72.01116053666689
 20
-12.99999999999999
 30
0.0
 11
-71.60079756558505
 21
-12.99999999999998
 31
0.0
  0
LINE
  5
CA
330
1F
100
AcDbEntity
  8
1
  6
Continuous
 62
     3
100
AcDbLine
 10
-71.00079756558503
 20
12.79999999999999
 30
0.0
 11
-71.00079756558503
 21
-12.79999999999996
 31
0.0
  0
LINE
  5
CB
330
1F
100
AcDbEntity
  8
1
  6
Continuous
 62
     3
100
AcDbLine
 10
-125.5007975655851
 20
-12.91651513899116
 30
0.0
 11
-125.5007975655851
 21
12.9165151389912
 31
0.0
  0
LINE
  5
CC
330
1F
100
AcDbEntity
  8
1
  6
Continuous
 62
     3
100
AcDbLine
 10
-106.9668229693696
 20
29.49999999999999
 30
0.0
 11
-91.23477216180072
 21
29.49999999999999
 31
0.0
  0
LINE
  5
CD
330
1F
100
AcDbEntity
  8
1
  6
Continuous
 62
     3
100
AcDbLine
 10
-91.30592745762308
 20
19.5
 30
0.0
 11
-91.30592745762308
 21
22.50000000000002
 31
0.0
  0
LINE
  5
CE
330
1F
100
AcDbEntity
  8
1
  6
Continuous
 62
     3
100
AcDbLine
 10
-93.35079756558517
 20
19.49999999999998
 30
0.0
 11
-93.35079756558517
 21
23.00000000000002
 31
0.0
  0
LINE
  5
CF
330
1F
100
AcDbEntity
  8
1
  6
Continuous
 62
     3
100
AcDbLine
 10
-91.10079756558517
 20
19.5
 30
0.0
 11
-91.10079756558517
 21
29.00000000000001
 31
0.0
  0
LINE
  5
D0
330
1F
100
AcDbEntity
  8
1
  6
Continuous
 62
     3
100
AcDbLine
 10
-79.1045700153494
 20
86.65983208199447
 30
0.0
 11
-79.1045700153494
 21
74.65756861197593
 31
0.0
  0
LINE
  5
D1
102
{ACAD_REACTORS
330
34F
102
}
330
1F
100
AcDbEntity
  8
1
  6
Continuous
 62
     3
100
AcDbLine
 10
-68.29225099721384
 20
78.16832412210829
 30
0.0
 11
-68.73491521246456
 21
78.28693564110279
 31
0.0
  0
LINE
  5
D2
102
{ACAD_REACTORS
330
34F
102
}
330
1F
100
AcDbEntity
  8
1
  6
Continuous
 62
     3
100
AcDbLine
 10
-68.73491521246456
 20
83.03046505286756
 30
0.0
 11
-68.29225099721384
 21
83.14907657186205
 31
0.0
  0
LINE
  5
D3
102
{ACAD_REACTORS
330
34F
102
}
330
1F
100
AcDbEntity
  8
1
  6
Continuous
 62
     3
100
AcDbLine
 10
-68.73491521246456
 20
78.28693564110279
 30
0.0
 11
-68.73491521246456
 21
76.8539944646322
 31
0.0
  0
LINE
  5
D4
102
{ACAD_REACTORS
330
34F
102
}
330
1F
100
AcDbEntity
  8
1
  6
Continuous
 62
     3
100
AcDbLine
 10
-68.73491521246456
 20
83.03046505286756
 30
0.0
 11
-68.73491521246456
 21
84.46340622933815
 31
0.0
  0
LINE
  5
D5
102
{ACAD_REACTORS
330
350
102
}
330
1F
100
AcDbEntity
  8
1
  6
Continuous
 62
     3
100
AcDbLine
 10
-70.66197403599381
 20
78.01517093522045
 30
0.0
 11
-71.30432697717043
 21
78.01517093522045
 31
0.0
  0
LINE
  5
D6
102
{ACAD_REACTORS
330
350
102
}
330
1F
100
AcDbEntity
  8
1
  6
Continuous
 62
     3
100
AcDbLine
 10
-69.9702093301114
 20
77.0269356411028
 30
0.0
 11
-69.32785638893506
 21
77.0269356411028
 31
0.0
  0
LINE
  5
D7
102
{ACAD_REACTORS
330
350
102
}
330
1F
100
AcDbEntity
  8
1
  6
Continuous
 62
     3
100
AcDbLine
 10
-69.9702093301114
 20
77.3234062293381
 30
0.0
 11
-69.45138580069965
 21
77.3234062293381
 31
0.0
  0
LINE
  5
D8
102
{ACAD_REACTORS
330
350
102
}
330
1F
100
AcDbEntity
  8
1
  6
Continuous
 62
     3
100
AcDbLine
 10
-69.9702093301114
 20
77.3234062293381
 30
0.0
 11
-69.9702093301114
 21
77.0269356411028
 31
0.0
  0
LINE
  5
D9
102
{ACAD_REACTORS
330
350
102
}
330
1F
100
AcDbEntity
  8
1
  6
Continuous
 62
     3
100
AcDbLine
 10
-70.66197403599381
 20
77.71870034698514
 30
0.0
 11
-71.18079756540561
 21
77.71870034698514
 31
0.0
  0
LINE
  5
DA
102
{ACAD_REACTORS
330
350
102
}
330
1F
100
AcDbEntity
  8
1
  6
Continuous
 62
     3
100
AcDbLine
 10
-70.66197403599381
 20
77.71870034698514
 30
0.0
 11
-70.66197403599381
 21
78.01517093522045
 31
0.0
  0
LINE
  5
DB
102
{ACAD_REACTORS
330
350
102
}
330
1F
100
AcDbEntity
  8
1
  6
Continuous
 62
     3
100
AcDbLine
 10
-70.35888352653387
 20
77.15046505286745
 30
0.0
 11
-70.06647259607962
 21
77.65693564110273
 31
0.0
  0
LINE
  5
DC
102
{ACAD_REACTORS
330
350
102
}
330
1F
100
AcDbEntity
  8
1
  6
Continuous
 62
     3
100
AcDbLine
 10
-70.56571077002587
 20
77.38517093522046
 30
0.0
 11
-70.27329983957156
 21
77.89164152345575
 31
0.0
  0
LINE
  5
DD
102
{ACAD_REACTORS
330
351
102
}
330
1F
100
AcDbEntity
  8
1
  6
Continuous
 62
     3
100
AcDbLine
 10
-69.45138580069965
 20
83.99399446463224
 30
0.0
 11
-71.18079756540561
 21
83.99399446463224
 31
0.0
  0
LINE
  5
DE
102
{ACAD_REACTORS
330
351
102
}
330
1F
100
AcDbEntity
  8
1
  6
Continuous
 62
     3
100
AcDbLine
 10
-71.30432697717043
 20
83.87046505286753
 30
0.0
 11
-71.30432697717043
 21
83.7222297587499
 31
0.0
  0
LINE
  5
DF
102
{ACAD_REACTORS
330
351
102
}
330
1F
100
AcDbEntity
  8
1
  6
Continuous
 62
     3
100
AcDbLine
 10
-71.18079756540561
 20
83.5987003469852
 30
0.0
 11
-69.45138580069965
 21
83.5987003469852
 31
0.0
  0
LINE
  5
E0
102
{ACAD_REACTORS
330
351
102
}
330
1F
100
AcDbEntity
  8
1
  6
Continuous
 62
     3
100
AcDbLine
 10
-69.32785638893506
 20
83.7222297587499
 30
0.0
 11
-69.32785638893506
 21
83.87046505286753
 31
0.0
  0
LINE
  5
E1
102
{ACAD_REACTORS
330
351
102
}
330
1F
100
AcDbEntity
  8
1
  6
Continuous
 62
     3
100
AcDbLine
 10
-71.30432697717043
 20
83.30222975874995
 30
0.0
 11
-69.32785638893506
 21
83.30222975874995
 31
0.0
  0
LINE
  5
E2
102
{ACAD_REACTORS
330
351
102
}
330
1F
100
AcDbEntity
  8
1
  6
Continuous
 62
     3
100
AcDbLine
 10
-71.60079756540563
 20
83.99399446463224
 30
0.0
 11
-71.60079756540563
 21
83.5987003469852
 31
0.0
  0
LINE
  5
E3
102
{ACAD_REACTORS
330
351
102
}
330
1F
100
AcDbEntity
  8
1
  6
Continuous
 62
     3
100
AcDbLine
 10
-69.32785638893506
 20
84.2904650528676
 30
0.0
 11
-71.30432697717043
 21
84.2904650528676
 31
0.0
  0
LINE
  5
E4
102
{ACAD_REACTORS
330
351
102
}
330
1F
100
AcDbEntity
  8
1
  6
Continuous
 62
     3
100
AcDbLine
 10
-69.03138580069981
 20
83.5987003469852
 30
0.0
 11
-69.03138580069981
 21
83.99399446463224
 31
0.0
  0
LINE
  5
E5
102
{ACAD_REACTORS
330
350
102
}
330
1F
100
AcDbEntity
  8
1
  6
Continuous
 62
     3
100
AcDbLine
 10
-69.45138580069965
 20
77.71870034698514
 30
0.0
 11
-69.95949298737673
 21
77.71870034698514
 31
0.0
  0
LINE
  5
E6
102
{ACAD_REACTORS
330
350
102
}
330
1F
100
AcDbEntity
  8
1
  6
Continuous
 62
     3
100
AcDbLine
 10
-71.30432697717043
 20
77.5951709352205
 30
0.0
 11
-71.30432697717043
 21
77.44693564110287
 31
0.0
  0
LINE
  5
E7
102
{ACAD_REACTORS
330
350
102
}
330
1F
100
AcDbEntity
  8
1
  6
Continuous
 62
     3
100
AcDbLine
 10
-71.18079756540561
 20
77.3234062293381
 30
0.0
 11
-70.6726903787287
 21
77.3234062293381
 31
0.0
  0
LINE
  5
E8
102
{ACAD_REACTORS
330
350
102
}
330
1F
100
AcDbEntity
  8
1
  6
Continuous
 62
     3
100
AcDbLine
 10
-69.32785638893506
 20
77.44693564110287
 30
0.0
 11
-69.32785638893506
 21
77.5951709352205
 31
0.0
  0
LINE
  5
E9
102
{ACAD_REACTORS
330
350
102
}
330
1F
100
AcDbEntity
  8
1
  6
Continuous
 62
     3
100
AcDbLine
 10
-71.30432697717043
 20
77.0269356411028
 30
0.0
 11
-70.57284274393942
 21
77.0269356411028
 31
0.0
  0
LINE
  5
EA
102
{ACAD_REACTORS
330
350
102
}
330
1F
100
AcDbEntity
  8
1
  6
Continuous
 62
     3
100
AcDbLine
 10
-71.60079756540563
 20
77.71870034698514
 30
0.0
 11
-71.60079756540563
 21
77.3234062293381
 31
0.0
  0
LINE
  5
EB
102
{ACAD_REACTORS
330
350
102
}
330
1F
100
AcDbEntity
  8
1
  6
Continuous
 62
     3
100
AcDbLine
 10
-69.32785638893506
 20
78.01517093522045
 30
0.0
 11
-70.05934062216602
 21
78.01517093522045
 31
0.0
  0
LINE
  5
EC
102
{ACAD_REACTORS
330
350
102
}
330
1F
100
AcDbEntity
  8
1
  6
Continuous
 62
     3
100
AcDbLine
 10
-69.03138580069981
 20
77.3234062293381
 30
0.0
 11
-69.03138580069981
 21
77.71870034698514
 31
0.0
  0
LINE
  5
ED
102
{ACAD_REACTORS
330
352
102
}
330
1F
100
AcDbEntity
  8
1
  6
Continuous
 62
     3
100
AcDbLine
 10
-48.85907685467407
 20
77.25557534698521
 30
0.0
 11
-48.78157685467414
 21
77.32015868031851
 31
0.0
  0
LINE
  5
EE
102
{ACAD_REACTORS
330
352
102
}
330
1F
100
AcDbEntity
  8
1
  6
Continuous
 62
     3
100
AcDbLine
 10
-48.98824352134079
 20
77.19099201365185
 30
0.0
 11
-48.85907685467407
 21
77.25557534698521
 31
0.0
  0
LINE
  5
EF
102
{ACAD_REACTORS
330
352
102
}
330
1F
100
AcDbEntity
  8
1
  6
Continuous
 62
     3
100
AcDbLine
 10
-49.09157685467415
 20
77.1587003469852
 30
0.0
 11
-48.98824352134079
 21
77.19099201365185
 31
0.0
  0
LINE
  5
F0
102
{ACAD_REACTORS
330
352
102
}
330
1F
100
AcDbEntity
  8
1
  6
Continuous
 62
     3
100
AcDbLine
 10
-49.27241018800748
 20
77.1587003469852
 30
0.0
 11
-49.09157685467415
 21
77.1587003469852
 31
0.0
  0
LINE
  5
F1
102
{ACAD_REACTORS
330
352
102
}
330
1F
100
AcDbEntity
  8
1
  6
Continuous
 62
     3
100
AcDbLine
 10
-49.37574352134084
 20
77.19099201365185
 30
0.0
 11
-49.27241018800748
 21
77.1587003469852
 31
0.0
  0
LINE
  5
F2
102
{ACAD_REACTORS
330
352
102
}
330
1F
100
AcDbEntity
  8
1
  6
Continuous
 62
     3
100
AcDbLine
 10
-49.50491018800744
 20
77.25557534698521
 30
0.0
 11
-49.37574352134084
 21
77.19099201365185
 31
0.0
  0
LINE
  5
F3
102
{ACAD_REACTORS
330
352
102
}
330
1F
100
AcDbEntity
  8
1
  6
Continuous
 62
     3
100
AcDbLine
 10
-49.58241018800743
 20
77.32015868031851
 30
0.0
 11
-49.50491018800744
 21
77.25557534698521
 31
0.0
  0
LINE
  5
F4
102
{ACAD_REACTORS
330
352
102
}
330
1F
100
AcDbEntity
  8
1
  6
Continuous
 62
     3
100
AcDbLine
 10
-49.65991018800742
 20
77.41703368031853
 30
0.0
 11
-49.58241018800743
 21
77.32015868031851
 31
0.0
  0
LINE
  5
F5
102
{ACAD_REACTORS
330
352
102
}
330
1F
100
AcDbEntity
  8
1
  6
Continuous
 62
     3
100
AcDbLine
 10
-49.73741018800752
 20
77.54620034698519
 30
0.0
 11
-49.65991018800742
 21
77.41703368031853
 31
0.0
  0
LINE
  5
F6
102
{ACAD_REACTORS
330
352
102
}
330
1F
100
AcDbEntity
  8
1
  6
Continuous
 62
     3
100
AcDbLine
 10
-49.78907685467414
 20
77.67536701365185
 30
0.0
 11
-49.73741018800752
 21
77.54620034698519
 31
0.0
  0
LINE
  5
F7
102
{ACAD_REACTORS
330
352
102
}
330
1F
100
AcDbEntity
  8
1
  6
Continuous
 62
     3
100
AcDbLine
 10
-49.84074352134076
 20
77.83682534698522
 30
0.0
 11
-49.78907685467414
 21
77.67536701365185
 31
0.0
  0
LINE
  5
F8
102
{ACAD_REACTORS
330
352
102
}
330
1F
100
AcDbEntity
  8
1
  6
Continuous
 62
     3
100
AcDbLine
 10
-49.86657685467412
 20
78.03057534698519
 30
0.0
 11
-49.84074352134076
 21
77.83682534698522
 31
0.0
  0
LINE
  5
F9
102
{ACAD_REACTORS
330
352
102
}
330
1F
100
AcDbEntity
  8
1
  6
Continuous
 62
     3
100
AcDbLine
 10
-49.89241018800749
 20
78.32120034698522
 30
0.0
 11
-49.86657685467412
 21
78.03057534698519
 31
0.0
  0
LINE
  5
FA
102
{ACAD_REACTORS
330
352
102
}
330
1F
100
AcDbEntity
  8
1
  6
Continuous
 62
     3
100
AcDbLine
 10
-49.89241018800749
 20
78.57953368031855
 30
0.0
 11
-49.89241018800749
 21
78.32120034698522
 31
0.0
  0
LINE
  5
FB
102
{ACAD_REACTORS
330
352
102
}
330
1F
100
AcDbEntity
  8
1
  6
Continuous
 62
     3
100
AcDbLine
 10
-49.86657685467412
 20
78.87015868031853
 30
0.0
 11
-49.89241018800749
 21
78.57953368031855
 31
0.0
  0
LINE
  5
FC
102
{ACAD_REACTORS
330
352
102
}
330
1F
100
AcDbEntity
  8
1
  6
Continuous
 62
     3
100
AcDbLine
 10
-49.84074352134076
 20
79.06390868031855
 30
0.0
 11
-49.86657685467412
 21
78.87015868031853
 31
0.0
  0
LINE
  5
FD
102
{ACAD_REACTORS
330
352
102
}
330
1F
100
AcDbEntity
  8
1
  6
Continuous
 62
     3
100
AcDbLine
 10
-49.78907685467414
 20
79.22536701365186
 30
0.0
 11
-49.84074352134076
 21
79.06390868031855
 31
0.0
  0
LINE
  5
FE
102
{ACAD_REACTORS
330
352
102
}
330
1F
100
AcDbEntity
  8
1
  6
Continuous
 62
     3
100
AcDbLine
 10
-49.73741018800752
 20
79.35453368031853
 30
0.0
 11
-49.78907685467414
 21
79.22536701365186
 31
0.0
  0
LINE
  5
FF
102
{ACAD_REACTORS
330
352
102
}
330
1F
100
AcDbEntity
  8
1
  6
Continuous
 62
     3
100
AcDbLine
 10
-49.65991018800742
 20
79.48370034698519
 30
0.0
 11
-49.73741018800752
 21
79.35453368031853
 31
0.0
  0
LINE
  5
100
102
{ACAD_REACTORS
330
352
102
}
330
1F
100
AcDbEntity
  8
1
  6
Continuous
 62
     3
100
AcDbLine
 10
-49.58241018800743
 20
79.5805753469852
 30
0.0
 11
-49.65991018800742
 21
79.48370034698519
 31
0.0
  0
LINE
  5
101
102
{ACAD_REACTORS
330
352
102
}
330
1F
100
AcDbEntity
  8
1
  6
Continuous
 62
     3
100
AcDbLine
 10
-49.50491018800744
 20
79.64515868031856
 30
0.0
 11
-49.58241018800743
 21
79.5805753469852
 31
0.0
  0
LINE
  5
102
102
{ACAD_REACTORS
330
352
102
}
330
1F
100
AcDbEntity
  8
1
  6
Continuous
 62
     3
100
AcDbLine
 10
-49.37574352134084
 20
79.70974201365186
 30
0.0
 11
-49.50491018800744
 21
79.64515868031856
 31
0.0
  0
LINE
  5
103
102
{ACAD_REACTORS
330
352
102
}
330
1F
100
AcDbEntity
  8
1
  6
Continuous
 62
     3
100
AcDbLine
 10
-49.27241018800748
 20
79.74203368031851
 30
0.0
 11
-49.37574352134084
 21
79.70974201365186
 31
0.0
  0
LINE
  5
104
102
{ACAD_REACTORS
330
352
102
}
330
1F
100
AcDbEntity
  8
1
  6
Continuous
 62
     3
100
AcDbLine
 10
-49.09157685467415
 20
79.74203368031851
 30
0.0
 11
-49.27241018800748
 21
79.74203368031851
 31
0.0
  0
LINE
  5
105
102
{ACAD_REACTORS
330
352
102
}
330
1F
100
AcDbEntity
  8
1
  6
Continuous
 62
     3
100
AcDbLine
 10
-48.98824352134079
 20
79.70974201365186
 30
0.0
 11
-49.09157685467415
 21
79.74203368031851
 31
0.0
  0
LINE
  5
106
102
{ACAD_REACTORS
330
352
102
}
330
1F
100
AcDbEntity
  8
1
  6
Continuous
 62
     3
100
AcDbLine
 10
-48.85907685467407
 20
79.64515868031856
 30
0.0
 11
-48.98824352134079
 21
79.70974201365186
 31
0.0
  0
LINE
  5
107
102
{ACAD_REACTORS
330
352
102
}
330
1F
100
AcDbEntity
  8
1
  6
Continuous
 62
     3
100
AcDbLine
 10
-48.78157685467414
 20
79.5805753469852
 30
0.0
 11
-48.85907685467407
 21
79.64515868031856
 31
0.0
  0
LINE
  5
108
102
{ACAD_REACTORS
330
352
102
}
330
1F
100
AcDbEntity
  8
1
  6
Continuous
 62
     3
100
AcDbLine
 10
-48.7040768546741
 20
79.48370034698519
 30
0.0
 11
-48.78157685467414
 21
79.5805753469852
 31
0.0
  0
LINE
  5
109
102
{ACAD_REACTORS
330
352
102
}
330
1F
100
AcDbEntity
  8
1
  6
Continuous
 62
     3
100
AcDbLine
 10
-48.62657685467411
 20
79.35453368031853
 30
0.0
 11
-48.7040768546741
 21
79.48370034698519
 31
0.0
  0
LINE
  5
10A
102
{ACAD_REACTORS
330
352
102
}
330
1F
100
AcDbEntity
  8
1
  6
Continuous
 62
     3
100
AcDbLine
 10
-48.57491018800749
 20
79.22536701365186
 30
0.0
 11
-48.62657685467411
 21
79.35453368031853
 31
0.0
  0
LINE
  5
10B
102
{ACAD_REACTORS
330
352
102
}
330
1F
100
AcDbEntity
  8
1
  6
Continuous
 62
     3
100
AcDbLine
 10
-48.52324352134076
 20
79.06390868031855
 30
0.0
 11
-48.57491018800749
 21
79.22536701365186
 31
0.0
  0
LINE
  5
10C
102
{ACAD_REACTORS
330
352
102
}
330
1F
100
AcDbEntity
  8
1
  6
Continuous
 62
     3
100
AcDbLine
 10
-48.49741018800751
 20
78.87015868031853
 30
0.0
 11
-48.52324352134076
 21
79.06390868031855
 31
0.0
  0
LINE
  5
10D
102
{ACAD_REACTORS
330
352
102
}
330
1F
100
AcDbEntity
  8
1
  6
Continuous
 62
     3
100
AcDbLine
 10
-48.47157685467408
 20
78.57953368031855
 30
0.0
 11
-48.49741018800751
 21
78.87015868031853
 31
0.0
  0
LINE
  5
10E
102
{ACAD_REACTORS
330
352
102
}
330
1F
100
AcDbEntity
  8
1
  6
Continuous
 62
     3
100
AcDbLine
 10
-48.47157685467408
 20
78.32120034698522
 30
0.0
 11
-48.47157685467408
 21
78.57953368031855
 31
0.0
  0
LINE
  5
10F
102
{ACAD_REACTORS
330
352
102
}
330
1F
100
AcDbEntity
  8
1
  6
Continuous
 62
     3
100
AcDbLine
 10
-48.49741018800751
 20
78.03057534698519
 30
0.0
 11
-48.47157685467408
 21
78.32120034698522
 31
0.0
  0
LINE
  5
110
102
{ACAD_REACTORS
330
352
102
}
330
1F
100
AcDbEntity
  8
1
  6
Continuous
 62
     3
100
AcDbLine
 10
-48.52324352134076
 20
77.83682534698522
 30
0.0
 11
-48.49741018800751
 21
78.03057534698519
 31
0.0
  0
LINE
  5
111
102
{ACAD_REACTORS
330
352
102
}
330
1F
100
AcDbEntity
  8
1
  6
Continuous
 62
     3
100
AcDbLine
 10
-48.57491018800749
 20
77.67536701365185
 30
0.0
 11
-48.52324352134076
 21
77.83682534698522
 31
0.0
  0
LINE
  5
112
102
{ACAD_REACTORS
330
352
102
}
330
1F
100
AcDbEntity
  8
1
  6
Continuous
 62
     3
100
AcDbLine
 10
-48.62657685467411
 20
77.54620034698519
 30
0.0
 11
-48.57491018800749
 21
77.67536701365185
 31
0.0
  0
LINE
  5
113
102
{ACAD_REACTORS
330
352
102
}
330
1F
100
AcDbEntity
  8
1
  6
Continuous
 62
     3
100
AcDbLine
 10
-48.7040768546741
 20
77.41703368031853
 30
0.0
 11
-48.62657685467411
 21
77.54620034698519
 31
0.0
  0
LINE
  5
114
102
{ACAD_REACTORS
330
352
102
}
330
1F
100
AcDbEntity
  8
1
  6
Continuous
 62
     3
100
AcDbLine
 10
-48.78157685467414
 20
77.32015868031851
 30
0.0
 11
-48.7040768546741
 21
77.41703368031853
 31
0.0
  0
LINE
  5
115
102
{ACAD_REACTORS
330
352
102
}
330
1F
100
AcDbEntity
  8
1
  6
Continuous
 62
     3
100
AcDbLine
 10
-49.37574352134084
 20
77.54620034698519
 30
0.0
 11
-49.27241018800748
 21
77.48161701365188
 31
0.0
  0
LINE
  5
116
102
{ACAD_REACTORS
330
352
102
}
330
1F
100
AcDbEntity
  8
1
  6
Continuous
 62
     3
100
AcDbLine
 10
-49.47907685467408
 20
77.6430753469852
 30
0.0
 11
-49.37574352134084
 21
77.54620034698519
 31
0.0
  0
LINE
  5
117
102
{ACAD_REACTORS
330
352
102
}
330
1F
100
AcDbEntity
  8
1
  6
Continuous
 62
     3
100
AcDbLine
 10
-49.53074352134075
 20
77.73995034698521
 30
0.0
 11
-49.47907685467408
 21
77.6430753469852
 31
0.0
  0
LINE
  5
118
102
{ACAD_REACTORS
330
352
102
}
330
1F
100
AcDbEntity
  8
1
  6
Continuous
 62
     3
100
AcDbLine
 10
-49.58241018800743
 20
77.90140868031853
 30
0.0
 11
-49.53074352134075
 21
77.73995034698521
 31
0.0
  0
LINE
  5
119
102
{ACAD_REACTORS
330
352
102
}
330
1F
100
AcDbEntity
  8
1
  6
Continuous
 62
     3
100
AcDbLine
 10
-49.6082435213408
 20
78.25661701365186
 30
0.0
 11
-49.58241018800743
 21
77.90140868031853
 31
0.0
  0
LINE
  5
11A
102
{ACAD_REACTORS
330
352
102
}
330
1F
100
AcDbEntity
  8
1
  6
Continuous
 62
     3
100
AcDbLine
 10
-49.6082435213408
 20
78.64411701365185
 30
0.0
 11
-49.6082435213408
 21
78.25661701365186
 31
0.0
  0
LINE
  5
11B
102
{ACAD_REACTORS
330
352
102
}
330
1F
100
AcDbEntity
  8
1
  6
Continuous
 62
     3
100
AcDbLine
 10
-49.58241018800743
 20
78.99932534698519
 30
0.0
 11
-49.6082435213408
 21
78.64411701365185
 31
0.0
  0
LINE
  5
11C
102
{ACAD_REACTORS
330
352
102
}
330
1F
100
AcDbEntity
  8
1
  6
Continuous
 62
     3
100
AcDbLine
 10
-49.53074352134075
 20
79.16078368031856
 30
0.0
 11
-49.58241018800743
 21
78.99932534698519
 31
0.0
  0
LINE
  5
11D
102
{ACAD_REACTORS
330
352
102
}
330
1F
100
AcDbEntity
  8
1
  6
Continuous
 62
     3
100
AcDbLine
 10
-49.47907685467408
 20
79.25765868031851
 30
0.0
 11
-49.53074352134075
 21
79.16078368031856
 31
0.0
  0
LINE
  5
11E
102
{ACAD_REACTORS
330
352
102
}
330
1F
100
AcDbEntity
  8
1
  6
Continuous
 62
     3
100
AcDbLine
 10
-49.37574352134084
 20
79.35453368031853
 30
0.0
 11
-49.47907685467408
 21
79.25765868031851
 31
0.0
  0
LINE
  5
11F
102
{ACAD_REACTORS
330
352
102
}
330
1F
100
AcDbEntity
  8
1
  6
Continuous
 62
     3
100
AcDbLine
 10
-49.27241018800748
 20
79.41911701365188
 30
0.0
 11
-49.37574352134084
 21
79.35453368031853
 31
0.0
  0
LINE
  5
120
102
{ACAD_REACTORS
330
352
102
}
330
1F
100
AcDbEntity
  8
1
  6
Continuous
 62
     3
100
AcDbLine
 10
-49.09157685467415
 20
79.41911701365188
 30
0.0
 11
-49.27241018800748
 21
79.41911701365188
 31
0.0
  0
LINE
  5
121
102
{ACAD_REACTORS
330
352
102
}
330
1F
100
AcDbEntity
  8
1
  6
Continuous
 62
     3
100
AcDbLine
 10
-48.98824352134079
 20
79.35453368031853
 30
0.0
 11
-49.09157685467415
 21
79.41911701365188
 31
0.0
  0
LINE
  5
122
102
{ACAD_REACTORS
330
352
102
}
330
1F
100
AcDbEntity
  8
1
  6
Continuous
 62
     3
100
AcDbLine
 10
-48.88491018800744
 20
79.25765868031851
 30
0.0
 11
-48.98824352134079
 21
79.35453368031853
 31
0.0
  0
LINE
  5
123
102
{ACAD_REACTORS
330
352
102
}
330
1F
100
AcDbEntity
  8
1
  6
Continuous
 62
     3
100
AcDbLine
 10
-48.83324352134076
 20
79.16078368031856
 30
0.0
 11
-48.88491018800744
 21
79.25765868031851
 31
0.0
  0
LINE
  5
124
102
{ACAD_REACTORS
330
352
102
}
330
1F
100
AcDbEntity
  8
1
  6
Continuous
 62
     3
100
AcDbLine
 10
-48.78157685467414
 20
78.99932534698519
 30
0.0
 11
-48.83324352134076
 21
79.16078368031856
 31
0.0
  0
LINE
  5
125
102
{ACAD_REACTORS
330
352
102
}
330
1F
100
AcDbEntity
  8
1
  6
Continuous
 62
     3
100
AcDbLine
 10
-48.75574352134083
 20
78.64411701365185
 30
0.0
 11
-48.78157685467414
 21
78.99932534698519
 31
0.0
  0
LINE
  5
126
102
{ACAD_REACTORS
330
352
102
}
330
1F
100
AcDbEntity
  8
1
  6
Continuous
 62
     3
100
AcDbLine
 10
-48.75574352134083
 20
78.25661701365186
 30
0.0
 11
-48.75574352134083
 21
78.64411701365185
 31
0.0
  0
LINE
  5
127
102
{ACAD_REACTORS
330
352
102
}
330
1F
100
AcDbEntity
  8
1
  6
Continuous
 62
     3
100
AcDbLine
 10
-48.78157685467414
 20
77.90140868031853
 30
0.0
 11
-48.75574352134083
 21
78.25661701365186
 31
0.0
  0
LINE
  5
128
102
{ACAD_REACTORS
330
352
102
}
330
1F
100
AcDbEntity
  8
1
  6
Continuous
 62
     3
100
AcDbLine
 10
-48.83324352134076
 20
77.73995034698521
 30
0.0
 11
-48.78157685467414
 21
77.90140868031853
 31
0.0
  0
LINE
  5
129
102
{ACAD_REACTORS
330
352
102
}
330
1F
100
AcDbEntity
  8
1
  6
Continuous
 62
     3
100
AcDbLine
 10
-48.88491018800744
 20
77.6430753469852
 30
0.0
 11
-48.83324352134076
 21
77.73995034698521
 31
0.0
  0
LINE
  5
12A
102
{ACAD_REACTORS
330
352
102
}
330
1F
100
AcDbEntity
  8
1
  6
Continuous
 62
     3
100
AcDbLine
 10
-48.98824352134079
 20
77.54620034698519
 30
0.0
 11
-48.88491018800744
 21
77.6430753469852
 31
0.0
  0
LINE
  5
12B
102
{ACAD_REACTORS
330
352
102
}
330
1F
100
AcDbEntity
  8
1
  6
Continuous
 62
     3
100
AcDbLine
 10
-49.09157685467415
 20
77.48161701365188
 30
0.0
 11
-48.98824352134079
 21
77.54620034698519
 31
0.0
  0
LINE
  5
12C
102
{ACAD_REACTORS
330
352
102
}
330
1F
100
AcDbEntity
  8
1
  6
Continuous
 62
     3
100
AcDbLine
 10
-49.27241018800748
 20
77.48161701365188
 30
0.0
 11
-49.09157685467415
 21
77.48161701365188
 31
0.0
  0
LINE
  5
12D
102
{ACAD_REACTORS
330
353
102
}
330
1F
100
AcDbEntity
  8
1
  6
Continuous
 62
     3
100
AcDbLine
 10
-50.73629907689633
 20
77.25557534698521
 30
0.0
 11
-50.65879907689634
 21
77.32015868031851
 31
0.0
  0
LINE
  5
12E
102
{ACAD_REACTORS
330
353
102
}
330
1F
100
AcDbEntity
  8
1
  6
Continuous
 62
     3
100
AcDbLine
 10
-50.86546574356299
 20
77.19099201365185
 30
0.0
 11
-50.73629907689633
 21
77.25557534698521
 31
0.0
  0
LINE
  5
12F
102
{ACAD_REACTORS
330
353
102
}
330
1F
100
AcDbEntity
  8
1
  6
Continuous
 62
     3
100
AcDbLine
 10
-50.9687990768964
 20
77.1587003469852
 30
0.0
 11
-50.86546574356299
 21
77.19099201365185
 31
0.0
  0
LINE
  5
130
102
{ACAD_REACTORS
330
353
102
}
330
1F
100
AcDbEntity
  8
1
  6
Continuous
 62
     3
100
AcDbLine
 10
-51.14963241022974
 20
77.1587003469852
 30
0.0
 11
-50.9687990768964
 21
77.1587003469852
 31
0.0
  0
LINE
  5
131
102
{ACAD_REACTORS
330
353
102
}
330
1F
100
AcDbEntity
  8
1
  6
Continuous
 62
     3
100
AcDbLine
 10
-51.25296574356298
 20
77.19099201365185
 30
0.0
 11
-51.14963241022974
 21
77.1587003469852
 31
0.0
  0
LINE
  5
132
102
{ACAD_REACTORS
330
353
102
}
330
1F
100
AcDbEntity
  8
1
  6
Continuous
 62
     3
100
AcDbLine
 10
-51.3821324102297
 20
77.25557534698521
 30
0.0
 11
-51.25296574356298
 21
77.19099201365185
 31
0.0
  0
LINE
  5
133
102
{ACAD_REACTORS
330
353
102
}
330
1F
100
AcDbEntity
  8
1
  6
Continuous
 62
     3
100
AcDbLine
 10
-51.45963241022969
 20
77.32015868031851
 30
0.0
 11
-51.3821324102297
 21
77.25557534698521
 31
0.0
  0
LINE
  5
134
102
{ACAD_REACTORS
330
353
102
}
330
1F
100
AcDbEntity
  8
1
  6
Continuous
 62
     3
100
AcDbLine
 10
-51.53713241022973
 20
77.41703368031853
 30
0.0
 11
-51.45963241022969
 21
77.32015868031851
 31
0.0
  0
LINE
  5
135
102
{ACAD_REACTORS
330
353
102
}
330
1F
100
AcDbEntity
  8
1
  6
Continuous
 62
     3
100
AcDbLine
 10
-51.61463241022966
 20
77.54620034698519
 30
0.0
 11
-51.53713241022973
 21
77.41703368031853
 31
0.0
  0
LINE
  5
136
102
{ACAD_REACTORS
330
353
102
}
330
1F
100
AcDbEntity
  8
1
  6
Continuous
 62
     3
100
AcDbLine
 10
-51.66629907689639
 20
77.67536701365185
 30
0.0
 11
-51.61463241022966
 21
77.54620034698519
 31
0.0
  0
LINE
  5
137
102
{ACAD_REACTORS
330
353
102
}
330
1F
100
AcDbEntity
  8
1
  6
Continuous
 62
     3
100
AcDbLine
 10
-51.71796574356301
 20
77.83682534698522
 30
0.0
 11
-51.66629907689639
 21
77.67536701365185
 31
0.0
  0
LINE
  5
138
102
{ACAD_REACTORS
330
353
102
}
330
1F
100
AcDbEntity
  8
1
  6
Continuous
 62
     3
100
AcDbLine
 10
-51.74379907689632
 20
78.03057534698519
 30
0.0
 11
-51.71796574356301
 21
77.83682534698522
 31
0.0
  0
LINE
  5
139
102
{ACAD_REACTORS
330
353
102
}
330
1F
100
AcDbEntity
  8
1
  6
Continuous
 62
     3
100
AcDbLine
 10
-51.76963241022975
 20
78.32120034698522
 30
0.0
 11
-51.74379907689632
 21
78.03057534698519
 31
0.0
  0
LINE
  5
13A
102
{ACAD_REACTORS
330
353
102
}
330
1F
100
AcDbEntity
  8
1
  6
Continuous
 62
     3
100
AcDbLine
 10
-51.76963241022975
 20
78.57953368031855
 30
0.0
 11
-51.76963241022975
 21
78.32120034698522
 31
0.0
  0
LINE
  5
13B
102
{ACAD_REACTORS
330
353
102
}
330
1F
100
AcDbEntity
  8
1
  6
Continuous
 62
     3
100
AcDbLine
 10
-51.74379907689632
 20
78.87015868031853
 30
0.0
 11
-51.76963241022975
 21
78.57953368031855
 31
0.0
  0
LINE
  5
13C
102
{ACAD_REACTORS
330
353
102
}
330
1F
100
AcDbEntity
  8
1
  6
Continuous
 62
     3
100
AcDbLine
 10
-51.71796574356301
 20
79.06390868031855
 30
0.0
 11
-51.74379907689632
 21
78.87015868031853
 31
0.0
  0
LINE
  5
13D
102
{ACAD_REACTORS
330
353
102
}
330
1F
100
AcDbEntity
  8
1
  6
Continuous
 62
     3
100
AcDbLine
 10
-51.66629907689639
 20
79.22536701365186
 30
0.0
 11
-51.71796574356301
 21
79.06390868031855
 31
0.0
  0
LINE
  5
13E
102
{ACAD_REACTORS
330
353
102
}
330
1F
100
AcDbEntity
  8
1
  6
Continuous
 62
     3
100
AcDbLine
 10
-51.61463241022966
 20
79.35453368031853
 30
0.0
 11
-51.66629907689639
 21
79.22536701365186
 31
0.0
  0
LINE
  5
13F
102
{ACAD_REACTORS
330
353
102
}
330
1F
100
AcDbEntity
  8
1
  6
Continuous
 62
     3
100
AcDbLine
 10
-51.53713241022973
 20
79.48370034698519
 30
0.0
 11
-51.61463241022966
 21
79.35453368031853
 31
0.0
  0
LINE
  5
140
102
{ACAD_REACTORS
330
353
102
}
330
1F
100
AcDbEntity
  8
1
  6
Continuous
 62
     3
100
AcDbLine
 10
-51.45963241022969
 20
79.5805753469852
 30
0.0
 11
-51.53713241022973
 21
79.48370034698519
 31
0.0
  0
LINE
  5
141
102
{ACAD_REACTORS
330
353
102
}
330
1F
100
AcDbEntity
  8
1
  6
Continuous
 62
     3
100
AcDbLine
 10
-51.3821324102297
 20
79.64515868031856
 30
0.0
 11
-51.45963241022969
 21
79.5805753469852
 31
0.0
  0
LINE
  5
142
102
{ACAD_REACTORS
330
353
102
}
330
1F
100
AcDbEntity
  8
1
  6
Continuous
 62
     3
100
AcDbLine
 10
-51.25296574356298
 20
79.70974201365186
 30
0.0
 11
-51.3821324102297
 21
79.64515868031856
 31
0.0
  0
LINE
  5
143
102
{ACAD_REACTORS
330
353
102
}
330
1F
100
AcDbEntity
  8
1
  6
Continuous
 62
     3
100
AcDbLine
 10
-51.14963241022974
 20
79.74203368031851
 30
0.0
 11
-51.25296574356298
 21
79.70974201365186
 31
0.0
  0
LINE
  5
144
102
{ACAD_REACTORS
330
353
102
}
330
1F
100
AcDbEntity
  8
1
  6
Continuous
 62
     3
100
AcDbLine
 10
-50.9687990768964
 20
79.74203368031851
 30
0.0
 11
-51.14963241022974
 21
79.74203368031851
 31
0.0
  0
LINE
  5
145
102
{ACAD_REACTORS
330
353
102
}
330
1F
100
AcDbEntity
  8
1
  6
Continuous
 62
     3
100
AcDbLine
 10
-50.86546574356299
 20
79.70974201365186
 30
0.0
 11
-50.9687990768964
 21
79.74203368031851
 31
0.0
  0
LINE
  5
146
102
{ACAD_REACTORS
330
353
102
}
330
1F
100
AcDbEntity
  8
1
  6
Continuous
 62
     3
100
AcDbLine
 10
-50.73629907689633
 20
79.64515868031856
 30
0.0
 11
-50.86546574356299
 21
79.70974201365186
 31
0.0
  0
LINE
  5
147
102
{ACAD_REACTORS
330
353
102
}
330
1F
100
AcDbEntity
  8
1
  6
Continuous
 62
     3
100
AcDbLine
 10
-50.65879907689634
 20
79.5805753469852
 30
0.0
 11
-50.73629907689633
 21
79.64515868031856
 31
0.0
  0
LINE
  5
148
102
{ACAD_REACTORS
330
353
102
}
330
1F
100
AcDbEntity
  8
1
  6
Continuous
 62
     3
100
AcDbLine
 10
-50.58129907689636
 20
79.48370034698519
 30
0.0
 11
-50.65879907689634
 21
79.5805753469852
 31
0.0
  0
LINE
  5
149
102
{ACAD_REACTORS
330
353
102
}
330
1F
100
AcDbEntity
  8
1
  6
Continuous
 62
     3
100
AcDbLine
 10
-50.50379907689637
 20
79.35453368031853
 30
0.0
 11
-50.58129907689636
 21
79.48370034698519
 31
0.0
  0
LINE
  5
14A
102
{ACAD_REACTORS
330
353
102
}
330
1F
100
AcDbEntity
  8
1
  6
Continuous
 62
     3
100
AcDbLine
 10
-50.45213241022975
 20
79.22536701365186
 30
0.0
 11
-50.50379907689637
 21
79.35453368031853
 31
0.0
  0
LINE
  5
14B
102
{ACAD_REACTORS
330
353
102
}
330
1F
100
AcDbEntity
  8
1
  6
Continuous
 62
     3
100
AcDbLine
 10
-50.40046574356302
 20
79.06390868031855
 30
0.0
 11
-50.45213241022975
 21
79.22536701365186
 31
0.0
  0
LINE
  5
14C
102
{ACAD_REACTORS
330
353
102
}
330
1F
100
AcDbEntity
  8
1
  6
Continuous
 62
     3
100
AcDbLine
 10
-50.37463241022965
 20
78.87015868031853
 30
0.0
 11
-50.40046574356302
 21
79.06390868031855
 31
0.0
  0
LINE
  5
14D
102
{ACAD_REACTORS
330
353
102
}
330
1F
100
AcDbEntity
  8
1
  6
Continuous
 62
     3
100
AcDbLine
 10
-50.3487990768964
 20
78.57953368031855
 30
0.0
 11
-50.37463241022965
 21
78.87015868031853
 31
0.0
  0
LINE
  5
14E
102
{ACAD_REACTORS
330
353
102
}
330
1F
100
AcDbEntity
  8
1
  6
Continuous
 62
     3
100
AcDbLine
 10
-50.3487990768964
 20
78.32120034698522
 30
0.0
 11
-50.3487990768964
 21
78.57953368031855
 31
0.0
  0
LINE
  5
14F
102
{ACAD_REACTORS
330
353
102
}
330
1F
100
AcDbEntity
  8
1
  6
Continuous
 62
     3
100
AcDbLine
 10
-50.37463241022965
 20
78.03057534698519
 30
0.0
 11
-50.3487990768964
 21
78.32120034698522
 31
0.0
  0
LINE
  5
150
102
{ACAD_REACTORS
330
353
102
}
330
1F
100
AcDbEntity
  8
1
  6
Continuous
 62
     3
100
AcDbLine
 10
-50.40046574356302
 20
77.83682534698522
 30
0.0
 11
-50.37463241022965
 21
78.03057534698519
 31
0.0
  0
LINE
  5
151
102
{ACAD_REACTORS
330
353
102
}
330
1F
100
AcDbEntity
  8
1
  6
Continuous
 62
     3
100
AcDbLine
 10
-50.45213241022975
 20
77.67536701365185
 30
0.0
 11
-50.40046574356302
 21
77.83682534698522
 31
0.0
  0
LINE
  5
152
102
{ACAD_REACTORS
330
353
102
}
330
1F
100
AcDbEntity
  8
1
  6
Continuous
 62
     3
100
AcDbLine
 10
-50.50379907689637
 20
77.54620034698519
 30
0.0
 11
-50.45213241022975
 21
77.67536701365185
 31
0.0
  0
LINE
  5
153
102
{ACAD_REACTORS
330
353
102
}
330
1F
100
AcDbEntity
  8
1
  6
Continuous
 62
     3
100
AcDbLine
 10
-50.58129907689636
 20
77.41703368031853
 30
0.0
 11
-50.50379907689637
 21
77.54620034698519
 31
0.0
  0
LINE
  5
154
102
{ACAD_REACTORS
330
353
102
}
330
1F
100
AcDbEntity
  8
1
  6
Continuous
 62
     3
100
AcDbLine
 10
-50.65879907689634
 20
77.32015868031851
 30
0.0
 11
-50.58129907689636
 21
77.41703368031853
 31
0.0
  0
LINE
  5
155
102
{ACAD_REACTORS
330
353
102
}
330
1F
100
AcDbEntity
  8
1
  6
Continuous
 62
     3
100
AcDbLine
 10
-51.25296574356298
 20
77.54620034698519
 30
0.0
 11
-51.14963241022974
 21
77.48161701365188
 31
0.0
  0
LINE
  5
156
102
{ACAD_REACTORS
330
353
102
}
330
1F
100
AcDbEntity
  8
1
  6
Continuous
 62
     3
100
AcDbLine
 10
-51.35629907689639
 20
77.6430753469852
 30
0.0
 11
-51.25296574356298
 21
77.54620034698519
 31
0.0
  0
LINE
  5
157
102
{ACAD_REACTORS
330
353
102
}
330
1F
100
AcDbEntity
  8
1
  6
Continuous
 62
     3
100
AcDbLine
 10
-51.40796574356307
 20
77.73995034698521
 30
0.0
 11
-51.35629907689639
 21
77.6430753469852
 31
0.0
  0
LINE
  5
158
102
{ACAD_REACTORS
330
353
102
}
330
1F
100
AcDbEntity
  8
1
  6
Continuous
 62
     3
100
AcDbLine
 10
-51.45963241022969
 20
77.90140868031853
 30
0.0
 11
-51.40796574356307
 21
77.73995034698521
 31
0.0
  0
LINE
  5
159
102
{ACAD_REACTORS
330
353
102
}
330
1F
100
AcDbEntity
  8
1
  6
Continuous
 62
     3
100
AcDbLine
 10
-51.48546574356305
 20
78.25661701365186
 30
0.0
 11
-51.45963241022969
 21
77.90140868031853
 31
0.0
  0
LINE
  5
15A
102
{ACAD_REACTORS
330
353
102
}
330
1F
100
AcDbEntity
  8
1
  6
Continuous
 62
     3
100
AcDbLine
 10
-51.48546574356305
 20
78.64411701365185
 30
0.0
 11
-51.48546574356305
 21
78.25661701365186
 31
0.0
  0
LINE
  5
15B
102
{ACAD_REACTORS
330
353
102
}
330
1F
100
AcDbEntity
  8
1
  6
Continuous
 62
     3
100
AcDbLine
 10
-51.45963241022969
 20
78.99932534698519
 30
0.0
 11
-51.48546574356305
 21
78.64411701365185
 31
0.0
  0
LINE
  5
15C
102
{ACAD_REACTORS
330
353
102
}
330
1F
100
AcDbEntity
  8
1
  6
Continuous
 62
     3
100
AcDbLine
 10
-51.40796574356307
 20
79.16078368031856
 30
0.0
 11
-51.45963241022969
 21
78.99932534698519
 31
0.0
  0
LINE
  5
15D
102
{ACAD_REACTORS
330
353
102
}
330
1F
100
AcDbEntity
  8
1
  6
Continuous
 62
     3
100
AcDbLine
 10
-51.35629907689639
 20
79.25765868031851
 30
0.0
 11
-51.40796574356307
 21
79.16078368031856
 31
0.0
  0
LINE
  5
15E
102
{ACAD_REACTORS
330
353
102
}
330
1F
100
AcDbEntity
  8
1
  6
Continuous
 62
     3
100
AcDbLine
 10
-51.25296574356298
 20
79.35453368031853
 30
0.0
 11
-51.35629907689639
 21
79.25765868031851
 31
0.0
  0
LINE
  5
15F
102
{ACAD_REACTORS
330
353
102
}
330
1F
100
AcDbEntity
  8
1
  6
Continuous
 62
     3
100
AcDbLine
 10
-51.14963241022974
 20
79.41911701365188
 30
0.0
 11
-51.25296574356298
 21
79.35453368031853
 31
0.0
  0
LINE
  5
160
102
{ACAD_REACTORS
330
353
102
}
330
1F
100
AcDbEntity
  8
1
  6
Continuous
 62
     3
100
AcDbLine
 10
-50.9687990768964
 20
79.41911701365188
 30
0.0
 11
-51.14963241022974
 21
79.41911701365188
 31
0.0
  0
LINE
  5
161
102
{ACAD_REACTORS
330
353
102
}
330
1F
100
AcDbEntity
  8
1
  6
Continuous
 62
     3
100
AcDbLine
 10
-50.86546574356299
 20
79.35453368031853
 30
0.0
 11
-50.9687990768964
 21
79.41911701365188
 31
0.0
  0
LINE
  5
162
102
{ACAD_REACTORS
330
353
102
}
330
1F
100
AcDbEntity
  8
1
  6
Continuous
 62
     3
100
AcDbLine
 10
-50.7621324102297
 20
79.25765868031851
 30
0.0
 11
-50.86546574356299
 21
79.35453368031853
 31
0.0
  0
LINE
  5
163
102
{ACAD_REACTORS
330
353
102
}
330
1F
100
AcDbEntity
  8
1
  6
Continuous
 62
     3
100
AcDbLine
 10
-50.71046574356296
 20
79.16078368031856
 30
0.0
 11
-50.7621324102297
 21
79.25765868031851
 31
0.0
  0
LINE
  5
164
102
{ACAD_REACTORS
330
353
102
}
330
1F
100
AcDbEntity
  8
1
  6
Continuous
 62
     3
100
AcDbLine
 10
-50.65879907689634
 20
78.99932534698519
 30
0.0
 11
-50.71046574356296
 21
79.16078368031856
 31
0.0
  0
LINE
  5
165
102
{ACAD_REACTORS
330
353
102
}
330
1F
100
AcDbEntity
  8
1
  6
Continuous
 62
     3
100
AcDbLine
 10
-50.63296574356303
 20
78.64411701365185
 30
0.0
 11
-50.65879907689634
 21
78.99932534698519
 31
0.0
  0
LINE
  5
166
102
{ACAD_REACTORS
330
353
102
}
330
1F
100
AcDbEntity
  8
1
  6
Continuous
 62
     3
100
AcDbLine
 10
-50.63296574356303
 20
78.25661701365186
 30
0.0
 11
-50.63296574356303
 21
78.64411701365185
 31
0.0
  0
LINE
  5
167
102
{ACAD_REACTORS
330
353
102
}
330
1F
100
AcDbEntity
  8
1
  6
Continuous
 62
     3
100
AcDbLine
 10
-50.65879907689634
 20
77.90140868031853
 30
0.0
 11
-50.63296574356303
 21
78.25661701365186
 31
0.0
  0
LINE
  5
168
102
{ACAD_REACTORS
330
353
102
}
330
1F
100
AcDbEntity
  8
1
  6
Continuous
 62
     3
100
AcDbLine
 10
-50.71046574356296
 20
77.73995034698521
 30
0.0
 11
-50.65879907689634
 21
77.90140868031853
 31
0.0
  0
LINE
  5
169
102
{ACAD_REACTORS
330
353
102
}
330
1F
100
AcDbEntity
  8
1
  6
Continuous
 62
     3
100
AcDbLine
 10
-50.7621324102297
 20
77.6430753469852
 30
0.0
 11
-50.71046574356296
 21
77.73995034698521
 31
0.0
  0
LINE
  5
16A
102
{ACAD_REACTORS
330
353
102
}
330
1F
100
AcDbEntity
  8
1
  6
Continuous
 62
     3
100
AcDbLine
 10
-50.86546574356299
 20
77.54620034698519
 30
0.0
 11
-50.7621324102297
 21
77.6430753469852
 31
0.0
  0
LINE
  5
16B
102
{ACAD_REACTORS
330
353
102
}
330
1F
100
AcDbEntity
  8
1
  6
Continuous
 62
     3
100
AcDbLine
 10
-50.9687990768964
 20
77.48161701365188
 30
0.0
 11
-50.86546574356299
 21
77.54620034698519
 31
0.0
  0
LINE
  5
16C
102
{ACAD_REACTORS
330
353
102
}
330
1F
100
AcDbEntity
  8
1
  6
Continuous
 62
     3
100
AcDbLine
 10
-51.14963241022974
 20
77.48161701365188
 30
0.0
 11
-50.9687990768964
 21
77.48161701365188
 31
0.0
  0
LINE
  5
16D
102
{ACAD_REACTORS
330
354
102
}
330
1F
100
AcDbEntity
  8
1
  6
Continuous
 62
     3
100
AcDbLine
 10
-52.97518796578527
 20
78.70870034698521
 30
0.0
 11
-52.97518796578527
 21
78.41807534698523
 31
0.0
  0
LINE
  5
16E
102
{ACAD_REACTORS
330
354
102
}
330
1F
100
AcDbEntity
  8
1
  6
Continuous
 62
     3
100
AcDbLine
 10
-52.87185463245191
 20
78.70870034698521
 30
0.0
 11
-52.97518796578527
 21
78.70870034698521
 31
0.0
  0
LINE
  5
16F
102
{ACAD_REACTORS
330
354
102
}
330
1F
100
AcDbEntity
  8
1
  6
Continuous
 62
     3
100
AcDbLine
 10
-52.76852129911856
 20
78.74099201365186
 30
0.0
 11
-52.87185463245191
 21
78.70870034698521
 31
0.0
  0
LINE
  5
170
102
{ACAD_REACTORS
330
354
102
}
330
1F
100
AcDbEntity
  8
1
  6
Continuous
 62
     3
100
AcDbLine
 10
-52.69102129911863
 20
78.80557534698522
 30
0.0
 11
-52.76852129911856
 21
78.74099201365186
 31
0.0
  0
LINE
  5
171
102
{ACAD_REACTORS
330
354
102
}
330
1F
100
AcDbEntity
  8
1
  6
Continuous
 62
     3
100
AcDbLine
 10
-52.63935463245196
 20
78.90245034698523
 30
0.0
 11
-52.69102129911863
 21
78.80557534698522
 31
0.0
  0
LINE
  5
172
102
{ACAD_REACTORS
330
354
102
}
330
1F
100
AcDbEntity
  8
1
  6
Continuous
 62
     3
100
AcDbLine
 10
-52.61352129911859
 20
78.99932534698519
 30
0.0
 11
-52.63935463245196
 21
78.90245034698523
 31
0.0
  0
LINE
  5
173
102
{ACAD_REACTORS
330
354
102
}
330
1F
100
AcDbEntity
  8
1
  6
Continuous
 62
     3
100
AcDbLine
 10
-52.61352129911859
 20
79.12849201365185
 30
0.0
 11
-52.61352129911859
 21
78.99932534698519
 31
0.0
  0
LINE
  5
174
102
{ACAD_REACTORS
330
354
102
}
330
1F
100
AcDbEntity
  8
1
  6
Continuous
 62
     3
100
AcDbLine
 10
-52.63935463245196
 20
79.22536701365186
 30
0.0
 11
-52.61352129911859
 21
79.12849201365185
 31
0.0
  0
LINE
  5
175
102
{ACAD_REACTORS
330
354
102
}
330
1F
100
AcDbEntity
  8
1
  6
Continuous
 62
     3
100
AcDbLine
 10
-52.69102129911863
 20
79.32224201365187
 30
0.0
 11
-52.63935463245196
 21
79.22536701365186
 31
0.0
  0
LINE
  5
176
102
{ACAD_REACTORS
330
354
102
}
330
1F
100
AcDbEntity
  8
1
  6
Continuous
 62
     3
100
AcDbLine
 10
-52.76852129911856
 20
79.38682534698523
 30
0.0
 11
-52.69102129911863
 21
79.32224201365187
 31
0.0
  0
LINE
  5
177
102
{ACAD_REACTORS
330
354
102
}
330
1F
100
AcDbEntity
  8
1
  6
Continuous
 62
     3
100
AcDbLine
 10
-52.87185463245191
 20
79.41911701365188
 30
0.0
 11
-52.76852129911856
 21
79.38682534698523
 31
0.0
  0
LINE
  5
178
102
{ACAD_REACTORS
330
354
102
}
330
1F
100
AcDbEntity
  8
1
  6
Continuous
 62
     3
100
AcDbLine
 10
-52.97518796578527
 20
79.41911701365188
 30
0.0
 11
-52.87185463245191
 21
79.41911701365188
 31
0.0
  0
LINE
  5
179
102
{ACAD_REACTORS
330
354
102
}
330
1F
100
AcDbEntity
  8
1
  6
Continuous
 62
     3
100
AcDbLine
 10
-53.07852129911856
 20
79.38682534698523
 30
0.0
 11
-52.97518796578527
 21
79.41911701365188
 31
0.0
  0
LINE
  5
17A
102
{ACAD_REACTORS
330
354
102
}
330
1F
100
AcDbEntity
  8
1
  6
Continuous
 62
     3
100
AcDbLine
 10
-53.15602129911861
 20
79.32224201365187
 30
0.0
 11
-53.07852129911856
 21
79.38682534698523
 31
0.0
  0
LINE
  5
17B
102
{ACAD_REACTORS
330
354
102
}
330
1F
100
AcDbEntity
  8
1
  6
Continuous
 62
     3
100
AcDbLine
 10
-53.20768796578523
 20
79.22536701365186
 30
0.0
 11
-53.15602129911861
 21
79.32224201365187
 31
0.0
  0
LINE
  5
17C
102
{ACAD_REACTORS
330
354
102
}
330
1F
100
AcDbEntity
  8
1
  6
Continuous
 62
     3
100
AcDbLine
 10
-53.23352129911859
 20
79.12849201365185
 30
0.0
 11
-53.20768796578523
 21
79.22536701365186
 31
0.0
  0
LINE
  5
17D
102
{ACAD_REACTORS
330
354
102
}
330
1F
100
AcDbEntity
  8
1
  6
Continuous
 62
     3
100
AcDbLine
 10
-53.23352129911859
 20
78.99932534698519
 30
0.0
 11
-53.23352129911859
 21
79.12849201365185
 31
0.0
  0
LINE
  5
17E
102
{ACAD_REACTORS
330
354
102
}
330
1F
100
AcDbEntity
  8
1
  6
Continuous
 62
     3
100
AcDbLine
 10
-53.51768796578529
 20
78.99932534698519
 30
0.0
 11
-53.23352129911859
 21
78.99932534698519
 31
0.0
  0
LINE
  5
17F
102
{ACAD_REACTORS
330
354
102
}
330
1F
100
AcDbEntity
  8
1
  6
Continuous
 62
     3
100
AcDbLine
 10
-53.51768796578529
 20
79.12849201365185
 30
0.0
 11
-53.51768796578529
 21
78.99932534698519
 31
0.0
  0
LINE
  5
180
102
{ACAD_REACTORS
330
354
102
}
330
1F
100
AcDbEntity
  8
1
  6
Continuous
 62
     3
100
AcDbLine
 10
-53.49185463245192
 20
79.28995034698522
 30
0.0
 11
-53.51768796578529
 21
79.12849201365185
 31
0.0
  0
LINE
  5
181
102
{ACAD_REACTORS
330
354
102
}
330
1F
100
AcDbEntity
  8
1
  6
Continuous
 62
     3
100
AcDbLine
 10
-53.38852129911857
 20
79.48370034698519
 30
0.0
 11
-53.49185463245192
 21
79.28995034698522
 31
0.0
  0
LINE
  5
182
102
{ACAD_REACTORS
330
354
102
}
330
1F
100
AcDbEntity
  8
1
  6
Continuous
 62
     3
100
AcDbLine
 10
-53.28518796578521
 20
79.61286701365185
 30
0.0
 11
-53.38852129911857
 21
79.48370034698519
 31
0.0
  0
LINE
  5
183
102
{ACAD_REACTORS
330
354
102
}
330
1F
100
AcDbEntity
  8
1
  6
Continuous
 62
     3
100
AcDbLine
 10
-53.13018796578524
 20
79.70974201365186
 30
0.0
 11
-53.28518796578521
 21
79.61286701365185
 31
0.0
  0
LINE
  5
184
102
{ACAD_REACTORS
330
354
102
}
330
1F
100
AcDbEntity
  8
1
  6
Continuous
 62
     3
100
AcDbLine
 10
-53.00102129911863
 20
79.74203368031851
 30
0.0
 11
-53.13018796578524
 21
79.70974201365186
 31
0.0
  0
LINE
  5
185
102
{ACAD_REACTORS
330
354
102
}
330
1F
100
AcDbEntity
  8
1
  6
Continuous
 62
     3
100
AcDbLine
 10
-52.84602129911855
 20
79.74203368031851
 30
0.0
 11
-53.00102129911863
 21
79.74203368031851
 31
0.0
  0
LINE
  5
186
102
{ACAD_REACTORS
330
354
102
}
330
1F
100
AcDbEntity
  8
1
  6
Continuous
 62
     3
100
AcDbLine
 10
-52.71685463245194
 20
79.70974201365186
 30
0.0
 11
-52.84602129911855
 21
79.74203368031851
 31
0.0
  0
LINE
  5
187
102
{ACAD_REACTORS
330
354
102
}
330
1F
100
AcDbEntity
  8
1
  6
Continuous
 62
     3
100
AcDbLine
 10
-52.56185463245197
 20
79.61286701365185
 30
0.0
 11
-52.71685463245194
 21
79.70974201365186
 31
0.0
  0
LINE
  5
188
102
{ACAD_REACTORS
330
354
102
}
330
1F
100
AcDbEntity
  8
1
  6
Continuous
 62
     3
100
AcDbLine
 10
-52.45852129911862
 20
79.48370034698519
 30
0.0
 11
-52.56185463245197
 21
79.61286701365185
 31
0.0
  0
LINE
  5
189
102
{ACAD_REACTORS
330
354
102
}
330
1F
100
AcDbEntity
  8
1
  6
Continuous
 62
     3
100
AcDbLine
 10
-52.35518796578526
 20
79.28995034698522
 30
0.0
 11
-52.45852129911862
 21
79.48370034698519
 31
0.0
  0
LINE
  5
18A
102
{ACAD_REACTORS
330
354
102
}
330
1F
100
AcDbEntity
  8
1
  6
Continuous
 62
     3
100
AcDbLine
 10
-52.3293546324519
 20
79.12849201365185
 30
0.0
 11
-52.35518796578526
 21
79.28995034698522
 31
0.0
  0
LINE
  5
18B
102
{ACAD_REACTORS
330
354
102
}
330
1F
100
AcDbEntity
  8
1
  6
Continuous
 62
     3
100
AcDbLine
 10
-52.3293546324519
 20
78.99932534698519
 30
0.0
 11
-52.3293546324519
 21
79.12849201365185
 31
0.0
  0
LINE
  5
18C
102
{ACAD_REACTORS
330
354
102
}
330
1F
100
AcDbEntity
  8
1
  6
Continuous
 62
     3
100
AcDbLine
 10
-52.35518796578526
 20
78.83786701365187
 30
0.0
 11
-52.3293546324519
 21
78.99932534698519
 31
0.0
  0
LINE
  5
18D
102
{ACAD_REACTORS
330
354
102
}
330
1F
100
AcDbEntity
  8
1
  6
Continuous
 62
     3
100
AcDbLine
 10
-52.45852129911862
 20
78.64411701365185
 30
0.0
 11
-52.35518796578526
 21
78.83786701365187
 31
0.0
  0
LINE
  5
18E
102
{ACAD_REACTORS
330
354
102
}
330
1F
100
AcDbEntity
  8
1
  6
Continuous
 62
     3
100
AcDbLine
 10
-52.51018796578524
 20
78.57953368031855
 30
0.0
 11
-52.45852129911862
 21
78.64411701365185
 31
0.0
  0
LINE
  5
18F
102
{ACAD_REACTORS
330
354
102
}
330
1F
100
AcDbEntity
  8
1
  6
Continuous
 62
     3
100
AcDbLine
 10
-52.38102129911857
 20
78.45036701365188
 30
0.0
 11
-52.51018796578524
 21
78.57953368031855
 31
0.0
  0
LINE
  5
190
102
{ACAD_REACTORS
330
354
102
}
330
1F
100
AcDbEntity
  8
1
  6
Continuous
 62
     3
100
AcDbLine
 10
-52.27768796578528
 20
78.25661701365186
 30
0.0
 11
-52.38102129911857
 21
78.45036701365188
 31
0.0
  0
LINE
  5
191
102
{ACAD_REACTORS
330
354
102
}
330
1F
100
AcDbEntity
  8
1
  6
Continuous
 62
     3
100
AcDbLine
 10
-52.22602129911854
 20
78.03057534698519
 30
0.0
 11
-52.27768796578528
 21
78.25661701365186
 31
0.0
  0
LINE
  5
192
102
{ACAD_REACTORS
330
354
102
}
330
1F
100
AcDbEntity
  8
1
  6
Continuous
 62
     3
100
AcDbLine
 10
-52.22602129911854
 20
77.86911701365187
 30
0.0
 11
-52.22602129911854
 21
78.03057534698519
 31
0.0
  0
LINE
  5
193
102
{ACAD_REACTORS
330
354
102
}
330
1F
100
AcDbEntity
  8
1
  6
Continuous
 62
     3
100
AcDbLine
 10
-52.27768796578528
 20
77.6430753469852
 30
0.0
 11
-52.22602129911854
 21
77.86911701365187
 31
0.0
  0
LINE
  5
194
102
{ACAD_REACTORS
330
354
102
}
330
1F
100
AcDbEntity
  8
1
  6
Continuous
 62
     3
100
AcDbLine
 10
-52.35518796578526
 20
77.48161701365188
 30
0.0
 11
-52.27768796578528
 21
77.6430753469852
 31
0.0
  0
LINE
  5
195
102
{ACAD_REACTORS
330
354
102
}
330
1F
100
AcDbEntity
  8
1
  6
Continuous
 62
     3
100
AcDbLine
 10
-52.48435463245198
 20
77.32015868031851
 30
0.0
 11
-52.35518796578526
 21
77.48161701365188
 31
0.0
  0
LINE
  5
196
102
{ACAD_REACTORS
330
354
102
}
330
1F
100
AcDbEntity
  8
1
  6
Continuous
 62
     3
100
AcDbLine
 10
-52.63935463245196
 20
77.22328368031856
 30
0.0
 11
-52.48435463245198
 21
77.32015868031851
 31
0.0
  0
LINE
  5
197
102
{ACAD_REACTORS
330
354
102
}
330
1F
100
AcDbEntity
  8
1
  6
Continuous
 62
     3
100
AcDbLine
 10
-52.84602129911855
 20
77.1587003469852
 30
0.0
 11
-52.63935463245196
 21
77.22328368031856
 31
0.0
  0
LINE
  5
198
102
{ACAD_REACTORS
330
354
102
}
330
1F
100
AcDbEntity
  8
1
  6
Continuous
 62
     3
100
AcDbLine
 10
-53.00102129911863
 20
77.1587003469852
 30
0.0
 11
-52.84602129911855
 21
77.1587003469852
 31
0.0
  0
LINE
  5
199
102
{ACAD_REACTORS
330
354
102
}
330
1F
100
AcDbEntity
  8
1
  6
Continuous
 62
     3
100
AcDbLine
 10
-53.20768796578523
 20
77.22328368031856
 30
0.0
 11
-53.00102129911863
 21
77.1587003469852
 31
0.0
  0
LINE
  5
19A
102
{ACAD_REACTORS
330
354
102
}
330
1F
100
AcDbEntity
  8
1
  6
Continuous
 62
     3
100
AcDbLine
 10
-53.3626879657852
 20
77.32015868031851
 30
0.0
 11
-53.20768796578523
 21
77.22328368031856
 31
0.0
  0
LINE
  5
19B
102
{ACAD_REACTORS
330
354
102
}
330
1F
100
AcDbEntity
  8
1
  6
Continuous
 62
     3
100
AcDbLine
 10
-53.49185463245192
 20
77.48161701365188
 30
0.0
 11
-53.3626879657852
 21
77.32015868031851
 31
0.0
  0
LINE
  5
19C
102
{ACAD_REACTORS
330
354
102
}
330
1F
100
AcDbEntity
  8
1
  6
Continuous
 62
     3
100
AcDbLine
 10
-53.56935463245196
 20
77.6430753469852
 30
0.0
 11
-53.49185463245192
 21
77.48161701365188
 31
0.0
  0
LINE
  5
19D
102
{ACAD_REACTORS
330
354
102
}
330
1F
100
AcDbEntity
  8
1
  6
Continuous
 62
     3
100
AcDbLine
 10
-53.62102129911864
 20
77.86911701365187
 30
0.0
 11
-53.56935463245196
 21
77.6430753469852
 31
0.0
  0
LINE
  5
19E
102
{ACAD_REACTORS
330
354
102
}
330
1F
100
AcDbEntity
  8
1
  6
Continuous
 62
     3
100
AcDbLine
 10
-53.62102129911864
 20
78.03057534698519
 30
0.0
 11
-53.62102129911864
 21
77.86911701365187
 31
0.0
  0
LINE
  5
19F
102
{ACAD_REACTORS
330
354
102
}
330
1F
100
AcDbEntity
  8
1
  6
Continuous
 62
     3
100
AcDbLine
 10
-53.31102129911858
 20
78.03057534698519
 30
0.0
 11
-53.62102129911864
 21
78.03057534698519
 31
0.0
  0
LINE
  5
1A0
102
{ACAD_REACTORS
330
354
102
}
330
1F
100
AcDbEntity
  8
1
  6
Continuous
 62
     3
100
AcDbLine
 10
-53.31102129911858
 20
77.90140868031853
 30
0.0
 11
-53.31102129911858
 21
78.03057534698519
 31
0.0
  0
LINE
  5
1A1
102
{ACAD_REACTORS
330
354
102
}
330
1F
100
AcDbEntity
  8
1
  6
Continuous
 62
     3
100
AcDbLine
 10
-53.28518796578521
 20
77.77224201365186
 30
0.0
 11
-53.31102129911858
 21
77.90140868031853
 31
0.0
  0
LINE
  5
1A2
102
{ACAD_REACTORS
330
354
102
}
330
1F
100
AcDbEntity
  8
1
  6
Continuous
 62
     3
100
AcDbLine
 10
-53.20768796578523
 20
77.6430753469852
 30
0.0
 11
-53.28518796578521
 21
77.77224201365186
 31
0.0
  0
LINE
  5
1A3
102
{ACAD_REACTORS
330
354
102
}
330
1F
100
AcDbEntity
  8
1
  6
Continuous
 62
     3
100
AcDbLine
 10
-53.10435463245199
 20
77.54620034698519
 30
0.0
 11
-53.20768796578523
 21
77.6430753469852
 31
0.0
  0
LINE
  5
1A4
102
{ACAD_REACTORS
330
354
102
}
330
1F
100
AcDbEntity
  8
1
  6
Continuous
 62
     3
100
AcDbLine
 10
-52.97518796578527
 20
77.51390868031854
 30
0.0
 11
-53.10435463245199
 21
77.54620034698519
 31
0.0
  0
LINE
  5
1A5
102
{ACAD_REACTORS
330
354
102
}
330
1F
100
AcDbEntity
  8
1
  6
Continuous
 62
     3
100
AcDbLine
 10
-52.87185463245191
 20
77.51390868031854
 30
0.0
 11
-52.97518796578527
 21
77.51390868031854
 31
0.0
  0
LINE
  5
1A6
102
{ACAD_REACTORS
330
354
102
}
330
1F
100
AcDbEntity
  8
1
  6
Continuous
 62
     3
100
AcDbLine
 10
-52.74268796578531
 20
77.54620034698519
 30
0.0
 11
-52.87185463245191
 21
77.51390868031854
 31
0.0
  0
LINE
  5
1A7
102
{ACAD_REACTORS
330
354
102
}
330
1F
100
AcDbEntity
  8
1
  6
Continuous
 62
     3
100
AcDbLine
 10
-52.63935463245196
 20
77.6430753469852
 30
0.0
 11
-52.74268796578531
 21
77.54620034698519
 31
0.0
  0
LINE
  5
1A8
102
{ACAD_REACTORS
330
354
102
}
330
1F
100
AcDbEntity
  8
1
  6
Continuous
 62
     3
100
AcDbLine
 10
-52.56185463245197
 20
77.77224201365186
 30
0.0
 11
-52.63935463245196
 21
77.6430753469852
 31
0.0
  0
LINE
  5
1A9
102
{ACAD_REACTORS
330
354
102
}
330
1F
100
AcDbEntity
  8
1
  6
Continuous
 62
     3
100
AcDbLine
 10
-52.5360212991186
 20
77.90140868031853
 30
0.0
 11
-52.56185463245197
 21
77.77224201365186
 31
0.0
  0
LINE
  5
1AA
102
{ACAD_REACTORS
330
354
102
}
330
1F
100
AcDbEntity
  8
1
  6
Continuous
 62
     3
100
AcDbLine
 10
-52.5360212991186
 20
78.03057534698519
 30
0.0
 11
-52.5360212991186
 21
77.90140868031853
 31
0.0
  0
LINE
  5
1AB
102
{ACAD_REACTORS
330
354
102
}
330
1F
100
AcDbEntity
  8
1
  6
Continuous
 62
     3
100
AcDbLine
 10
-52.56185463245197
 20
78.15974201365185
 30
0.0
 11
-52.5360212991186
 21
78.03057534698519
 31
0.0
  0
LINE
  5
1AC
102
{ACAD_REACTORS
330
354
102
}
330
1F
100
AcDbEntity
  8
1
  6
Continuous
 62
     3
100
AcDbLine
 10
-52.63935463245196
 20
78.28890868031851
 30
0.0
 11
-52.56185463245197
 21
78.15974201365185
 31
0.0
  0
LINE
  5
1AD
102
{ACAD_REACTORS
330
354
102
}
330
1F
100
AcDbEntity
  8
1
  6
Continuous
 62
     3
100
AcDbLine
 10
-52.74268796578531
 20
78.38578368031853
 30
0.0
 11
-52.63935463245196
 21
78.28890868031851
 31
0.0
  0
LINE
  5
1AE
102
{ACAD_REACTORS
330
354
102
}
330
1F
100
AcDbEntity
  8
1
  6
Continuous
 62
     3
100
AcDbLine
 10
-52.87185463245191
 20
78.41807534698523
 30
0.0
 11
-52.74268796578531
 21
78.38578368031853
 31
0.0
  0
LINE
  5
1AF
102
{ACAD_REACTORS
330
354
102
}
330
1F
100
AcDbEntity
  8
1
  6
Continuous
 62
     3
100
AcDbLine
 10
-52.97518796578527
 20
78.41807534698523
 30
0.0
 11
-52.87185463245191
 21
78.41807534698523
 31
0.0
  0
LINE
  5
1B0
102
{ACAD_REACTORS
330
355
102
}
330
1F
100
AcDbEntity
  8
1
  6
Continuous
 62
     3
100
AcDbLine
 10
-55.670465743563
 20
78.09515868031855
 30
0.0
 11
-55.670465743563
 21
78.38578368031853
 31
0.0
  0
LINE
  5
1B1
102
{ACAD_REACTORS
330
355
102
}
330
1F
100
AcDbEntity
  8
1
  6
Continuous
 62
     3
100
AcDbLine
 10
-57.40129907689641
 20
78.09515868031855
 30
0.0
 11
-55.670465743563
 21
78.09515868031855
 31
0.0
  0
LINE
  5
1B2
102
{ACAD_REACTORS
330
355
102
}
330
1F
100
AcDbEntity
  8
1
  6
Continuous
 62
     3
100
AcDbLine
 10
-57.40129907689641
 20
78.38578368031853
 30
0.0
 11
-57.40129907689641
 21
78.09515868031855
 31
0.0
  0
LINE
  5
1B3
102
{ACAD_REACTORS
330
355
102
}
330
1F
100
AcDbEntity
  8
1
  6
Continuous
 62
     3
100
AcDbLine
 10
-55.670465743563
 20
78.38578368031853
 30
0.0
 11
-57.40129907689641
 21
78.38578368031853
 31
0.0
  0
LINE
  5
1B4
102
{ACAD_REACTORS
330
356
102
}
330
1F
100
AcDbEntity
  8
1
  6
Continuous
 62
     3
100
AcDbLine
 10
-61.52328396018163
 20
79.641238138772
 30
0.0
 11
-62.5162990768963
 21
77.1587003469852
 31
0.0
  0
LINE
  5
1B5
102
{ACAD_REACTORS
330
356
102
}
330
1F
100
AcDbEntity
  8
1
  6
Continuous
 62
     3
100
AcDbLine
 10
-61.2649506268483
 20
79.641238138772
 30
0.0
 11
-61.52328396018163
 21
79.641238138772
 31
0.0
  0
LINE
  5
1B6
102
{ACAD_REACTORS
330
356
102
}
330
1F
100
AcDbEntity
  8
1
  6
Continuous
 62
     3
100
AcDbLine
 10
-62.25796574356303
 20
77.1587003469852
 30
0.0
 11
-61.2649506268483
 21
79.641238138772
 31
0.0
  0
LINE
  5
1B7
102
{ACAD_REACTORS
330
356
102
}
330
1F
100
AcDbEntity
  8
1
  6
Continuous
 62
     3
100
AcDbLine
 10
-62.5162990768963
 20
77.1587003469852
 30
0.0
 11
-62.25796574356303
 21
77.1587003469852
 31
0.0
  0
LINE
  5
1B8
102
{ACAD_REACTORS
330
357
102
}
330
1F
100
AcDbEntity
  8
1
  6
Continuous
 62
     3
100
AcDbLine
 10
-64.3518450627497
 20
82.37471622922521
 30
0.0
 11
-63.61626976162972
 21
82.37471622922521
 31
0.0
  0
LINE
  5
1B9
102
{ACAD_REACTORS
330
357
102
}
330
1F
100
AcDbEntity
  8
1
  6
Continuous
 62
     3
100
AcDbLine
 10
-63.61626976162972
 20
81.63938579338526
 30
0.0
 11
-63.61626976162972
 21
82.37471622922521
 31
0.0
  0
LINE
  5
1BA
102
{ACAD_REACTORS
330
357
102
}
330
1F
100
AcDbEntity
  8
1
  6
Continuous
 62
     3
100
AcDbLine
 10
-63.61626976162972
 20
81.63938579338526
 30
0.0
 11
-62.29291984239762
 21
81.63938579338526
 31
0.0
  0
LINE
  5
1BB
102
{ACAD_REACTORS
330
357
102
}
330
1F
100
AcDbEntity
  8
1
  6
Continuous
 62
     3
100
AcDbLine
 10
-62.29291984239762
 20
82.37471622922521
 30
0.0
 11
-62.29291984239762
 21
81.63938579338526
 31
0.0
  0
LINE
  5
1BC
102
{ACAD_REACTORS
330
357
102
}
330
1F
100
AcDbEntity
  8
1
  6
Continuous
 62
     3
100
AcDbLine
 10
-62.29291984239762
 20
82.37471622922521
 30
0.0
 11
-61.55734454127764
 21
82.37471622922521
 31
0.0
  0
LINE
  5
1BD
102
{ACAD_REACTORS
330
357
102
}
330
1F
100
AcDbEntity
  8
1
  6
Continuous
 62
     3
100
AcDbLine
 10
-61.55734454127764
 20
82.37471622922521
 30
0.0
 11
-61.55734454127764
 21
80.65870034698526
 31
0.0
  0
LINE
  5
1BE
102
{ACAD_REACTORS
330
357
102
}
330
1F
100
AcDbEntity
  8
1
  6
Continuous
 62
     3
100
AcDbLine
 10
-62.29291984239762
 20
80.65870034698526
 30
0.0
 11
-61.55734454127764
 21
80.65870034698526
 31
0.0
  0
LINE
  5
1BF
102
{ACAD_REACTORS
330
357
102
}
330
1F
100
AcDbEntity
  8
1
  6
Continuous
 62
     3
100
AcDbLine
 10
-62.29291984239762
 20
81.39403078282521
 30
0.0
 11
-62.29291984239762
 21
80.65870034698526
 31
0.0
  0
LINE
  5
1C0
102
{ACAD_REACTORS
330
357
102
}
330
1F
100
AcDbEntity
  8
1
  6
Continuous
 62
     3
100
AcDbLine
 10
-63.61626976162972
 20
81.39403078282521
 30
0.0
 11
-62.29291984239762
 21
81.39403078282521
 31
0.0
  0
LINE
  5
1C1
102
{ACAD_REACTORS
330
357
102
}
330
1F
100
AcDbEntity
  8
1
  6
Continuous
 62
     3
100
AcDbLine
 10
-63.61626976162972
 20
80.65870034698526
 30
0.0
 11
-63.61626976162972
 21
81.39403078282521
 31
0.0
  0
LINE
  5
1C2
102
{ACAD_REACTORS
330
357
102
}
330
1F
100
AcDbEntity
  8
1
  6
Continuous
 62
     3
100
AcDbLine
 10
-64.3518450627497
 20
80.65870034698526
 30
0.0
 11
-63.61626976162972
 21
80.65870034698526
 31
0.0
  0
LINE
  5
1C3
102
{ACAD_REACTORS
330
357
102
}
330
1F
100
AcDbEntity
  8
1
  6
Continuous
 62
     3
100
AcDbLine
 10
-64.3518450627497
 20
82.37471622922521
 30
0.0
 11
-64.3518450627497
 21
80.65870034698526
 31
0.0
  0
LINE
  5
1C4
102
{ACAD_REACTORS
330
358
102
}
330
1F
100
AcDbEntity
  8
1
  6
Continuous
 62
     3
100
AcDbLine
 10
-59.75074245734868
 20
82.37471622922521
 30
0.0
 11
-58.70997642792543
 21
82.37471622922521
 31
0.0
  0
LINE
  5
1C5
102
{ACAD_REACTORS
330
358
102
}
330
1F
100
AcDbEntity
  8
1
  6
Continuous
 62
     3
100
AcDbLine
 10
-58.70997642792543
 20
82.37471622922521
 30
0.0
 11
-57.6803668985815
 21
80.65870034698526
 31
0.0
  0
LINE
  5
1C6
102
{ACAD_REACTORS
330
358
102
}
330
1F
100
AcDbEntity
  8
1
  6
Continuous
 62
     3
100
AcDbLine
 10
-58.57133606224602
 20
80.65870034698526
 30
0.0
 11
-57.6803668985815
 21
80.65870034698526
 31
0.0
  0
LINE
  5
1C7
102
{ACAD_REACTORS
330
358
102
}
330
1F
100
AcDbEntity
  8
1
  6
Continuous
 62
     3
100
AcDbLine
 10
-58.80664180171476
 20
81.05087657943318
 30
0.0
 11
-58.57133606224602
 21
80.65870034698526
 31
0.0
  0
LINE
  5
1C8
102
{ACAD_REACTORS
330
358
102
}
330
1F
100
AcDbEntity
  8
1
  6
Continuous
 62
     3
100
AcDbLine
 10
-60.11893316697956
 20
81.05087657943318
 30
0.0
 11
-58.80664180171476
 21
81.05087657943318
 31
0.0
  0
LINE
  5
1C9
102
{ACAD_REACTORS
330
358
102
}
330
1F
100
AcDbEntity
  8
1
  6
Continuous
 62
     3
100
AcDbLine
 10
-60.37384771807081
 20
80.65870034698526
 30
0.0
 11
-60.11893316697956
 21
81.05087657943318
 31
0.0
  0
LINE
  5
1CA
102
{ACAD_REACTORS
330
358
102
}
330
1F
100
AcDbEntity
  8
1
  6
Continuous
 62
     3
100
AcDbLine
 10
-60.86615278080467
 20
80.65870034698526
 30
0.0
 11
-60.37384771807081
 21
80.65870034698526
 31
0.0
  0
LINE
  5
1CB
102
{ACAD_REACTORS
330
358
102
}
330
1F
100
AcDbEntity
  8
1
  6
Continuous
 62
     3
100
AcDbLine
 10
-60.86615278080467
 20
80.65870034698526
 30
0.0
 11
-59.75074245734868
 21
82.37471622922521
 31
0.0
  0
LINE
  5
1CC
102
{ACAD_REACTORS
330
358
102
}
330
1F
100
AcDbEntity
  8
1
  6
Continuous
 62
     3
100
AcDbLine
 10
-59.43654165704186
 20
82.10070967164506
 30
0.0
 11
-58.92444159061711
 21
81.24720956093722
 31
0.0
  0
LINE
  5
1CD
102
{ACAD_REACTORS
330
358
102
}
330
1F
100
AcDbEntity
  8
1
  6
Continuous
 62
     3
100
AcDbLine
 10
-58.92444159061711
 20
81.24720956093722
 30
0.0
 11
-59.99131672900182
 21
81.24720956093722
 31
0.0
  0
LINE
  5
1CE
102
{ACAD_REACTORS
330
358
102
}
330
1F
100
AcDbEntity
  8
1
  6
Continuous
 62
     3
100
AcDbLine
 10
-59.99131672900182
 20
81.24720956093722
 30
0.0
 11
-59.43654165704186
 21
82.10070967164506
 31
0.0
  0
LINE
  5
1CF
102
{ACAD_REACTORS
330
359
102
}
330
1F
100
AcDbEntity
  8
1
  6
Continuous
 62
     3
100
AcDbLine
 10
-57.0475627334057
 20
82.37471622922521
 30
0.0
 11
-55.74032383709994
 21
82.37471622922521
 31
0.0
  0
LINE
  5
1D0
102
{ACAD_REACTORS
330
359
102
}
330
1F
100
AcDbEntity
  8
1
  6
Continuous
 62
     3
100
AcDbLine
 10
-55.28264725474969
 20
80.91015116570406
 30
0.0
 11
-55.74032383709994
 21
82.37471622922521
 31
0.0
  0
LINE
  5
1D1
102
{ACAD_REACTORS
330
359
102
}
330
1F
100
AcDbEntity
  8
1
  6
Continuous
 62
     3
100
AcDbLine
 10
-54.82497067239933
 20
82.37471622922521
 30
0.0
 11
-55.28264725474969
 21
80.91015116570406
 31
0.0
  0
LINE
  5
1D2
102
{ACAD_REACTORS
330
359
102
}
330
1F
100
AcDbEntity
  8
1
  6
Continuous
 62
     3
100
AcDbLine
 10
-54.82497067239933
 20
82.37471622922521
 30
0.0
 11
-53.5177317760938
 21
82.37471622922521
 31
0.0
  0
LINE
  5
1D3
102
{ACAD_REACTORS
330
359
102
}
330
1F
100
AcDbEntity
  8
1
  6
Continuous
 62
     3
100
AcDbLine
 10
-53.5177317760938
 20
82.37471622922521
 30
0.0
 11
-53.5177317760938
 21
80.65870034698526
 31
0.0
  0
LINE
  5
1D4
102
{ACAD_REACTORS
330
359
102
}
330
1F
100
AcDbEntity
  8
1
  6
Continuous
 62
     3
100
AcDbLine
 10
-54.25330707721366
 20
80.65870034698526
 30
0.0
 11
-53.5177317760938
 21
80.65870034698526
 31
0.0
  0
LINE
  5
1D5
102
{ACAD_REACTORS
330
359
102
}
330
1F
100
AcDbEntity
  8
1
  6
Continuous
 62
     3
100
AcDbLine
 10
-54.95324909010378
 20
80.65870034698526
 30
0.0
 11
-54.44947395829672
 21
82.11964822922522
 31
0.0
  0
LINE
  5
1D6
102
{ACAD_REACTORS
330
359
102
}
330
1F
100
AcDbEntity
  8
1
  6
Continuous
 62
     3
100
AcDbLine
 10
-55.85994026746931
 20
80.65870034698526
 30
0.0
 11
-54.95324909010378
 21
80.65870034698526
 31
0.0
  0
LINE
  5
1D7
102
{ACAD_REACTORS
330
359
102
}
330
1F
100
AcDbEntity
  8
1
  6
Continuous
 62
     3
100
AcDbLine
 10
-56.60611960662163
 20
80.65870034698526
 30
0.0
 11
-56.60611960662163
 21
82.11964822922522
 31
0.0
  0
LINE
  5
1D8
102
{ACAD_REACTORS
330
359
102
}
330
1F
100
AcDbEntity
  8
1
  6
Continuous
 62
     3
100
AcDbLine
 10
-57.0475627334057
 20
80.65870034698526
 30
0.0
 11
-56.60611960662163
 21
80.65870034698526
 31
0.0
  0
LINE
  5
1D9
102
{ACAD_REACTORS
330
359
102
}
330
1F
100
AcDbEntity
  8
1
  6
Continuous
 62
     3
100
AcDbLine
 10
-57.0475627334057
 20
82.37471622922521
 30
0.0
 11
-57.0475627334057
 21
80.65870034698526
 31
0.0
  0
LINE
  5
1DA
102
{ACAD_REACTORS
330
35A
102
}
330
1F
100
AcDbEntity
  8
1
  6
Continuous
 62
     3
100
AcDbLine
 10
-52.82654001562071
 20
80.65870034698526
 30
0.0
 11
-51.71112969216466
 21
82.37471622922521
 31
0.0
  0
LINE
  5
1DB
102
{ACAD_REACTORS
330
35A
102
}
330
1F
100
AcDbEntity
  8
1
  6
Continuous
 62
     3
100
AcDbLine
 10
-51.71112969216466
 20
82.37471622922521
 30
0.0
 11
-50.67036366274152
 21
82.37471622922521
 31
0.0
  0
LINE
  5
1DC
102
{ACAD_REACTORS
330
35A
102
}
330
1F
100
AcDbEntity
  8
1
  6
Continuous
 62
     3
100
AcDbLine
 10
-50.67036366274152
 20
82.37471622922521
 30
0.0
 11
-49.64075413339754
 21
80.65870034698526
 31
0.0
  0
LINE
  5
1DD
102
{ACAD_REACTORS
330
35A
102
}
330
1F
100
AcDbEntity
  8
1
  6
Continuous
 62
     3
100
AcDbLine
 10
-50.53172329706183
 20
80.65870034698526
 30
0.0
 11
-49.64075413339754
 21
80.65870034698526
 31
0.0
  0
LINE
  5
1DE
102
{ACAD_REACTORS
330
35A
102
}
330
1F
100
AcDbEntity
  8
1
  6
Continuous
 62
     3
100
AcDbLine
 10
-50.76702903653074
 20
81.05087657943318
 30
0.0
 11
-50.53172329706183
 21
80.65870034698526
 31
0.0
  0
LINE
  5
1DF
102
{ACAD_REACTORS
330
35A
102
}
330
1F
100
AcDbEntity
  8
1
  6
Continuous
 62
     3
100
AcDbLine
 10
-52.07932040179549
 20
81.05087657943318
 30
0.0
 11
-50.76702903653074
 21
81.05087657943318
 31
0.0
  0
LINE
  5
1E0
102
{ACAD_REACTORS
330
35A
102
}
330
1F
100
AcDbEntity
  8
1
  6
Continuous
 62
     3
100
AcDbLine
 10
-52.33423495288673
 20
80.65870034698526
 30
0.0
 11
-52.07932040179549
 21
81.05087657943318
 31
0.0
  0
LINE
  5
1E1
102
{ACAD_REACTORS
330
35A
102
}
330
1F
100
AcDbEntity
  8
1
  6
Continuous
 62
     3
100
AcDbLine
 10
-52.82654001562071
 20
80.65870034698526
 30
0.0
 11
-52.33423495288673
 21
80.65870034698526
 31
0.0
  0
LINE
  5
1E2
102
{ACAD_REACTORS
330
35A
102
}
330
1F
100
AcDbEntity
  8
1
  6
Continuous
 62
     3
100
AcDbLine
 10
-51.95170396381798
 20
81.24720956093722
 30
0.0
 11
-51.39692889185767
 21
82.10070967164506
 31
0.0
  0
LINE
  5
1E3
102
{ACAD_REACTORS
330
35A
102
}
330
1F
100
AcDbEntity
  8
1
  6
Continuous
 62
     3
100
AcDbLine
 10
-51.39692889185767
 20
82.10070967164506
 30
0.0
 11
-50.88482882543303
 21
81.24720956093722
 31
0.0
  0
LINE
  5
1E4
102
{ACAD_REACTORS
330
35A
102
}
330
1F
100
AcDbEntity
  8
1
  6
Continuous
 62
     3
100
AcDbLine
 10
-50.88482882543303
 20
81.24720956093722
 30
0.0
 11
-51.95170396381798
 21
81.24720956093722
 31
0.0
  0
LINE
  5
1E5
102
{ACAD_REACTORS
330
35B
102
}
330
1F
100
AcDbEntity
  8
1
  6
Continuous
 62
     3
100
AcDbLine
 10
-49.00794996822174
 20
82.03156202583318
 30
0.0
 11
-48.2723746671017
 21
82.03156202583318
 31
0.0
  0
LINE
  5
1E6
102
{ACAD_REACTORS
330
35B
102
}
330
1F
100
AcDbEntity
  8
1
  6
Continuous
 62
     3
100
AcDbLine
 10
-48.2723746671017
 20
82.03156202583318
 30
0.0
 11
-48.2723746671017
 21
80.65870034698526
 31
0.0
  0
LINE
  5
1E7
102
{ACAD_REACTORS
330
35B
102
}
330
1F
100
AcDbEntity
  8
1
  6
Continuous
 62
     3
100
AcDbLine
 10
-49.00794996822174
 20
80.65870034698526
 30
0.0
 11
-48.2723746671017
 21
80.65870034698526
 31
0.0
  0
LINE
  5
1E8
102
{ACAD_REACTORS
330
35B
102
}
330
1F
100
AcDbEntity
  8
1
  6
Continuous
 62
     3
100
AcDbLine
 10
-49.00794996822174
 20
82.03156202583318
 30
0.0
 11
-49.00794996822174
 21
80.65870034698526
 31
0.0
  0
LINE
  5
1E9
102
{ACAD_REACTORS
330
359
102
}
330
1F
100
AcDbEntity
  8
1
  6
Continuous
 62
     3
100
AcDbLine
 10
-56.60611960662163
 20
82.11964822922522
 30
0.0
 11
-56.41409291245691
 21
82.11964822922522
 31
0.0
  0
LINE
  5
1EA
102
{ACAD_REACTORS
330
359
102
}
330
1F
100
AcDbEntity
  8
1
  6
Continuous
 62
     3
100
AcDbLine
 10
-54.44947395829672
 20
82.11964822922522
 30
0.0
 11
-54.25330707721366
 21
82.11964822922522
 31
0.0
  0
LINE
  5
1EB
102
{ACAD_REACTORS
330
359
102
}
330
1F
100
AcDbEntity
  8
1
  6
Continuous
 62
     3
100
AcDbLine
 10
-54.25330707721366
 20
82.11964822922522
 30
0.0
 11
-54.25330707721366
 21
80.65870034698526
 31
0.0
  0
LINE
  5
1EC
102
{ACAD_REACTORS
330
359
102
}
330
1F
100
AcDbEntity
  8
1
  6
Continuous
 62
     3
100
AcDbLine
 10
-56.41409291245691
 20
82.11964822922522
 30
0.0
 11
-55.85994026746931
 21
80.65870034698526
 31
0.0
  0
LINE
  5
1ED
102
{ACAD_REACTORS
330
35C
102
}
330
1F
100
AcDbEntity
  8
1
  6
Continuous
 62
     3
100
AcDbLine
 10
-63.94515183135172
 20
79.49091961140482
 30
0.0
 11
-63.85275183135173
 21
79.62905914628851
 31
0.0
  0
LINE
  5
1EE
102
{ACAD_REACTORS
330
35C
102
}
330
1F
100
AcDbEntity
  8
1
  6
Continuous
 62
     3
100
AcDbLine
 10
-63.85275183135173
 20
79.62905914628851
 30
0.0
 11
-63.81315183135166
 21
79.78254751838153
 31
0.0
  0
LINE
  5
1EF
102
{ACAD_REACTORS
330
35C
102
}
330
1F
100
AcDbEntity
  8
1
  6
Continuous
 62
     3
100
AcDbLine
 10
-63.81315183135166
 20
79.78254751838153
 30
0.0
 11
-63.65475183135175
 21
79.78254751838153
 31
0.0
  0
LINE
  5
1F0
102
{ACAD_REACTORS
330
35C
102
}
330
1F
100
AcDbEntity
  8
1
  6
Continuous
 62
     3
100
AcDbLine
 10
-63.65475183135175
 20
79.78254751838153
 30
0.0
 11
-63.65475183135175
 21
77.18859403000943
 31
0.0
  0
LINE
  5
1F1
102
{ACAD_REACTORS
330
35C
102
}
330
1F
100
AcDbEntity
  8
1
  6
Continuous
 62
     3
100
AcDbLine
 10
-63.65475183135175
 20
77.18859403000943
 30
0.0
 11
-63.95835183135171
 21
77.18859403000943
 31
0.0
  0
LINE
  5
1F2
102
{ACAD_REACTORS
330
35C
102
}
330
1F
100
AcDbEntity
  8
1
  6
Continuous
 62
     3
100
AcDbLine
 10
-63.95835183135171
 20
77.18859403000943
 30
0.0
 11
-63.95835183135171
 21
79.16859403000944
 31
0.0
  0
LINE
  5
1F3
102
{ACAD_REACTORS
330
35C
102
}
330
1F
100
AcDbEntity
  8
1
  6
Continuous
 62
     3
100
AcDbLine
 10
-63.95835183135171
 20
79.16859403000944
 30
0.0
 11
-64.34115183135168
 21
79.16859403000944
 31
0.0
  0
LINE
  5
1F4
102
{ACAD_REACTORS
330
35C
102
}
330
1F
100
AcDbEntity
  8
1
  6
Continuous
 62
     3
100
AcDbLine
 10
-64.34115183135168
 20
79.16859403000944
 30
0.0
 11
-64.34115183135168
 21
79.3681289137304
 31
0.0
  0
LINE
  5
1F5
102
{ACAD_REACTORS
330
35C
102
}
330
1F
100
AcDbEntity
  8
1
  6
Continuous
 62
     3
100
AcDbLine
 10
-64.34115183135168
 20
79.3681289137304
 30
0.0
 11
-64.22235183135172
 21
79.3681289137304
 31
0.0
  0
LINE
  5
1F6
102
{ACAD_REACTORS
330
35C
102
}
330
1F
100
AcDbEntity
  8
1
  6
Continuous
 62
     3
100
AcDbLine
 10
-64.22235183135172
 20
79.3681289137304
 30
0.0
 11
-64.07715183135167
 21
79.398826588149
 31
0.0
  0
LINE
  5
1F7
102
{ACAD_REACTORS
330
35C
102
}
330
1F
100
AcDbEntity
  8
1
  6
Continuous
 62
     3
100
AcDbLine
 10
-64.07715183135167
 20
79.398826588149
 30
0.0
 11
-63.94515183135172
 21
79.49091961140482
 31
0.0
  0
LINE
  5
1F8
102
{ACAD_REACTORS
330
35D
102
}
330
1F
100
AcDbEntity
  8
1
  6
Continuous
 62
     3
100
AcDbLine
 10
-60.75282057569791
 20
78.87696612303273
 30
0.0
 11
-60.70002057569798
 21
79.27603589047459
 31
0.0
  0
LINE
  5
1F9
102
{ACAD_REACTORS
330
35D
102
}
330
1F
100
AcDbEntity
  8
1
  6
Continuous
 62
     3
100
AcDbLine
 10
-60.70002057569798
 20
79.27603589047459
 30
0.0
 11
-60.54162057569795
 21
79.58301263466063
 31
0.0
  0
LINE
  5
1FA
102
{ACAD_REACTORS
330
35D
102
}
330
1F
100
AcDbEntity
  8
1
  6
Continuous
 62
     3
100
AcDbLine
 10
-60.54162057569795
 20
79.58301263466063
 30
0.0
 11
-60.37002057569794
 21
79.72115216954433
 31
0.0
  0
LINE
  5
1FB
102
{ACAD_REACTORS
330
35D
102
}
330
1F
100
AcDbEntity
  8
1
  6
Continuous
 62
     3
100
AcDbLine
 10
-60.37002057569794
 20
79.72115216954433
 30
0.0
 11
-60.14562057569793
 21
79.76719868117226
 31
0.0
  0
LINE
  5
1FC
102
{ACAD_REACTORS
330
35D
102
}
330
1F
100
AcDbEntity
  8
1
  6
Continuous
 62
     3
100
AcDbLine
 10
-60.14562057569793
 20
79.76719868117226
 30
0.0
 11
-59.89482057569796
 21
79.72115216954433
 31
0.0
  0
LINE
  5
1FD
102
{ACAD_REACTORS
330
35D
102
}
330
1F
100
AcDbEntity
  8
1
  6
Continuous
 62
     3
100
AcDbLine
 10
-59.89482057569796
 20
79.72115216954433
 30
0.0
 11
-59.69682057569798
 21
79.58301263466063
 31
0.0
  0
LINE
  5
1FE
102
{ACAD_REACTORS
330
35D
102
}
330
1F
100
AcDbEntity
  8
1
  6
Continuous
 62
     3
100
AcDbLine
 10
-59.69682057569798
 20
79.58301263466063
 30
0.0
 11
-59.57802057569791
 21
79.35278007652107
 31
0.0
  0
LINE
  5
1FF
102
{ACAD_REACTORS
330
35D
102
}
330
1F
100
AcDbEntity
  8
1
  6
Continuous
 62
     3
100
AcDbLine
 10
-59.57802057569791
 20
79.35278007652107
 30
0.0
 11
-59.52522057569797
 21
79.09184984396296
 31
0.0
  0
LINE
  5
200
102
{ACAD_REACTORS
330
35D
102
}
330
1F
100
AcDbEntity
  8
1
  6
Continuous
 62
     3
100
AcDbLine
 10
-59.52522057569797
 20
79.09184984396296
 30
0.0
 11
-59.57802057569791
 21
78.75417542535831
 31
0.0
  0
LINE
  5
201
102
{ACAD_REACTORS
330
35D
102
}
330
1F
100
AcDbEntity
  8
1
  6
Continuous
 62
     3
100
AcDbLine
 10
-59.57802057569791
 20
78.75417542535831
 30
0.0
 11
-59.72322057569795
 21
78.46254751838154
 31
0.0
  0
LINE
  5
202
102
{ACAD_REACTORS
330
35D
102
}
330
1F
100
AcDbEntity
  8
1
  6
Continuous
 62
     3
100
AcDbLine
 10
-59.72322057569795
 20
78.46254751838154
 30
0.0
 11
-59.90802057569795
 21
78.2169661230327
 31
0.0
  0
LINE
  5
203
102
{ACAD_REACTORS
330
35D
102
}
330
1F
100
AcDbEntity
  8
1
  6
Continuous
 62
     3
100
AcDbLine
 10
-59.90802057569795
 20
78.2169661230327
 30
0.0
 11
-60.09282057569794
 21
77.97138472768387
 31
0.0
  0
LINE
  5
204
102
{ACAD_REACTORS
330
35D
102
}
330
1F
100
AcDbEntity
  8
1
  6
Continuous
 62
     3
100
AcDbLine
 10
-60.09282057569794
 20
77.97138472768387
 30
0.0
 11
-60.19842057569792
 21
77.83324519280018
 31
0.0
  0
LINE
  5
205
102
{ACAD_REACTORS
330
35D
102
}
330
1F
100
AcDbEntity
  8
1
  6
Continuous
 62
     3
100
AcDbLine
 10
-60.19842057569792
 20
77.83324519280018
 30
0.0
 11
-60.30402057569791
 21
77.71045449512576
 31
0.0
  0
LINE
  5
206
102
{ACAD_REACTORS
330
35D
102
}
330
1F
100
AcDbEntity
  8
1
  6
Continuous
 62
     3
100
AcDbLine
 10
-60.30402057569791
 20
77.71045449512576
 30
0.0
 11
-60.3964205756979
 21
77.58766379745134
 31
0.0
  0
LINE
  5
207
102
{ACAD_REACTORS
330
35D
102
}
330
1F
100
AcDbEntity
  8
1
  6
Continuous
 62
     3
100
AcDbLine
 10
-60.3964205756979
 20
77.58766379745134
 30
0.0
 11
-60.44922057569789
 21
77.46487309977692
 31
0.0
  0
LINE
  5
208
102
{ACAD_REACTORS
330
35D
102
}
330
1F
100
AcDbEntity
  8
1
  6
Continuous
 62
     3
100
AcDbLine
 10
-60.44922057569789
 20
77.46487309977692
 30
0.0
 11
-59.48562057569791
 21
77.46487309977692
 31
0.0
  0
LINE
  5
209
102
{ACAD_REACTORS
330
35D
102
}
330
1F
100
AcDbEntity
  8
1
  6
Continuous
 62
     3
100
AcDbLine
 10
-59.48562057569791
 20
77.46487309977692
 30
0.0
 11
-59.48562057569791
 21
77.15789635559088
 31
0.0
  0
LINE
  5
20A
102
{ACAD_REACTORS
330
35D
102
}
330
1F
100
AcDbEntity
  8
1
  6
Continuous
 62
     3
100
AcDbLine
 10
-59.48562057569791
 20
77.15789635559088
 30
0.0
 11
-60.80562057569796
 21
77.15789635559088
 31
0.0
  0
LINE
  5
20B
102
{ACAD_REACTORS
330
35D
102
}
330
1F
100
AcDbEntity
  8
1
  6
Continuous
 62
     3
100
AcDbLine
 10
-60.80562057569796
 20
77.15789635559088
 30
0.0
 11
-60.80562057569796
 21
77.43417542535826
 31
0.0
  0
LINE
  5
20C
102
{ACAD_REACTORS
330
35D
102
}
330
1F
100
AcDbEntity
  8
1
  6
Continuous
 62
     3
100
AcDbLine
 10
-60.80562057569796
 20
77.43417542535826
 30
0.0
 11
-60.73962057569793
 21
77.60301263466062
 31
0.0
  0
LINE
  5
20D
102
{ACAD_REACTORS
330
35D
102
}
330
1F
100
AcDbEntity
  8
1
  6
Continuous
 62
     3
100
AcDbLine
 10
-60.73962057569793
 20
77.60301263466062
 30
0.0
 11
-60.5812205756979
 21
77.84859403000945
 31
0.0
  0
LINE
  5
20E
102
{ACAD_REACTORS
330
35D
102
}
330
1F
100
AcDbEntity
  8
1
  6
Continuous
 62
     3
100
AcDbLine
 10
-60.5812205756979
 20
77.84859403000945
 30
0.0
 11
-60.29082057569792
 21
78.2169661230327
 31
0.0
  0
LINE
  5
20F
102
{ACAD_REACTORS
330
35D
102
}
330
1F
100
AcDbEntity
  8
1
  6
Continuous
 62
     3
100
AcDbLine
 10
-60.29082057569792
 20
78.2169661230327
 30
0.0
 11
-60.05322057569788
 21
78.52394286721875
 31
0.0
  0
LINE
  5
210
102
{ACAD_REACTORS
330
35D
102
}
330
1F
100
AcDbEntity
  8
1
  6
Continuous
 62
     3
100
AcDbLine
 10
-60.05322057569788
 20
78.52394286721875
 30
0.0
 11
-59.89482057569796
 21
78.80022193698619
 31
0.0
  0
LINE
  5
211
102
{ACAD_REACTORS
330
35D
102
}
330
1F
100
AcDbEntity
  8
1
  6
Continuous
 62
     3
100
AcDbLine
 10
-59.89482057569796
 20
78.80022193698619
 30
0.0
 11
-59.84202057569792
 21
79.09184984396296
 31
0.0
  0
LINE
  5
212
102
{ACAD_REACTORS
330
35D
102
}
330
1F
100
AcDbEntity
  8
1
  6
Continuous
 62
     3
100
AcDbLine
 10
-59.84202057569792
 20
79.09184984396296
 30
0.0
 11
-59.86842057569788
 21
79.26068705326526
 31
0.0
  0
LINE
  5
213
102
{ACAD_REACTORS
330
35D
102
}
330
1F
100
AcDbEntity
  8
1
  6
Continuous
 62
     3
100
AcDbLine
 10
-59.86842057569788
 20
79.26068705326526
 30
0.0
 11
-59.93442057569791
 21
79.398826588149
 31
0.0
  0
LINE
  5
214
102
{ACAD_REACTORS
330
35D
102
}
330
1F
100
AcDbEntity
  8
1
  6
Continuous
 62
     3
100
AcDbLine
 10
-59.93442057569791
 20
79.398826588149
 30
0.0
 11
-60.02682057569791
 21
79.46022193698622
 31
0.0
  0
LINE
  5
215
102
{ACAD_REACTORS
330
35D
102
}
330
1F
100
AcDbEntity
  8
1
  6
Continuous
 62
     3
100
AcDbLine
 10
-60.02682057569791
 20
79.46022193698622
 30
0.0
 11
-60.13242057569789
 21
79.49091961140482
 31
0.0
  0
LINE
  5
216
102
{ACAD_REACTORS
330
35D
102
}
330
1F
100
AcDbEntity
  8
1
  6
Continuous
 62
     3
100
AcDbLine
 10
-60.13242057569789
 20
79.49091961140482
 30
0.0
 11
-60.23802057569793
 21
79.46022193698622
 31
0.0
  0
LINE
  5
217
102
{ACAD_REACTORS
330
35D
102
}
330
1F
100
AcDbEntity
  8
1
  6
Continuous
 62
     3
100
AcDbLine
 10
-60.23802057569793
 20
79.46022193698622
 30
0.0
 11
-60.31722057569789
 21
79.398826588149
 31
0.0
  0
LINE
  5
218
102
{ACAD_REACTORS
330
35D
102
}
330
1F
100
AcDbEntity
  8
1
  6
Continuous
 62
     3
100
AcDbLine
 10
-60.31722057569789
 20
79.398826588149
 30
0.0
 11
-60.42282057569793
 21
79.18394286721878
 31
0.0
  0
LINE
  5
219
102
{ACAD_REACTORS
330
35D
102
}
330
1F
100
AcDbEntity
  8
1
  6
Continuous
 62
     3
100
AcDbLine
 10
-60.42282057569793
 20
79.18394286721878
 30
0.0
 11
-60.44922057569789
 21
78.87696612303273
 31
0.0
  0
LINE
  5
21A
102
{ACAD_REACTORS
330
35D
102
}
330
1F
100
AcDbEntity
  8
1
  6
Continuous
 62
     3
100
AcDbLine
 10
-60.44922057569789
 20
78.87696612303273
 30
0.0
 11
-60.75282057569791
 21
78.87696612303273
 31
0.0
  0
LINE
  5
21B
330
1F
100
AcDbEntity
  8
1
  6
Continuous
 62
     3
100
AcDbLine
 10
-81.60079756540563
 20
84.55892669400151
 30
0.0
 11
-81.60079756540563
 21
76.758473999969
 31
0.0
  0
LINE
  5
21C
330
1F
100
AcDbEntity
  8
1
  6
Continuous
 62
     3
100
AcDbLine
 10
-83.10079756540568
 20
86.05892669400151
 30
0.0
 11
-83.10079756540568
 21
86.47473289717834
 31
0.0
  0
LINE
  5
21D
330
1F
100
AcDbEntity
  8
1
  6
Continuous
 62
     3
100
AcDbLine
 10
-41.97709539054574
 20
88.65983208199447
 30
0.0
 11
-46.95153747935166
 21
88.65983208199452
 31
0.0
  0
LINE
  5
21E
330
1F
100
AcDbEntity
  8
1
  6
Continuous
 62
     3
100
AcDbLine
 10
-41.97578857551372
 20
72.65983208199447
 30
0.0
 11
-46.95153747935166
 21
72.65983208199447
 31
0.0
  0
LINE
  5
21F
330
1F
100
AcDbEntity
  8
1
  6
Continuous
 62
     3
100
AcDbLine
 10
-75.2500576518184
 20
88.65983208199447
 30
0.0
 11
-79.10299233647675
 21
88.65983208199447
 31
0.0
  0
LINE
  5
220
330
1F
100
AcDbEntity
  8
1
  6
Continuous
 62
     3
100
AcDbLine
 10
-82.46843509215233
 20
87.40470206275734
 30
0.0
 11
-79.4706298632234
 21
88.5898012475734
 31
0.0
  0
LINE
  5
221
330
1F
100
AcDbEntity
  8
1
  6
Continuous
 62
     3
100
AcDbLine
 10
-79.10299233647675
 20
72.65756861197593
 30
0.0
 11
-75.2500576518184
 21
72.65756861197593
 31
0.0
  0
LINE
  5
222
330
1F
100
AcDbEntity
  8
1
  6
Continuous
 62
     3
100
AcDbLine
 10
-79.4706298632234
 20
72.727599446397
 30
0.0
 11
-82.46843509215233
 21
73.91269863121306
 31
0.0
  0
LINE
  5
223
330
1F
100
AcDbEntity
  8
1
  6
Continuous
 62
     3
100
AcDbLine
 10
-83.10079756540568
 20
74.84266779679206
 30
0.0
 11
-83.10079756540568
 21
75.25847399996894
 31
0.0
  0
LINE
  5
224
330
1F
100
AcDbEntity
  8
1
  6
Continuous
 62
     3
100
AcDbLine
 10
-92.35483087317023
 20
78.6587003469852
 30
0.0
 11
-91.10079756558508
 21
78.6587003469852
 31
0.0
  0
LINE
  5
225
330
1F
100
AcDbEntity
  8
1
  6
Continuous
 62
     3
100
AcDbLine
 10
-84.10079756540586
 20
75.6587003469852
 30
0.0
 11
-83.10079756540568
 21
75.25847399996894
 31
0.0
  0
LINE
  5
226
330
1F
100
AcDbEntity
  8
1
  6
Continuous
 62
     3
100
AcDbLine
 10
-84.10079756540586
 20
84.6587003469852
 30
0.0
 11
-84.10079756540586
 21
76.65870034698531
 31
0.0
  0
LINE
  5
227
330
1F
100
AcDbEntity
  8
1
  6
Continuous
 62
     3
100
AcDbLine
 10
-97.10079756558497
 20
72.65870034698526
 30
0.0
 11
-87.10079756558508
 21
72.65870034698526
 31
0.0
  0
LINE
  5
228
330
1F
100
AcDbEntity
  8
1
  6
Continuous
 62
     3
100
AcDbLine
 10
-90.10079756558508
 20
79.6587003469852
 30
0.0
 11
-90.10079756558508
 21
83.6587003469852
 31
0.0
  0
LINE
  5
229
330
1F
100
AcDbEntity
  8
1
  6
Continuous
 62
     3
100
AcDbLine
 10
-88.10079756558503
 20
85.65870034698548
 30
0.0
 11
-84.10079756540586
 21
85.65870034698531
 31
0.0
  0
LINE
  5
22A
330
1F
100
AcDbEntity
  8
1
  6
Continuous
 62
     3
100
AcDbLine
 10
-84.10079756558508
 20
75.6587003469852
 30
0.0
 11
-84.10079756540586
 21
75.6587003469852
 31
0.0
  0
LINE
  5
22B
330
1F
100
AcDbEntity
  8
1
  6
Continuous
 62
     3
100
AcDbLine
 10
-83.10079756540568
 20
86.05892669400151
 30
0.0
 11
-84.10079756540586
 21
85.65870034698531
 31
0.0
  0
LINE
  5
22C
330
1F
100
AcDbEntity
  8
1
  6
Continuous
 62
     3
100
AcDbLine
 10
-94.20079756558502
 20
19.94999999999987
 30
0.0
 11
-94.20079756558502
 21
23.00000000000001
 31
0.0
  0
LINE
  5
22D
330
1F
100
AcDbEntity
  8
1
  6
Continuous
 62
     3
100
AcDbLine
 10
-103.100797565585
 20
19.49999999999987
 30
0.0
 11
-103.100797565585
 21
23.00000000000001
 31
0.0
  0
LINE
  5
22E
330
1F
100
AcDbEntity
  8
1
  6
Continuous
 62
     3
100
AcDbLine
 10
-104.000797565585
 20
19.49999999999987
 30
0.0
 11
-103.100797565585
 21
19.49999999999987
 31
0.0
  0
LINE
  5
22F
330
1F
100
AcDbEntity
  8
1
  6
Continuous
 62
     3
100
AcDbLine
 10
-95.10079756558505
 20
23.00000000000001
 30
0.0
 11
-95.10079756558505
 21
19.94999999999987
 31
0.0
  0
LINE
  5
230
330
1F
100
AcDbEntity
  8
1
  6
Continuous
 62
     3
100
AcDbLine
 10
-104.000797565585
 20
23.00000000000001
 30
0.0
 11
-104.000797565585
 21
19.49999999999987
 31
0.0
  0
LINE
  5
231
330
1F
100
AcDbEntity
  8
1
  6
DOT_CENTER
 62
     4
100
AcDbLine
 10
-103.550797565585
 20
23.44195624646449
 30
0.0
 11
-103.550797565585
 21
19.12853571740247
 31
0.0
  0
LINE
  5
232
330
1F
100
AcDbEntity
  8
1
  6
DOT_CENTER
 62
     4
100
AcDbLine
 10
-94.65079756558504
 20
23.44195624646449
 30
0.0
 11
-94.65079756558504
 21
19.12853571740247
 31
0.0
  0
LINE
  5
233
330
1F
100
AcDbEntity
  8
1
  6
Continuous
 62
     3
100
AcDbLine
 10
-101.8001672894993
 20
22.70563811105625
 30
0.0
 11
-98.56559011794062
 21
19.49999999999996
 31
0.0
  0
LINE
  5
234
330
1F
100
AcDbEntity
  8
1
  6
Continuous
 62
     3
100
AcDbLine
 10
-95.70079756558525
 20
22.40000000000092
 30
0.0
 11
-95.70079756558513
 21
19.5
 31
0.0
  0
LINE
  5
235
330
1F
100
AcDbEntity
  8
1
  6
Continuous
 62
     3
100
AcDbLine
 10
-102.1520268260635
 20
22.40000000000092
 30
0.0
 11
-102.1520268260635
 21
19.49999999999992
 31
0.0
  0
LINE
  5
236
330
1F
100
AcDbEntity
  8
1
  6
Continuous
 62
     3
100
AcDbLine
 10
-96.04956830510656
 20
22.40000000000092
 30
0.0
 11
-96.04956830510656
 21
19.49999999999999
 31
0.0
  0
LINE
  5
237
330
1F
100
AcDbEntity
  8
1
  6
Continuous
 62
     3
100
AcDbLine
 10
-102.1520268260635
 20
22.40000000000092
 30
0.0
 11
-102.5007975655852
 21
22.40000000000092
 31
0.0
  0
LINE
  5
238
330
1F
100
AcDbEntity
  8
1
  6
Continuous
 62
     3
100
AcDbLine
 10
-96.04956830510656
 20
22.40000000000092
 30
0.0
 11
-95.70079756558525
 21
22.40000000000092
 31
0.0
  0
LINE
  5
239
330
1F
100
AcDbEntity
  8
1
  6
Continuous
 62
     3
100
AcDbLine
 10
-101.4612892697775
 20
23.00000000000001
 30
0.0
 11
-102.1520268260635
 21
22.40000000000092
 31
0.0
  0
LINE
  5
23A
330
1F
100
AcDbEntity
  8
1
  6
Continuous
 62
     3
100
AcDbLine
 10
-101.9007975655861
 20
23.00000000000001
 30
0.0
 11
-102.5007975655852
 21
22.40000000000092
 31
0.0
  0
LINE
  5
23B
330
1F
100
AcDbEntity
  8
1
  6
Continuous
 62
     3
100
AcDbLine
 10
-96.7403058613927
 20
23.00000000000001
 30
0.0
 11
-96.04956830510656
 21
22.40000000000092
 31
0.0
  0
LINE
  5
23C
330
1F
100
AcDbEntity
  8
1
  6
Continuous
 62
     3
100
AcDbLine
 10
-96.30079756558433
 20
23.00000000000001
 30
0.0
 11
-95.70079756558525
 21
22.40000000000092
 31
0.0
  0
LINE
  5
23D
330
1F
100
AcDbEntity
  8
1
  6
Continuous
 62
     3
100
AcDbLine
 10
-102.5007975655851
 20
19.49999999999992
 30
0.0
 11
-102.5007975655852
 21
22.40000000000092
 31
0.0
  0
LINE
  5
23E
330
1F
100
AcDbEntity
  8
1
  6
Continuous
 62
     3
100
AcDbLine
 10
-99.63201539618913
 20
19.50000000000001
 30
0.0
 11
-96.40104912482644
 21
22.70530914370158
 31
0.0
  0
LINE
  5
23F
330
1F
100
AcDbEntity
  8
1
  6
Continuous
 62
     3
100
AcDbLine
 10
-81.01361140352404
 20
19.2585911670964
 30
0.0
 11
-80.60079756540563
 21
20.16678161095685
 31
0.0
  0
LINE
  5
240
330
1F
100
AcDbEntity
  8
1
  6
Continuous
 62
     3
100
AcDbLine
 10
-104.600797565585
 20
19.49999999999988
 30
0.0
 11
-104.6007975655851
 21
17.99999999999996
 31
0.0
  0
LINE
  5
241
330
1F
100
AcDbEntity
  8
1
  6
Continuous
 62
     3
100
AcDbLine
 10
-83.74471083591177
 20
19.50000000000005
 30
0.0
 11
-104.600797565585
 21
19.49999999999988
 31
0.0
  0
LINE
  5
242
330
1F
100
AcDbEntity
  8
1
  6
Continuous
 62
     3
100
AcDbLine
 10
-86.10079756558505
 20
19.5
 30
0.0
 11
-86.10079756558511
 21
17.49999999999996
 31
0.0
  0
LINE
  5
243
330
1F
100
AcDbEntity
  8
1
  6
Continuous
 62
     3
100
AcDbLine
 10
-97.10079756558449
 20
19.49999999999998
 30
0.0
 11
-97.10079756558505
 21
17.50000000000002
 31
0.0
  0
LINE
  5
244
330
1F
100
AcDbEntity
  8
1
  6
Continuous
 62
     3
100
AcDbLine
 10
-84.10079756558449
 20
19.49999999999998
 30
0.0
 11
-84.10079756558454
 21
17.49999999999993
 31
0.0
  0
LINE
  5
245
330
1F
100
AcDbEntity
  8
1
  6
Continuous
 62
     3
100
AcDbLine
 10
-101.1007975655851
 20
17.50000000000002
 30
0.0
 11
-104.1007975655851
 21
17.49999999999993
 31
0.0
  0
LINE
  5
246
330
1F
100
AcDbEntity
  8
1
  6
Continuous
 62
     3
100
AcDbLine
 10
-83.74471083591183
 20
17.5
 30
0.0
 11
-97.10079756558505
 21
17.50000000000002
 31
0.0
  0
LINE
  5
247
330
1F
100
AcDbEntity
  8
1
  6
Continuous
 62
     3
100
AcDbLine
 10
-80.60079756540563
 20
25.00000000039449
 30
0.0
 11
-80.60079756540563
 21
27.20000000039438
 31
0.0
  0
LINE
  5
248
330
1F
100
AcDbEntity
  8
1
  6
Continuous
 62
     3
100
AcDbLine
 10
-80.60079756540563
 20
25.00000000039449
 30
0.0
 11
-82.83434435844921
 21
20.08619705569884
 31
0.0
  0
LINE
  5
249
330
1F
100
AcDbEntity
  8
1
  6
Continuous
 62
     3
100
AcDbLine
 10
-80.51116404286823
 20
27.61380294469558
 30
0.0
 11
-79.54407045731972
 21
29.7414088329022
 31
0.0
  0
LINE
  5
24A
330
1F
100
AcDbEntity
  8
1
  6
Continuous
 62
     3
100
AcDbLine
 10
-76.81297102493193
 20
31.4999999999986
 30
0.0
 11
-39.10079756558515
 21
31.4999999999986
 31
0.0
  0
LINE
  5
24B
330
1F
100
AcDbEntity
  8
1
  6
Continuous
 62
     3
100
AcDbLine
 10
-38.1007975655848
 20
30.4999999999986
 30
0.0
 11
-38.1007975655848
 21
28.49999999999862
 31
0.0
  0
LINE
  5
24C
330
1F
100
AcDbEntity
  8
1
  6
Continuous
 62
     3
100
AcDbLine
 10
-39.10079756558523
 20
27.4999999999986
 30
0.0
 11
-75.52514448427806
 21
27.4999999999993
 31
0.0
  0
LINE
  5
24D
330
1F
100
AcDbEntity
  8
1
  6
Continuous
 62
     3
100
AcDbLine
 10
-76.43551096174068
 20
26.9138029443005
 30
0.0
 11
-79.64561432667433
 21
19.8515755414468
 31
0.0
  0
LINE
  5
24E
330
1F
100
AcDbEntity
  8
1
  6
Continuous
 62
     3
100
AcDbLine
 10
-80.60079756540563
 20
20.0584770135974
 30
0.0
 11
-80.60079756540563
 21
20.16678161095685
 31
0.0
  0
LINE
  5
24F
330
1F
100
AcDbEntity
  8
1
  6
Continuous
 62
     3
100
AcDbLine
 10
-80.60079756540563
 20
25.00000000039449
 30
0.0
 11
-80.60079756540563
 21
20.16678161095685
 31
0.0
  0
LINE
  5
250
330
1F
100
AcDbEntity
  8
1
  6
DOT_CENTER
 62
     4
100
AcDbLine
 10
-154.925351739797
 20
0.00000000000001
 30
0.0
 11
-186.925351739797
 21
0.00000000000001
 31
0.0
  0
LINE
  5
251
330
1F
100
AcDbEntity
  8
1
  6
Continuous
 62
     3
100
AcDbLine
 10
-162.9253517397971
 20
23.50000000000001
 30
0.0
 11
-162.9253517397971
 21
29.00000000000001
 31
0.0
  0
LINE
  5
252
330
1F
100
AcDbEntity
  8
1
  6
Continuous
 62
     3
100
AcDbLine
 10
-168.6253517397969
 20
23.00000000000003
 30
0.0
 11
-163.4253517397971
 21
23.00000000000001
 31
0.0
  0
LINE
  5
253
330
1F
100
AcDbEntity
  8
1
  6
Continuous
 62
     3
100
AcDbLine
 10
-163.4253517397971
 20
17.50000000000001
 30
0.0
 11
-169.1253517397969
 21
17.49999999999999
 31
0.0
  0
LINE
  5
254
330
1F
100
AcDbEntity
  8
1
  6
DOT_CENTER
 62
     4
100
AcDbLine
 10
-170.925351739797
 20
32.17663767448591
 30
0.0
 11
-170.925351739797
 21
-14.86459924701159
 31
0.0
  0
LINE
  5
255
330
1F
100
AcDbEntity
  8
1
  6
Continuous
 62
     3
100
AcDbLine
 10
-185.394990133661
 20
-0.93785113467825
 30
0.0
 11
-178.9723738443284
 21
-12.06214886532171
 31
0.0
  0
LINE
  5
256
330
1F
100
AcDbEntity
  8
1
  6
Continuous
 62
     3
100
AcDbLine
 10
-177.3479680291295
 20
-13.00000000000001
 30
0.0
 11
-164.5027354504645
 21
-13.00000000000002
 31
0.0
  0
LINE
  5
257
330
1F
100
AcDbEntity
  8
1
  6
Continuous
 62
     3
100
AcDbLine
 10
-162.8783296352655
 20
-12.06214886532173
 30
0.0
 11
-156.455713345933
 21
-0.93785113467827
 31
0.0
  0
LINE
  5
258
330
1F
100
AcDbEntity
  8
1
  6
Continuous
 62
     3
100
AcDbLine
 10
-162.9253517397971
 20
12.41154273188031
 30
0.0
 11
-162.9253517397971
 21
17.00000000000001
 31
0.0
  0
LINE
  5
259
330
1F
100
AcDbEntity
  8
1
  6
Continuous
 62
     3
100
AcDbLine
 10
-178.9253517397971
 20
29.00000000000001
 30
0.0
 11
-178.9253517397971
 21
12.41154273187992
 31
0.0
  0
LINE
  5
25A
330
1F
100
AcDbEntity
  8
1
  6
Continuous
 62
     3
100
AcDbLine
 10
-156.455713345933
 20
0.93785113467825
 30
0.0
 11
-162.8783296352655
 21
12.06214886532176
 31
0.0
  0
LINE
  5
25B
330
1F
100
AcDbEntity
  8
1
  6
Continuous
 62
     3
100
AcDbLine
 10
-164.5027354504644
 20
13.00000000000001
 30
0.0
 11
-177.3479680291295
 21
13.00000000000003
 31
0.0
  0
LINE
  5
25C
330
1F
100
AcDbEntity
  8
1
  6
Continuous
 62
     3
100
AcDbLine
 10
-178.9723738443284
 20
12.06214886532176
 30
0.0
 11
-185.394990133661
 21
0.93785113467825
 31
0.0
  0
LINE
  5
25D
330
1F
100
AcDbEntity
  8
1
  6
Continuous
 62
     3
100
AcDbLine
 10
-169.1253517397969
 20
18.86602540378448
 30
0.0
 11
-169.1253517397969
 21
22.50000000000003
 31
0.0
  0
LINE
  5
25E
330
1F
100
AcDbEntity
  8
1
  6
Continuous
 62
     3
100
AcDbLine
 10
-166.025351739797
 20
19.9499999999999
 30
0.0
 11
-166.025351739797
 21
23.00000000000005
 31
0.0
  0
LINE
  5
25F
330
1F
100
AcDbEntity
  8
1
  6
Continuous
 62
     3
100
AcDbLine
 10
-166.925351739797
 20
23.00000000000005
 30
0.0
 11
-166.925351739797
 21
19.9499999999999
 31
0.0
  0
LINE
  5
260
330
1F
100
AcDbEntity
  8
1
  6
DOT_CENTER
 62
     4
100
AcDbLine
 10
-166.475351739797
 20
23.44195624646453
 30
0.0
 11
-166.475351739797
 21
19.1285357174025
 31
0.0
  0
LINE
  5
261
330
1F
100
AcDbEntity
  8
1
  6
Continuous
 62
     3
100
AcDbLine
 10
-165.925351739797
 20
19.49999999999996
 30
0.0
 11
-169.125351739797
 21
19.49999999999996
 31
0.0
  0
LINE
  5
262
330
1F
100
AcDbEntity
  8
1
  6
Continuous
 62
     3
100
AcDbLine
 10
-165.925351739797
 20
19.49999999999996
 30
0.0
 11
-165.0498566057304
 21
23.00000000000003
 31
0.0
  0
LINE
  5
263
330
1F
100
AcDbEntity
  8
1
  6
Continuous
 62
     3
100
AcDbLine
 10
-178.9259687851691
 20
30.49948557506253
 30
0.0
 11
-178.9253517397971
 21
29.00000000000001
 31
0.0
  0
LINE
  5
264
330
1F
100
AcDbEntity
  8
1
  6
Continuous
 62
     3
100
AcDbLine
 10
-162.9253517397971
 20
30.49999999999858
 30
0.0
 11
-162.9253517397971
 21
29.00000000000001
 31
0.0
  0
LINE
  5
265
330
1F
100
AcDbEntity
  8
1
  6
Continuous
 62
     3
100
AcDbLine
 10
-177.9259689174856
 20
31.49999999999861
 30
0.0
 11
-163.9253517397971
 21
31.49999999999861
 31
0.0
  0
LINE
  5
266
330
1F
100
AcDbEntity
  8
1
  6
Continuous
 62
     3
100
AcDbLine
 10
-162.9253517397971
 20
17.99999999999996
 30
0.0
 11
-162.9253517397971
 21
18.99999999999994
 31
0.0
  0
LINE
  5
267
330
1F
100
AcDbEntity
  8
1
  6
Continuous
 62
     3
100
AcDbLine
 10
-163.4253517397971
 20
19.49999999999996
 30
0.0
 11
-165.925351739797
 21
19.49999999999996
 31
0.0
  0
LINE
  5
268
330
1F
100
AcDbEntity
  8
1
  6
Continuous
 62
     3
100
AcDbLine
 10
-165.175351739797
 20
18.99999999999998
 30
0.0
 11
-165.175351739797
 21
17.49999999999999
 31
0.0
  0
LINE
  5
269
330
1F
100
AcDbEntity
  8
1
  6
Continuous
 62
     3
100
AcDbLine
 10
-165.175351739797
 20
18.99999999999998
 30
0.0
 11
-163.9253517397971
 21
18.99999999999999
 31
0.0
  0
LINE
  5
26A
330
1F
100
AcDbEntity
  8
1
  6
Continuous
 62
     3
100
AcDbLine
 10
-89.08079756558509
 20
-22.54048149838888
 30
0.0
 11
-89.08079756558509
 21
-18.84048149838888
 31
0.0
  0
LINE
  5
26B
330
1F
100
AcDbEntity
  8
1
  6
Continuous
 62
     3
100
AcDbLine
 10
-89.08079756558509
 20
-18.84048149838888
 30
0.0
 11
-87.88079756558508
 21
-18.84048149838888
 31
0.0
  0
LINE
  5
26C
330
1F
100
AcDbEntity
  8
1
  6
Continuous
 62
     3
100
AcDbLine
 10
-87.88079756558508
 20
-18.84048149838888
 30
0.0
 11
-87.48079756558509
 21
-19.04048149838888
 31
0.0
  0
LINE
  5
26D
330
1F
100
AcDbEntity
  8
1
  6
Continuous
 62
     3
100
AcDbLine
 10
-87.48079756558509
 20
-19.04048149838888
 30
0.0
 11
-87.32079756558508
 21
-19.74048149838888
 31
0.0
  0
LINE
  5
26E
330
1F
100
AcDbEntity
  8
1
  6
Continuous
 62
     3
100
AcDbLine
 10
-87.32079756558508
 20
-19.74048149838888
 30
0.0
 11
-87.48079756558509
 21
-20.24048149838888
 31
0.0
  0
LINE
  5
26F
330
1F
100
AcDbEntity
  8
1
  6
Continuous
 62
     3
100
AcDbLine
 10
-87.48079756558509
 20
-20.24048149838888
 30
0.0
 11
-87.88079756558508
 21
-20.64048149838888
 31
0.0
  0
LINE
  5
270
330
1F
100
AcDbEntity
  8
1
  6
Continuous
 62
     3
100
AcDbLine
 10
-87.88079756558508
 20
-20.64048149838888
 30
0.0
 11
-89.08079756558509
 21
-20.64048149838888
 31
0.0
  0
LINE
  5
271
330
1F
100
AcDbEntity
  8
1
  6
Continuous
 62
     3
100
AcDbLine
 10
-89.08079756558509
 20
-20.64048149838888
 30
0.0
 11
-87.88079756558508
 21
-20.64048149838888
 31
0.0
  0
LINE
  5
272
330
1F
100
AcDbEntity
  8
1
  6
Continuous
 62
     3
100
AcDbLine
 10
-87.88079756558508
 20
-20.64048149838888
 30
0.0
 11
-87.32079756558508
 21
-20.94048149838888
 31
0.0
  0
LINE
  5
273
330
1F
100
AcDbEntity
  8
1
  6
Continuous
 62
     3
100
AcDbLine
 10
-87.32079756558508
 20
-20.94048149838888
 30
0.0
 11
-87.16079756558509
 21
-21.64048149838888
 31
0.0
  0
LINE
  5
274
330
1F
100
AcDbEntity
  8
1
  6
Continuous
 62
     3
100
AcDbLine
 10
-87.16079756558509
 20
-21.64048149838888
 30
0.0
 11
-87.32079756558508
 21
-22.24048149838888
 31
0.0
  0
LINE
  5
275
330
1F
100
AcDbEntity
  8
1
  6
Continuous
 62
     3
100
AcDbLine
 10
-87.32079756558508
 20
-22.24048149838888
 30
0.0
 11
-87.88079756558508
 21
-22.54048149838888
 31
0.0
  0
LINE
  5
276
330
1F
100
AcDbEntity
  8
1
  6
Continuous
 62
     3
100
AcDbLine
 10
-87.88079756558508
 20
-22.54048149838888
 30
0.0
 11
-89.08079756558509
 21
-22.54048149838888
 31
0.0
  0
LINE
  5
277
330
1F
100
AcDbEntity
  8
1
  6
Continuous
 62
     3
100
AcDbLine
 10
-85.32079756558508
 20
-22.54048149838888
 30
0.0
 11
-85.32079756558508
 21
-18.84048149838888
 31
0.0
  0
LINE
  5
278
330
1F
100
AcDbEntity
  8
1
  6
Continuous
 62
     3
100
AcDbLine
 10
-85.32079756558508
 20
-18.84048149838888
 30
0.0
 11
-84.12079756558508
 21
-18.84048149838888
 31
0.0
  0
LINE
  5
279
330
1F
100
AcDbEntity
  8
1
  6
Continuous
 62
     3
100
AcDbLine
 10
-84.12079756558508
 20
-18.84048149838888
 30
0.0
 11
-83.72079756558509
 21
-19.04048149838888
 31
0.0
  0
LINE
  5
27A
330
1F
100
AcDbEntity
  8
1
  6
Continuous
 62
     3
100
AcDbLine
 10
-83.72079756558509
 20
-19.04048149838888
 30
0.0
 11
-83.56079756558508
 21
-19.74048149838888
 31
0.0
  0
LINE
  5
27B
330
1F
100
AcDbEntity
  8
1
  6
Continuous
 62
     3
100
AcDbLine
 10
-83.56079756558508
 20
-19.74048149838888
 30
0.0
 11
-83.72079756558509
 21
-20.24048149838888
 31
0.0
  0
LINE
  5
27C
330
1F
100
AcDbEntity
  8
1
  6
Continuous
 62
     3
100
AcDbLine
 10
-83.72079756558509
 20
-20.24048149838888
 30
0.0
 11
-84.12079756558508
 21
-20.64048149838888
 31
0.0
  0
LINE
  5
27D
330
1F
100
AcDbEntity
  8
1
  6
Continuous
 62
     3
100
AcDbLine
 10
-84.12079756558508
 20
-20.64048149838888
 30
0.0
 11
-85.32079756558508
 21
-20.64048149838888
 31
0.0
  0
LINE
  5
27E
330
1F
100
AcDbEntity
  8
1
  6
Continuous
 62
     3
100
AcDbLine
 10
-85.32079756558508
 20
-20.64048149838888
 30
0.0
 11
-84.12079756558508
 21
-20.64048149838888
 31
0.0
  0
LINE
  5
27F
330
1F
100
AcDbEntity
  8
1
  6
Continuous
 62
     3
100
AcDbLine
 10
-84.12079756558508
 20
-20.64048149838888
 30
0.0
 11
-83.56079756558508
 21
-20.94048149838888
 31
0.0
  0
LINE
  5
280
330
1F
100
AcDbEntity
  8
1
  6
Continuous
 62
     3
100
AcDbLine
 10
-83.56079756558508
 20
-20.94048149838888
 30
0.0
 11
-83.40079756558508
 21
-21.64048149838888
 31
0.0
  0
LINE
  5
281
330
1F
100
AcDbEntity
  8
1
  6
Continuous
 62
     3
100
AcDbLine
 10
-83.40079756558508
 20
-21.64048149838888
 30
0.0
 11
-83.56079756558508
 21
-22.24048149838888
 31
0.0
  0
LINE
  5
282
330
1F
100
AcDbEntity
  8
1
  6
Continuous
 62
     3
100
AcDbLine
 10
-83.56079756558508
 20
-22.24048149838888
 30
0.0
 11
-84.12079756558508
 21
-22.54048149838888
 31
0.0
  0
LINE
  5
283
330
1F
100
AcDbEntity
  8
1
  6
Continuous
 62
     3
100
AcDbLine
 10
-84.12079756558508
 20
-22.54048149838888
 30
0.0
 11
-85.32079756558508
 21
-22.54048149838888
 31
0.0
  0
LINE
  5
284
330
1F
100
AcDbEntity
  8
1
  6
Continuous
 62
     3
100
AcDbLine
 10
-79.80079756558509
 20
-19.34048149838888
 30
0.0
 11
-80.0407975655851
 21
-18.94048149838888
 31
0.0
  0
LINE
  5
285
330
1F
100
AcDbEntity
  8
1
  6
Continuous
 62
     3
100
AcDbLine
 10
-80.0407975655851
 20
-18.94048149838888
 30
0.0
 11
-80.36079756558509
 21
-18.64048149838888
 31
0.0
  0
LINE
  5
286
330
1F
100
AcDbEntity
  8
1
  6
Continuous
 62
     3
100
AcDbLine
 10
-80.36079756558509
 20
-18.64048149838888
 30
0.0
 11
-80.7607975655851
 21
-18.64048149838888
 31
0.0
  0
LINE
  5
287
330
1F
100
AcDbEntity
  8
1
  6
Continuous
 62
     3
100
AcDbLine
 10
-80.7607975655851
 20
-18.64048149838888
 30
0.0
 11
-81.08079756558509
 21
-18.64048149838888
 31
0.0
  0
LINE
  5
288
330
1F
100
AcDbEntity
  8
1
  6
Continuous
 62
     3
100
AcDbLine
 10
-81.08079756558509
 20
-18.64048149838888
 30
0.0
 11
-81.24079756558508
 21
-18.84048149838888
 31
0.0
  0
LINE
  5
289
330
1F
100
AcDbEntity
  8
1
  6
Continuous
 62
     3
100
AcDbLine
 10
-81.24079756558508
 20
-18.84048149838888
 30
0.0
 11
-81.56079756558509
 21
-19.04048149838888
 31
0.0
  0
LINE
  5
28A
330
1F
100
AcDbEntity
  8
1
  6
Continuous
 62
     3
100
AcDbLine
 10
-81.56079756558509
 20
-19.04048149838888
 30
0.0
 11
-81.64079756558509
 21
-19.44048149838888
 31
0.0
  0
LINE
  5
28B
330
1F
100
AcDbEntity
  8
1
  6
Continuous
 62
     3
100
AcDbLine
 10
-81.64079756558509
 20
-19.44048149838888
 30
0.0
 11
-81.56079756558509
 21
-20.04048149838888
 31
0.0
  0
LINE
  5
28C
330
1F
100
AcDbEntity
  8
1
  6
Continuous
 62
     3
100
AcDbLine
 10
-81.56079756558509
 20
-20.04048149838888
 30
0.0
 11
-81.3207975655851
 21
-20.24048149838888
 31
0.0
  0
LINE
  5
28D
330
1F
100
AcDbEntity
  8
1
  6
Continuous
 62
     3
100
AcDbLine
 10
-81.3207975655851
 20
-20.24048149838888
 30
0.0
 11
-81.16079756558509
 21
-20.44048149838888
 31
0.0
  0
LINE
  5
28E
330
1F
100
AcDbEntity
  8
1
  6
Continuous
 62
     3
100
AcDbLine
 10
-81.16079756558509
 20
-20.44048149838888
 30
0.0
 11
-80.7607975655851
 21
-20.54048149838888
 31
0.0
  0
LINE
  5
28F
330
1F
100
AcDbEntity
  8
1
  6
Continuous
 62
     3
100
AcDbLine
 10
-80.7607975655851
 20
-20.54048149838888
 30
0.0
 11
-80.36079756558509
 21
-20.54048149838888
 31
0.0
  0
LINE
  5
290
330
1F
100
AcDbEntity
  8
1
  6
Continuous
 62
     3
100
AcDbLine
 10
-80.36079756558509
 20
-20.54048149838888
 30
0.0
 11
-80.1207975655851
 21
-20.64048149838888
 31
0.0
  0
LINE
  5
291
330
1F
100
AcDbEntity
  8
1
  6
Continuous
 62
     3
100
AcDbLine
 10
-80.1207975655851
 20
-20.64048149838888
 30
0.0
 11
-79.80079756558509
 21
-21.04048149838888
 31
0.0
  0
LINE
  5
292
330
1F
100
AcDbEntity
  8
1
  6
Continuous
 62
     3
100
AcDbLine
 10
-79.80079756558509
 20
-21.04048149838888
 30
0.0
 11
-79.72079756558509
 21
-21.64048149838888
 31
0.0
  0
LINE
  5
293
330
1F
100
AcDbEntity
  8
1
  6
Continuous
 62
     3
100
AcDbLine
 10
-79.72079756558509
 20
-21.64048149838888
 30
0.0
 11
-79.80079756558509
 21
-22.14048149838888
 31
0.0
  0
LINE
  5
294
330
1F
100
AcDbEntity
  8
1
  6
Continuous
 62
     3
100
AcDbLine
 10
-79.80079756558509
 20
-22.14048149838888
 30
0.0
 11
-80.1207975655851
 21
-22.44048149838888
 31
0.0
  0
LINE
  5
295
330
1F
100
AcDbEntity
  8
1
  6
Continuous
 62
     3
100
AcDbLine
 10
-80.1207975655851
 20
-22.44048149838888
 30
0.0
 11
-80.36079756558509
 21
-22.54048149838888
 31
0.0
  0
LINE
  5
296
330
1F
100
AcDbEntity
  8
1
  6
Continuous
 62
     3
100
AcDbLine
 10
-80.36079756558509
 20
-22.54048149838888
 30
0.0
 11
-80.7607975655851
 21
-22.54048149838888
 31
0.0
  0
LINE
  5
297
330
1F
100
AcDbEntity
  8
1
  6
Continuous
 62
     3
100
AcDbLine
 10
-80.7607975655851
 20
-22.54048149838888
 30
0.0
 11
-81.16079756558509
 21
-22.44048149838888
 31
0.0
  0
LINE
  5
298
330
1F
100
AcDbEntity
  8
1
  6
Continuous
 62
     3
100
AcDbLine
 10
-81.16079756558509
 20
-22.44048149838888
 30
0.0
 11
-81.4007975655851
 21
-22.14048149838888
 31
0.0
  0
LINE
  5
299
330
1F
100
AcDbEntity
  8
1
  6
Continuous
 62
     3
100
AcDbLine
 10
-81.4007975655851
 20
-22.14048149838888
 30
0.0
 11
-81.64079756558509
 21
-21.64048149838888
 31
0.0
  0
LINE
  5
29A
330
1F
100
AcDbEntity
  8
1
  6
Continuous
 62
     3
100
AcDbLine
 10
-77.88079756558508
 20
-20.54048149838888
 30
0.0
 11
-76.20079756558509
 21
-20.54048149838888
 31
0.0
  0
LINE
  5
29B
330
1F
100
AcDbEntity
  8
1
  6
Continuous
 62
     3
100
AcDbLine
 10
-74.04079756558508
 20
-22.54048149838888
 30
0.0
 11
-74.04079756558508
 21
-18.84048149838888
 31
0.0
  0
LINE
  5
29C
330
1F
100
AcDbEntity
  8
1
  6
Continuous
 62
     3
100
AcDbLine
 10
-74.04079756558508
 20
-18.84048149838888
 30
0.0
 11
-72.84079756558508
 21
-18.84048149838888
 31
0.0
  0
LINE
  5
29D
330
1F
100
AcDbEntity
  8
1
  6
Continuous
 62
     3
100
AcDbLine
 10
-72.84079756558508
 20
-18.84048149838888
 30
0.0
 11
-72.44079756558509
 21
-19.04048149838888
 31
0.0
  0
LINE
  5
29E
330
1F
100
AcDbEntity
  8
1
  6
Continuous
 62
     3
100
AcDbLine
 10
-72.44079756558509
 20
-19.04048149838888
 30
0.0
 11
-72.28079756558508
 21
-19.74048149838888
 31
0.0
  0
LINE
  5
29F
330
1F
100
AcDbEntity
  8
1
  6
Continuous
 62
     3
100
AcDbLine
 10
-72.28079756558508
 20
-19.74048149838888
 30
0.0
 11
-72.44079756558509
 21
-20.24048149838888
 31
0.0
  0
LINE
  5
2A0
330
1F
100
AcDbEntity
  8
1
  6
Continuous
 62
     3
100
AcDbLine
 10
-72.44079756558509
 20
-20.24048149838888
 30
0.0
 11
-72.84079756558508
 21
-20.64048149838888
 31
0.0
  0
LINE
  5
2A1
330
1F
100
AcDbEntity
  8
1
  6
Continuous
 62
     3
100
AcDbLine
 10
-72.84079756558508
 20
-20.64048149838888
 30
0.0
 11
-74.04079756558508
 21
-20.64048149838888
 31
0.0
  0
LINE
  5
2A2
330
1F
100
AcDbEntity
  8
1
  6
Continuous
 62
     3
100
AcDbLine
 10
-74.04079756558508
 20
-20.64048149838888
 30
0.0
 11
-72.84079756558508
 21
-20.64048149838888
 31
0.0
  0
LINE
  5
2A3
330
1F
100
AcDbEntity
  8
1
  6
Continuous
 62
     3
100
AcDbLine
 10
-72.84079756558508
 20
-20.64048149838888
 30
0.0
 11
-72.28079756558508
 21
-20.94048149838888
 31
0.0
  0
LINE
  5
2A4
330
1F
100
AcDbEntity
  8
1
  6
Continuous
 62
     3
100
AcDbLine
 10
-72.28079756558508
 20
-20.94048149838888
 30
0.0
 11
-72.12079756558508
 21
-21.64048149838888
 31
0.0
  0
LINE
  5
2A5
330
1F
100
AcDbEntity
  8
1
  6
Continuous
 62
     3
100
AcDbLine
 10
-72.12079756558508
 20
-21.64048149838888
 30
0.0
 11
-72.28079756558508
 21
-22.24048149838888
 31
0.0
  0
LINE
  5
2A6
330
1F
100
AcDbEntity
  8
1
  6
Continuous
 62
     3
100
AcDbLine
 10
-72.28079756558508
 20
-22.24048149838888
 30
0.0
 11
-72.84079756558508
 21
-22.54048149838888
 31
0.0
  0
LINE
  5
2A7
330
1F
100
AcDbEntity
  8
1
  6
Continuous
 62
     3
100
AcDbLine
 10
-72.84079756558508
 20
-22.54048149838888
 30
0.0
 11
-74.04079756558508
 21
-22.54048149838888
 31
0.0
  0
LINE
  5
2A8
330
1F
100
AcDbEntity
  8
1
  6
Continuous
 62
     3
100
AcDbLine
 10
-68.6807975655851
 20
-18.54048149838888
 30
0.0
 11
-70.28079756558509
 21
-18.54048149838888
 31
0.0
  0
LINE
  5
2A9
330
1F
100
AcDbEntity
  8
1
  6
Continuous
 62
     3
100
AcDbLine
 10
-70.28079756558509
 20
-18.54048149838888
 30
0.0
 11
-70.36079756558509
 21
-20.54048149838888
 31
0.0
  0
LINE
  5
2AA
330
1F
100
AcDbEntity
  8
1
  6
Continuous
 62
     3
100
AcDbLine
 10
-70.36079756558509
 20
-20.54048149838888
 30
0.0
 11
-69.88079756558508
 21
-20.14048149838888
 31
0.0
  0
LINE
  5
2AB
330
1F
100
AcDbEntity
  8
1
  6
Continuous
 62
     3
100
AcDbLine
 10
-69.88079756558508
 20
-20.14048149838888
 30
0.0
 11
-69.48079756558509
 21
-20.04048149838888
 31
0.0
  0
LINE
  5
2AC
330
1F
100
AcDbEntity
  8
1
  6
Continuous
 62
     3
100
AcDbLine
 10
-69.48079756558509
 20
-20.04048149838888
 30
0.0
 11
-69.08079756558509
 21
-20.14048149838888
 31
0.0
  0
LINE
  5
2AD
330
1F
100
AcDbEntity
  8
1
  6
Continuous
 62
     3
100
AcDbLine
 10
-69.08079756558509
 20
-20.14048149838888
 30
0.0
 11
-68.84079756558509
 21
-20.44048149838888
 31
0.0
  0
LINE
  5
2AE
330
1F
100
AcDbEntity
  8
1
  6
Continuous
 62
     3
100
AcDbLine
 10
-68.84079756558509
 20
-20.44048149838888
 30
0.0
 11
-68.6807975655851
 21
-20.64048149838888
 31
0.0
  0
LINE
  5
2AF
330
1F
100
AcDbEntity
  8
1
  6
Continuous
 62
     3
100
AcDbLine
 10
-68.6807975655851
 20
-20.64048149838888
 30
0.0
 11
-68.52079756558508
 21
-21.34048149838888
 31
0.0
  0
LINE
  5
2B0
330
1F
100
AcDbEntity
  8
1
  6
Continuous
 62
     3
100
AcDbLine
 10
-68.52079756558508
 20
-21.34048149838888
 30
0.0
 11
-68.6807975655851
 21
-22.04048149838888
 31
0.0
  0
LINE
  5
2B1
330
1F
100
AcDbEntity
  8
1
  6
Continuous
 62
     3
100
AcDbLine
 10
-68.6807975655851
 20
-22.04048149838888
 30
0.0
 11
-68.84079756558509
 21
-22.24048149838888
 31
0.0
  0
LINE
  5
2B2
330
1F
100
AcDbEntity
  8
1
  6
Continuous
 62
     3
100
AcDbLine
 10
-68.84079756558509
 20
-22.24048149838888
 30
0.0
 11
-69.08079756558509
 21
-22.54048149838888
 31
0.0
  0
LINE
  5
2B3
330
1F
100
AcDbEntity
  8
1
  6
Continuous
 62
     3
100
AcDbLine
 10
-69.08079756558509
 20
-22.54048149838888
 30
0.0
 11
-69.4007975655851
 21
-22.54048149838888
 31
0.0
  0
LINE
  5
2B4
330
1F
100
AcDbEntity
  8
1
  6
Continuous
 62
     3
100
AcDbLine
 10
-69.4007975655851
 20
-22.54048149838888
 30
0.0
 11
-69.80079756558509
 21
-22.54048149838888
 31
0.0
  0
LINE
  5
2B5
330
1F
100
AcDbEntity
  8
1
  6
Continuous
 62
     3
100
AcDbLine
 10
-69.80079756558509
 20
-22.54048149838888
 30
0.0
 11
-70.1207975655851
 21
-22.24048149838888
 31
0.0
  0
LINE
  5
2B6
330
1F
100
AcDbEntity
  8
1
  6
Continuous
 62
     3
100
AcDbLine
 10
-70.1207975655851
 20
-22.24048149838888
 30
0.0
 11
-70.44079756558509
 21
-22.04048149838888
 31
0.0
  0
LINE
  5
2B7
330
1F
100
AcDbEntity
  8
1
  6
Continuous
 62
     3
100
AcDbLine
 10
-66.04079756558508
 20
-18.94048149838888
 30
0.0
 11
-65.56079756558508
 21
-18.54048149838888
 31
0.0
  0
LINE
  5
2B8
330
1F
100
AcDbEntity
  8
1
  6
Continuous
 62
     3
100
AcDbLine
 10
-65.56079756558508
 20
-18.54048149838888
 30
0.0
 11
-65.56079756558508
 21
-22.54048149838888
 31
0.0
  0
LINE
  5
2B9
330
1F
100
AcDbEntity
  8
1
  6
Continuous
 62
     3
100
AcDbLine
 10
-62.84079756558508
 20
-20.54048149838888
 30
0.0
 11
-61.16079756558508
 21
-20.54048149838888
 31
0.0
  0
LINE
  5
2BA
330
1F
100
AcDbEntity
  8
1
  6
Continuous
 62
     3
100
AcDbLine
 10
-58.52079756558508
 20
-18.94048149838888
 30
0.0
 11
-58.04079756558508
 21
-18.54048149838888
 31
0.0
  0
LINE
  5
2BB
330
1F
100
AcDbEntity
  8
1
  6
Continuous
 62
     3
100
AcDbLine
 10
-58.04079756558508
 20
-18.54048149838888
 30
0.0
 11
-58.04079756558508
 21
-22.54048149838888
 31
0.0
  0
LINE
  5
2BC
330
1F
100
AcDbEntity
  8
1
  6
Continuous
 62
     3
100
AcDbLine
 10
-53.64079756558508
 20
-18.54048149838888
 30
0.0
 11
-55.24079756558508
 21
-18.54048149838888
 31
0.0
  0
LINE
  5
2BD
330
1F
100
AcDbEntity
  8
1
  6
Continuous
 62
     3
100
AcDbLine
 10
-55.24079756558508
 20
-18.54048149838888
 30
0.0
 11
-55.32079756558508
 21
-20.54048149838888
 31
0.0
  0
LINE
  5
2BE
330
1F
100
AcDbEntity
  8
1
  6
Continuous
 62
     3
100
AcDbLine
 10
-55.32079756558508
 20
-20.54048149838888
 30
0.0
 11
-54.84079756558509
 21
-20.14048149838888
 31
0.0
  0
LINE
  5
2BF
330
1F
100
AcDbEntity
  8
1
  6
Continuous
 62
     3
100
AcDbLine
 10
-54.84079756558509
 20
-20.14048149838888
 30
0.0
 11
-54.44079756558508
 21
-20.04048149838888
 31
0.0
  0
LINE
  5
2C0
330
1F
100
AcDbEntity
  8
1
  6
Continuous
 62
     3
100
AcDbLine
 10
-54.44079756558508
 20
-20.04048149838888
 30
0.0
 11
-54.04079756558508
 21
-20.14048149838888
 31
0.0
  0
LINE
  5
2C1
330
1F
100
AcDbEntity
  8
1
  6
Continuous
 62
     3
100
AcDbLine
 10
-54.04079756558508
 20
-20.14048149838888
 30
0.0
 11
-53.80079756558509
 21
-20.44048149838888
 31
0.0
  0
LINE
  5
2C2
330
1F
100
AcDbEntity
  8
1
  6
Continuous
 62
     3
100
AcDbLine
 10
-53.80079756558509
 20
-20.44048149838888
 30
0.0
 11
-53.64079756558508
 21
-20.64048149838888
 31
0.0
  0
LINE
  5
2C3
330
1F
100
AcDbEntity
  8
1
  6
Continuous
 62
     3
100
AcDbLine
 10
-53.64079756558508
 20
-20.64048149838888
 30
0.0
 11
-53.48079756558508
 21
-21.34048149838888
 31
0.0
  0
LINE
  5
2C4
330
1F
100
AcDbEntity
  8
1
  6
Continuous
 62
     3
100
AcDbLine
 10
-53.48079756558508
 20
-21.34048149838888
 30
0.0
 11
-53.64079756558508
 21
-22.04048149838888
 31
0.0
  0
LINE
  5
2C5
330
1F
100
AcDbEntity
  8
1
  6
Continuous
 62
     3
100
AcDbLine
 10
-53.64079756558508
 20
-22.04048149838888
 30
0.0
 11
-53.80079756558509
 21
-22.24048149838888
 31
0.0
  0
LINE
  5
2C6
330
1F
100
AcDbEntity
  8
1
  6
Continuous
 62
     3
100
AcDbLine
 10
-53.80079756558509
 20
-22.24048149838888
 30
0.0
 11
-54.04079756558508
 21
-22.54048149838888
 31
0.0
  0
LINE
  5
2C7
330
1F
100
AcDbEntity
  8
1
  6
Continuous
 62
     3
100
AcDbLine
 10
-54.04079756558508
 20
-22.54048149838888
 30
0.0
 11
-54.36079756558508
 21
-22.54048149838888
 31
0.0
  0
LINE
  5
2C8
330
1F
100
AcDbEntity
  8
1
  6
Continuous
 62
     3
100
AcDbLine
 10
-54.36079756558508
 20
-22.54048149838888
 30
0.0
 11
-54.76079756558508
 21
-22.54048149838888
 31
0.0
  0
LINE
  5
2C9
330
1F
100
AcDbEntity
  8
1
  6
Continuous
 62
     3
100
AcDbLine
 10
-54.76079756558508
 20
-22.54048149838888
 30
0.0
 11
-55.08079756558508
 21
-22.24048149838888
 31
0.0
  0
LINE
  5
2CA
330
1F
100
AcDbEntity
  8
1
  6
Continuous
 62
     3
100
AcDbLine
 10
-55.08079756558508
 20
-22.24048149838888
 30
0.0
 11
-55.40079756558508
 21
-22.04048149838888
 31
0.0
  0
ARC
  5
2CB
330
1F
100
AcDbEntity
  8
1
  6
Continuous
 62
     3
100
AcDbCircle
 10
-78.58849746445094
 20
69.38518929471948
 30
0.0
 40
6.443362331568437
100
AcDbArc
 50
329.950622133474
 51
30.04937786652597
  0
ARC
  5
2CC
330
1F
100
AcDbEntity
  8
1
  6
Continuous
 62
     3
100
AcDbCircle
 10
-78.58849746445094
 20
91.93221139925092
 30
0.0
 40
6.443362331568437
100
AcDbArc
 50
329.950622133474
 51
30.04937786652597
  0
ARC
  5
2CD
330
1F
100
AcDbEntity
  8
1
  6
Continuous
 62
     3
100
AcDbCircle
 10
-119.9130976667192
 20
91.93221139925092
 30
0.0
 40
6.443362331568401
100
AcDbArc
 50
149.9506221334738
 51
210.0493778665262
  0
ARC
  5
2CE
330
1F
100
AcDbEntity
  8
1
  6
Continuous
 62
     3
100
AcDbCircle
 10
-102.1077486923237
 20
80.6587003469852
 30
0.0
 40
24.24871130596394
100
AcDbArc
 50
164.6411144191772
 51
180.0
  0
ARC
  5
2CF
330
1F
100
AcDbEntity
  8
1
  6
Continuous
 62
     3
100
AcDbCircle
 10
-119.9130976667192
 20
69.38518929471948
 30
0.0
 40
6.443362331568401
100
AcDbArc
 50
149.9506221334738
 51
210.0493778665262
  0
ARC
  5
2D0
330
1F
100
AcDbEntity
  8
1
  6
Continuous
 62
     3
100
AcDbCircle
 10
-102.1077486923237
 20
80.6587003469852
 30
0.0
 40
24.24871130596401
100
AcDbArc
 50
180.0
 51
195.3588855808228
  0
ARC
  5
2D1
330
1F
100
AcDbEntity
  8
1
  6
Continuous
 62
     3
100
AcDbCircle
 10
-96.10079756558505
 20
17.50000000000002
 30
0.0
 40
1.0
100
AcDbArc
 50
180.0
 51
340.5287793655141
  0
ARC
  5
2D2
330
1F
100
AcDbEntity
  8
1
  6
Continuous
 62
     3
100
AcDbCircle
 10
-102.1007975655851
 20
17.50000000000002
 30
0.0
 40
1.000000000000019
100
AcDbArc
 50
199.4712206344859
 51
0.0
  0
ARC
  5
2D3
330
1F
100
AcDbEntity
  8
1
  6
Continuous
 62
     3
100
AcDbCircle
 10
-99.10079756558517
 20
47.84288548346141
 30
0.0
 40
35.7494988610135
100
AcDbArc
 50
257.0688894330588
 51
282.9311105669411
  0
ARC
  5
2D4
330
1F
100
AcDbEntity
  8
1
  6
Continuous
 62
     3
100
AcDbCircle
 10
-121.1682975655849
 20
-6.50000000000001
 30
0.0
 40
11.06249999999973
100
AcDbArc
 50
329.815036125186
 51
30.18496387481402
  0
ARC
  5
2D5
330
1F
100
AcDbEntity
  8
1
  6
Continuous
 62
     3
100
AcDbCircle
 10
-113.0156345743043
 20
3.48333950160461
 30
0.0
 40
2.909837008719122
100
AcDbArc
 50
298.9801911517714
 51
0.0
  0
ARC
  5
2D6
330
1F
100
AcDbEntity
  8
1
  6
Continuous
 62
     3
100
AcDbCircle
 10
-76.04329756558528
 20
-6.50000000000001
 30
0.0
 40
11.0624999999999
100
AcDbArc
 50
149.8150361251865
 51
210.1849638748135
  0
ARC
  5
2D7
330
1F
100
AcDbEntity
  8
1
  6
Continuous
 62
     3
100
AcDbCircle
 10
-84.19596055686608
 20
3.48333950160461
 30
0.0
 40
2.90983700871908
100
AcDbArc
 50
180.0
 51
241.0198088482289
  0
ARC
  5
2D8
330
1F
100
AcDbEntity
  8
1
  6
Continuous
 62
     3
100
AcDbCircle
 10
-89.43992178782977
 20
6.5
 30
0.0
 40
18.29478665494727
100
AcDbArc
 50
342.3002338031429
 51
17.69976619685708
  0
ARC
  5
2D9
330
1F
100
AcDbEntity
  8
1
  6
Continuous
 62
     3
100
AcDbCircle
 10
-89.43992178782977
 20
-6.50000000000001
 30
0.0
 40
18.29478665494727
100
AcDbArc
 50
342.3002338031429
 51
17.69976619685706
  0
ARC
  5
2DA
330
1F
100
AcDbEntity
  8
1
  6
Continuous
 62
     3
100
AcDbCircle
 10
-107.0616733433403
 20
6.5
 30
0.0
 40
18.29478665494728
100
AcDbArc
 50
162.3002338031429
 51
197.699766196857
  0
ARC
  5
2DB
330
1F
100
AcDbEntity
  8
1
  6
Continuous
 62
     3
100
AcDbCircle
 10
-107.0616733433403
 20
-6.50000000000001
 30
0.0
 40
18.29478665494728
100
AcDbArc
 50
162.300233803143
 51
197.699766196857
  0
ARC
  5
2DC
102
{ACAD_REACTORS
330
34F
102
}
330
1F
100
AcDbEntity
  8
1
  6
Continuous
 62
     3
100
AcDbCircle
 10
-74.43660319200404
 20
80.65870034698509
 30
0.0
 40
6.739335038363085
100
AcDbArc
 50
338.9984853229844
 51
21.00151467701695
  0
ARC
  5
2DD
102
{ACAD_REACTORS
330
34F
102
}
330
1F
100
AcDbEntity
  8
1
  6
Continuous
 62
     3
100
AcDbCircle
 10
-68.63609168305271
 20
76.8539944646322
 30
0.0
 40
0.0988235294118454
100
AcDbArc
 50
180.0
 51
326.7380925865692
  0
ARC
  5
2DE
102
{ACAD_REACTORS
330
34F
102
}
330
1F
100
AcDbEntity
  8
1
  6
Continuous
 62
     3
100
AcDbCircle
 10
-74.43660319200404
 20
80.65870034698509
 30
0.0
 40
7.035805626598375
100
AcDbArc
 50
326.7380925865573
 51
33.26190741344422
  0
ARC
  5
2DF
102
{ACAD_REACTORS
330
34F
102
}
330
1F
100
AcDbEntity
  8
1
  6
Continuous
 62
     3
100
AcDbCircle
 10
-68.63609168305271
 20
84.46340622933815
 30
0.0
 40
0.0988235294117957
100
AcDbArc
 50
33.26190741345828
 51
180.0
  0
ARC
  5
2E0
330
1F
100
AcDbEntity
  8
1
  6
Continuous
 62
     3
100
AcDbCircle
 10
-54.1007975655848
 20
80.65870034698526
 30
0.0
 40
14.99999999999999
100
AcDbArc
 50
330.0053480691525
 51
30.00534835737923
  0
ARC
  5
2E1
330
1F
100
AcDbEntity
  8
1
  6
Continuous
 62
     3
100
AcDbCircle
 10
-61.10079756558525
 20
288.1587003470349
 30
0.0
 40
200.0000000000495
100
AcDbArc
 50
265.9431466395152
 51
274.0568533604849
  0
ARC
  5
2E2
330
1F
100
AcDbEntity
  8
1
  6
Continuous
 62
     3
100
AcDbCircle
 10
-61.10079756558525
 20
-126.8412996530645
 30
0.0
 40
200.0000000000495
100
AcDbArc
 50
85.94314663951512
 51
94.05685336048477
  0
ARC
  5
2E3
330
1F
100
AcDbEntity
  8
1
  6
Continuous
 62
     3
100
AcDbCircle
 10
-94.65079756558504
 20
19.94999999999987
 30
0.0
 40
0.4500000000000171
100
AcDbArc
 50
0.0
 51
180.0
  0
ARC
  5
2E4
330
1F
100
AcDbEntity
  8
1
  6
Continuous
 62
     3
100
AcDbCircle
 10
-94.65079756558504
 20
19.94999999999987
 30
0.0
 40
0.4500000000000171
100
AcDbArc
 50
180.0
 51
0.0
  0
ARC
  5
2E5
330
1F
100
AcDbEntity
  8
1
  6
Continuous
 62
     3
100
AcDbCircle
 10
-103.550797565585
 20
19.49999999999987
 30
0.0
 40
0.4500000000000028
100
AcDbArc
 50
0.0
 51
180.0
  0
ARC
  5
2E6
330
1F
100
AcDbEntity
  8
1
  6
Continuous
 62
     3
100
AcDbCircle
 10
-170.925351739797
 20
0.00000000000001
 30
0.0
 40
14.50000000000003
100
AcDbArc
 50
356.2915552747293
 51
0.0
  0
ARC
  5
2E7
330
1F
100
AcDbEntity
  8
1
  6
Continuous
 62
     3
100
AcDbCircle
 10
-170.925351739797
 20
0.00000000000001
 30
0.0
 40
14.5
100
AcDbArc
 50
0.0
 51
3.7084447252706
  0
ARC
  5
2E8
330
1F
100
AcDbEntity
  8
1
  6
Continuous
 62
     3
100
AcDbCircle
 10
-170.925351739797
 20
0.00000000000001
 30
0.0
 40
14.5
100
AcDbArc
 50
176.2915552747294
 51
183.7084447252707
  0
ARC
  5
2E9
330
1F
100
AcDbEntity
  8
1
  6
Continuous
 62
     3
100
AcDbCircle
 10
-170.925351739797
 20
0.00000000000001
 30
0.0
 40
14.49999999999995
100
AcDbArc
 50
236.2915552747294
 51
243.7084447252709
  0
ARC
  5
2EA
330
1F
100
AcDbEntity
  8
1
  6
Continuous
 62
     3
100
AcDbCircle
 10
-170.925351739797
 20
0.00000000000001
 30
0.0
 40
14.49999999999999
100
AcDbArc
 50
296.2915552747291
 51
303.708444725271
  0
ARC
  5
2EB
330
1F
100
AcDbEntity
  8
1
  6
Continuous
 62
     3
100
AcDbCircle
 10
-170.925351739797
 20
0.00000000000001
 30
0.0
 40
14.50000000000006
100
AcDbArc
 50
56.29155527472905
 51
63.70844472527049
  0
ARC
  5
2EC
330
1F
100
AcDbEntity
  8
1
  6
Continuous
 62
     3
100
AcDbCircle
 10
-170.925351739797
 20
0.00000000000001
 30
0.0
 40
14.49999999999999
100
AcDbArc
 50
116.2915552747291
 51
123.7084447252705
  0
ARC
  5
2ED
330
1F
100
AcDbEntity
  8
1
  6
Continuous
 62
     3
100
AcDbCircle
 10
-169.1253517397969
 20
18.00000000000001
 30
0.0
 40
0.5000000000000256
100
AcDbArc
 50
119.9999999999983
 51
270.0
  0
ARC
  5
2EE
330
1F
100
AcDbEntity
  8
1
  6
Continuous
 62
     3
100
AcDbCircle
 10
-166.475351739797
 20
19.9499999999999
 30
0.0
 40
0.4499999999999886
100
AcDbArc
 50
0.0
 51
180.0
  0
ARC
  5
2EF
330
1F
100
AcDbEntity
  8
1
  6
Continuous
 62
     3
100
AcDbCircle
 10
-166.475351739797
 20
19.9499999999999
 30
0.0
 40
0.4500000000000171
100
AcDbArc
 50
180.0
 51
0.0
  0
CIRCLE
  5
2F0
330
1F
100
AcDbEntity
  8
1
  6
Continuous
 62
     3
100
AcDbCircle
 10
-170.925351739797
 20
0.00000000000001
 30
0.0
 40
12.75
  0
CIRCLE
  5
2F1
330
1F
100
AcDbEntity
  8
1
  6
Continuous
 62
     3
100
AcDbCircle
 10
-170.925351739797
 20
0.00000000000001
 30
0.0
 40
10.70000000000002
  0
CIRCLE
  5
2F2
330
1F
100
AcDbEntity
  8
1
  6
Continuous
 62
     3
100
AcDbCircle
 10
-170.925351739797
 20
0.00000000000001
 30
0.0
 40
9.270836405749009
  0
CIRCLE
  5
2F3
330
1F
100
AcDbEntity
  8
1
  6
Continuous
 62
     3
100
AcDbCircle
 10
-170.925351739797
 20
0.00000000000001
 30
0.0
 40
5.5
  0
CIRCLE
  5
2F4
330
1F
100
AcDbEntity
  8
1
  6
Continuous
 62
     3
100
AcDbCircle
 10
-170.925351739797
 20
0.00000000000001
 30
0.0
 40
4.5
  0
CIRCLE
  5
2F5
330
1F
100
AcDbEntity
  8
1
  6
Continuous
 62
     3
100
AcDbCircle
 10
-100.1007975655851
 20
80.65870034698526
 30
0.0
 40
6.049999999999997
  0
CIRCLE
  5
2F6
330
1F
100
AcDbEntity
  8
1
  6
Continuous
 62
     3
100
AcDbCircle
 10
-100.1007975655851
 20
80.65870034698526
 30
0.0
 40
6.000000000000043
  0
CIRCLE
  5
2F7
330
1F
100
AcDbEntity
  8
1
  6
Continuous
 62
     3
100
AcDbCircle
 10
-100.1007975655851
 20
80.65870034698526
 30
0.0
 40
8.000000000000043
  0
CIRCLE
  5
2F8
102
{ACAD_REACTORS
330
34E
102
}
330
1F
100
AcDbEntity
  8
1
  6
Continuous
 62
     3
100
AcDbCircle
 10
-48.64016231766169
 20
83.10992423242521
 30
0.0
 40
0.5393647522560627
  0
XLINE
  5
2F9
330
1F
100
AcDbEntity
  8
1
  6
DOT_CENTER
 62
     3
 60
     1
100
AcDbXline
 10
-100.1007975655851
 20
94.6587003469852
 30
0.0
 11
0.0
 21
1.0
 31
0.0
  0
XLINE
  5
2FA
330
1F
100
AcDbEntity
  8
1
  6
DOT_CENTER
 62
     3
 60
     1
100
AcDbXline
 10
-127.4957975655849
 20
80.6587003469852
 30
0.0
 11
1.0
 21
0.0
 31
0.0
  0
XLINE
  5
2FB
330
1F
100
AcDbEntity
  8
1
  6
DOT_CENTER
 62
     3
 60
     1
100
AcDbXline
 10
-127.4957975655849
 20
80.6587003469852
 30
0.0
 11
1.0
 21
0.0
 31
0.0
  0
ARC
  5
2FC
330
1F
100
AcDbEntity
  8
1
  6
Continuous
 62
     3
100
AcDbCircle
 10
-163.9253517397971
 20
29.00000000000001
 30
0.0
 40
1.0
100
AcDbArc
 50
0.0
 51
30.0000000000003
  0
ARC
  5
2FD
330
1F
100
AcDbEntity
  8
1
  6
Continuous
 62
     3
100
AcDbCircle
 10
-177.9253517397971
 20
29.00000000000001
 30
0.0
 40
0.9999999999999729
100
AcDbArc
 50
150.0000000000005
 51
180.0
  0
ARC
  5
2FE
330
1F
100
AcDbEntity
  8
1
  6
Continuous
 62
     3
100
AcDbCircle
 10
-113.0150111279583
 20
94.1587003469852
 30
0.0
 40
0.9999999999999679
100
AcDbArc
 50
45.0000000000023
 51
90.0
  0
ARC
  5
2FF
330
1F
100
AcDbEntity
  8
1
  6
Continuous
 62
     3
100
AcDbCircle
 10
-110.686584003212
 20
94.65870034698517
 30
0.0
 40
1.000000000000038
100
AcDbArc
 50
224.9999999999983
 51
270.0
  0
ARC
  5
300
330
1F
100
AcDbEntity
  8
1
  6
Continuous
 62
     3
100
AcDbCircle
 10
-88.51501112795816
 20
94.65870034698517
 30
0.0
 40
1.0
100
AcDbArc
 50
270.0
 51
314.9999999999983
  0
ARC
  5
301
330
1F
100
AcDbEntity
  8
1
  6
Continuous
 62
     3
100
AcDbCircle
 10
-86.18658400321198
 20
94.1587003469852
 30
0.0
 40
1.0
100
AcDbArc
 50
90.0
 51
135.0000000000017
  0
ARC
  5
302
330
1F
100
AcDbEntity
  8
1
  6
Continuous
 62
     3
100
AcDbCircle
 10
-86.18658400321198
 20
67.1587003469852
 30
0.0
 40
1.000000000000018
100
AcDbArc
 50
224.9999999999983
 51
270.0
  0
ARC
  5
303
330
1F
100
AcDbEntity
  8
1
  6
Continuous
 62
     3
100
AcDbCircle
 10
-88.51501112795816
 20
66.65870034698523
 30
0.0
 40
0.9999999999999578
100
AcDbArc
 50
45.00000000000173
 51
90.0
  0
ARC
  5
304
330
1F
100
AcDbEntity
  8
1
  6
Continuous
 62
     3
100
AcDbCircle
 10
-110.686584003212
 20
66.65870034698523
 30
0.0
 40
1.0
100
AcDbArc
 50
90.0
 51
135.0000000000017
  0
ARC
  5
305
330
1F
100
AcDbEntity
  8
1
  6
Continuous
 62
     3
100
AcDbCircle
 10
-113.0150111279583
 20
67.1587003469852
 30
0.0
 40
1.0
100
AcDbArc
 50
270.0
 51
314.9999999999977
  0
ARC
  5
306
330
1F
100
AcDbEntity
  8
1
  6
Continuous
 62
     3
100
AcDbCircle
 10
-94.68658400321183
 20
17.00000000000002
 30
0.0
 40
0.5
100
AcDbArc
 50
90.0
 51
160.5287793655046
  0
ARC
  5
307
330
1F
100
AcDbEntity
  8
1
  6
Continuous
 62
     3
100
AcDbCircle
 10
-103.5150111279583
 20
17.00000000000002
 30
0.0
 40
0.5000000000000857
100
AcDbArc
 50
19.471220634496
 51
90.0
  0
ARC
  5
308
330
1F
100
AcDbEntity
  8
1
  6
Continuous
 62
     3
100
AcDbCircle
 10
-91.80592745762308
 20
22.50000000000002
 30
0.0
 40
0.5
100
AcDbArc
 50
0.0
 51
90.0
  0
ARC
  5
309
330
1F
100
AcDbEntity
  8
1
  6
Continuous
 62
     3
100
AcDbCircle
 10
-106.3956676735471
 20
22.50000000000002
 30
0.0
 40
0.5
100
AcDbArc
 50
90.0
 51
180.0
  0
ARC
  5
30A
330
1F
100
AcDbEntity
  8
1
  6
Continuous
 62
     3
100
AcDbCircle
 10
-106.3956676735471
 20
18.00000000000002
 30
0.0
 40
0.5
100
AcDbArc
 50
180.0
 51
270.0
  0
ARC
  5
30B
330
1F
100
AcDbEntity
  8
1
  6
Continuous
 62
     3
100
AcDbCircle
 10
-71.60079756558505
 20
12.00000000000001
 30
0.0
 40
0.9999999999999971
100
AcDbArc
 50
53.13010235415422
 51
90.0
  0
ARC
  5
30C
330
1F
100
AcDbEntity
  8
1
  6
Continuous
 62
     3
100
AcDbCircle
 10
-108.1007975655852
 20
14.00000000000001
 30
0.0
 40
1.0
100
AcDbArc
 50
270.0
 51
0.0
  0
ARC
  5
30D
330
1F
100
AcDbEntity
  8
1
  6
Continuous
 62
     3
100
AcDbCircle
 10
-90.10079756558517
 20
14.00000000000001
 30
0.0
 40
1.0
100
AcDbArc
 50
180.0
 51
270.0
  0
ARC
  5
30E
330
1F
100
AcDbEntity
  8
1
  6
Continuous
 62
     3
100
AcDbCircle
 10
-125.1007975655851
 20
-11.99999999999998
 30
0.0
 40
1.000000000000013
100
AcDbArc
 50
246.4218215217981
 51
270.0
  0
ARC
  5
30F
330
1F
100
AcDbEntity
  8
1
  6
Continuous
 62
     3
100
AcDbCircle
 10
-106.1007975655852
 20
29.00000000000001
 30
0.0
 40
0.9999999999999606
100
AcDbArc
 50
150.0000000000001
 51
180.0
  0
ARC
  5
310
330
1F
100
AcDbEntity
  8
1
  6
Continuous
 62
     3
100
AcDbCircle
 10
-100.6007975655851
 20
18.50000000000002
 30
0.0
 40
0.5
100
AcDbArc
 50
90.0
 51
180.0
  0
ARC
  5
311
330
1F
100
AcDbEntity
  8
1
  6
Continuous
 62
     3
100
AcDbCircle
 10
-97.60079756558505
 20
18.50000000000002
 30
0.0
 40
0.5
100
AcDbArc
 50
0.0
 51
90.0
  0
ARC
  5
312
330
1F
100
AcDbEntity
  8
1
  6
Continuous
 62
     3
100
AcDbCircle
 10
-71.60079756558505
 20
-11.99999999999998
 30
0.0
 40
1.0
100
AcDbArc
 50
270.0
 51
306.8698976458458
  0
ARC
  5
313
330
1F
100
AcDbEntity
  8
1
  6
Continuous
 62
     3
100
AcDbCircle
 10
-125.1007975655851
 20
12.00000000000002
 30
0.0
 40
1.0
100
AcDbArc
 50
90.0
 51
113.5781784782019
  0
ARC
  5
314
330
1F
100
AcDbEntity
  8
1
  6
Continuous
 62
     3
100
AcDbCircle
 10
-92.10079756558517
 20
29.00000000000001
 30
0.0
 40
1.0
100
AcDbArc
 50
0.0
 51
29.99999999999867
  0
ARC
  5
315
102
{ACAD_REACTORS
330
34F
102
}
330
1F
100
AcDbEntity
  8
1
  6
Continuous
 62
     3
100
AcDbCircle
 10
-68.2602792328189
 20
78.28764437123812
 30
0.0
 40
0.1235294117646874
100
AcDbArc
 50
255.0000000000354
 51
338.9984853229885
  0
ARC
  5
316
102
{ACAD_REACTORS
330
34F
102
}
330
1F
100
AcDbEntity
  8
1
  6
Continuous
 62
     3
100
AcDbCircle
 10
-68.2602792328189
 20
83.02975632273223
 30
0.0
 40
0.1235294117647771
100
AcDbArc
 50
21.00151467701144
 51
104.9999999999647
  0
ARC
  5
317
102
{ACAD_REACTORS
330
350
102
}
330
1F
100
AcDbEntity
  8
1
  6
Continuous
 62
     3
100
AcDbCircle
 10
-70.6726903787287
 20
77.44693564110287
 30
0.0
 40
0.1235294117647641
100
AcDbArc
 50
270.0
 51
329.9999999999875
  0
ARC
  5
318
102
{ACAD_REACTORS
330
350
102
}
330
1F
100
AcDbEntity
  8
1
  6
Continuous
 62
     3
100
AcDbCircle
 10
-69.95949298737673
 20
77.5951709352205
 30
0.0
 40
0.1235294117646504
100
AcDbArc
 50
90.0
 51
150.0000000000692
  0
ARC
  5
319
102
{ACAD_REACTORS
330
350
102
}
330
1F
100
AcDbEntity
  8
1
  6
Continuous
 62
     3
100
AcDbCircle
 10
-70.05934062216602
 20
77.7681121116911
 30
0.0
 40
0.2470588235293576
100
AcDbArc
 50
90.0
 51
150.0000000000086
  0
ARC
  5
31A
102
{ACAD_REACTORS
330
350
102
}
330
1F
100
AcDbEntity
  8
1
  6
Continuous
 62
     3
100
AcDbCircle
 10
-70.57284274393942
 20
77.27399446463232
 30
0.0
 40
0.2470588235295281
100
AcDbArc
 50
270.0
 51
329.9999999999629
  0
ARC
  5
31B
102
{ACAD_REACTORS
330
351
102
}
330
1F
100
AcDbEntity
  8
1
  6
Continuous
 62
     3
100
AcDbCircle
 10
-69.32785638893506
 20
83.99399446463224
 30
0.0
 40
0.2964705882352519
100
AcDbArc
 50
0.0
 51
90.0
  0
ARC
  5
31C
102
{ACAD_REACTORS
330
351
102
}
330
1F
100
AcDbEntity
  8
1
  6
Continuous
 62
     3
100
AcDbCircle
 10
-69.32785638893506
 20
83.5987003469852
 30
0.0
 40
0.2964705882352519
100
AcDbArc
 50
270.0
 51
0.0
  0
ARC
  5
31D
102
{ACAD_REACTORS
330
351
102
}
330
1F
100
AcDbEntity
  8
1
  6
Continuous
 62
     3
100
AcDbCircle
 10
-69.45138580069965
 20
83.87046505286753
 30
0.0
 40
0.1235294117645935
100
AcDbArc
 50
0.0
 51
90.0
  0
ARC
  5
31E
102
{ACAD_REACTORS
330
351
102
}
330
1F
100
AcDbEntity
  8
1
  6
Continuous
 62
     3
100
AcDbCircle
 10
-69.45138580069965
 20
83.7222297587499
 30
0.0
 40
0.1235294117647072
100
AcDbArc
 50
270.0
 51
0.0
  0
ARC
  5
31F
102
{ACAD_REACTORS
330
351
102
}
330
1F
100
AcDbEntity
  8
1
  6
Continuous
 62
     3
100
AcDbCircle
 10
-71.30432697717043
 20
83.5987003469852
 30
0.0
 40
0.296470588235195
100
AcDbArc
 50
180.0
 51
270.0
  0
ARC
  5
320
102
{ACAD_REACTORS
330
351
102
}
330
1F
100
AcDbEntity
  8
1
  6
Continuous
 62
     3
100
AcDbCircle
 10
-71.30432697717043
 20
83.99399446463224
 30
0.0
 40
0.2964705882353655
100
AcDbArc
 50
90.0
 51
180.0
  0
ARC
  5
321
102
{ACAD_REACTORS
330
351
102
}
330
1F
100
AcDbEntity
  8
1
  6
Continuous
 62
     3
100
AcDbCircle
 10
-71.18079756540561
 20
83.7222297587499
 30
0.0
 40
0.1235294117648209
100
AcDbArc
 50
180.0
 51
270.0
  0
ARC
  5
322
102
{ACAD_REACTORS
330
351
102
}
330
1F
100
AcDbEntity
  8
1
  6
Continuous
 62
     3
100
AcDbCircle
 10
-71.18079756540561
 20
83.87046505286753
 30
0.0
 40
0.1235294117647072
100
AcDbArc
 50
90.0
 51
180.0
  0
ARC
  5
323
102
{ACAD_REACTORS
330
350
102
}
330
1F
100
AcDbEntity
  8
1
  6
Continuous
 62
     3
100
AcDbCircle
 10
-69.32785638893506
 20
77.71870034698514
 30
0.0
 40
0.2964705882352519
100
AcDbArc
 50
0.0
 51
90.0
  0
ARC
  5
324
102
{ACAD_REACTORS
330
350
102
}
330
1F
100
AcDbEntity
  8
1
  6
Continuous
 62
     3
100
AcDbCircle
 10
-69.32785638893506
 20
77.3234062293381
 30
0.0
 40
0.2964705882353087
100
AcDbArc
 50
270.0
 51
0.0
  0
ARC
  5
325
102
{ACAD_REACTORS
330
350
102
}
330
1F
100
AcDbEntity
  8
1
  6
Continuous
 62
     3
100
AcDbCircle
 10
-69.45138580069965
 20
77.5951709352205
 30
0.0
 40
0.1235294117645935
100
AcDbArc
 50
0.0
 51
90.0
  0
ARC
  5
326
102
{ACAD_REACTORS
330
350
102
}
330
1F
100
AcDbEntity
  8
1
  6
Continuous
 62
     3
100
AcDbCircle
 10
-69.45138580069965
 20
77.44693564110287
 30
0.0
 40
0.1235294117647641
100
AcDbArc
 50
270.0
 51
0.0
  0
ARC
  5
327
102
{ACAD_REACTORS
330
350
102
}
330
1F
100
AcDbEntity
  8
1
  6
Continuous
 62
     3
100
AcDbCircle
 10
-71.30432697717043
 20
77.3234062293381
 30
0.0
 40
0.296470588235195
100
AcDbArc
 50
180.0
 51
270.0
  0
ARC
  5
328
102
{ACAD_REACTORS
330
350
102
}
330
1F
100
AcDbEntity
  8
1
  6
Continuous
 62
     3
100
AcDbCircle
 10
-71.30432697717043
 20
77.71870034698514
 30
0.0
 40
0.2964705882353087
100
AcDbArc
 50
90.0
 51
180.0
  0
ARC
  5
329
102
{ACAD_REACTORS
330
350
102
}
330
1F
100
AcDbEntity
  8
1
  6
Continuous
 62
     3
100
AcDbCircle
 10
-71.18079756540561
 20
77.44693564110287
 30
0.0
 40
0.1235294117648209
100
AcDbArc
 50
180.0
 51
270.0
  0
ARC
  5
32A
102
{ACAD_REACTORS
330
350
102
}
330
1F
100
AcDbEntity
  8
1
  6
Continuous
 62
     3
100
AcDbCircle
 10
-71.18079756540561
 20
77.5951709352205
 30
0.0
 40
0.1235294117646504
100
AcDbArc
 50
90.0
 51
180.0
  0
ARC
  5
32B
330
1F
100
AcDbEntity
  8
1
  6
Continuous
 62
     3
100
AcDbCircle
 10
-83.10079756540563
 20
76.758473999969
 30
0.0
 40
1.500000000000057
100
AcDbArc
 50
269.9999999999978
 51
0.0
  0
ARC
  5
32C
330
1F
100
AcDbEntity
  8
1
  6
Continuous
 62
     3
100
AcDbCircle
 10
-83.10079756540563
 20
84.55892669400151
 30
0.0
 40
1.5
100
AcDbArc
 50
0.0
 51
90.00000000000217
  0
ARC
  5
32D
330
1F
100
AcDbEntity
  8
1
  6
Continuous
 62
     3
100
AcDbCircle
 10
-82.10079756540568
 20
86.47473289717834
 30
0.0
 40
1.000000000000043
100
AcDbArc
 50
111.5699910252744
 51
180.0
  0
ARC
  5
32E
330
1F
100
AcDbEntity
  8
1
  6
Continuous
 62
     3
100
AcDbCircle
 10
-82.10079756540568
 20
74.84266779679206
 30
0.0
 40
1.0
100
AcDbArc
 50
180.0
 51
248.4300089747257
  0
ARC
  5
32F
330
1F
100
AcDbEntity
  8
1
  6
Continuous
 62
     3
100
AcDbCircle
 10
-79.10299233647675
 20
87.65983208199447
 30
0.0
 40
1.0
100
AcDbArc
 50
90.0
 51
111.5699910252755
  0
ARC
  5
330
330
1F
100
AcDbEntity
  8
1
  6
Continuous
 62
     3
100
AcDbCircle
 10
-79.10299233647675
 20
73.65756861197593
 30
0.0
 40
0.9999999999999901
100
AcDbArc
 50
248.4300089747244
 51
270.0
  0
ARC
  5
331
330
1F
100
AcDbEntity
  8
1
  6
Continuous
 62
     3
100
AcDbCircle
 10
-41.97709539054574
 20
87.65983208199447
 30
0.0
 40
1.000000000000013
100
AcDbArc
 50
30.00534835737959
 51
90.0
  0
ARC
  5
332
330
1F
100
AcDbEntity
  8
1
  6
Continuous
 62
     3
100
AcDbCircle
 10
-41.97578857551372
 20
73.65983208199447
 30
0.0
 40
1.0
100
AcDbArc
 50
270.0
 51
330.0053480691535
  0
ARC
  5
333
330
1F
100
AcDbEntity
  8
1
  6
Continuous
 62
     3
100
AcDbCircle
 10
-97.10079756558497
 20
73.65870034698526
 30
0.0
 40
1.000000000000002
100
AcDbArc
 50
222.3621579954367
 51
270.0
  0
ARC
  5
334
330
1F
100
AcDbEntity
  8
1
  6
Continuous
 62
     3
100
AcDbCircle
 10
-84.10079756558508
 20
74.6587003469852
 30
0.0
 40
1.0
100
AcDbArc
 50
90.0
 51
179.9999999999967
  0
ARC
  5
335
330
1F
100
AcDbEntity
  8
1
  6
Continuous
 62
     3
100
AcDbCircle
 10
-91.10079756558508
 20
79.6587003469852
 30
0.0
 40
1.0
100
AcDbArc
 50
270.0
 51
0.0
  0
ARC
  5
336
330
1F
100
AcDbEntity
  8
1
  6
Continuous
 62
     3
100
AcDbCircle
 10
-88.10079756558508
 20
83.65870034698548
 30
0.0
 40
2.0
100
AcDbArc
 50
89.99999999999837
 51
180.0000000000082
  0
ARC
  5
337
330
1F
100
AcDbEntity
  8
1
  6
Continuous
 62
     3
100
AcDbCircle
 10
-87.10079756558508
 20
74.65870034698526
 30
0.0
 40
2.0
100
AcDbArc
 50
270.0
 51
0.0
  0
ARC
  5
338
330
1F
100
AcDbEntity
  8
1
  6
Continuous
 62
     3
100
AcDbCircle
 10
-83.74471083591183
 20
20.5
 30
0.0
 40
0.9999999999999503
100
AcDbArc
 50
270.0000000000032
 51
335.556045219585
  0
ARC
  5
339
330
1F
100
AcDbEntity
  8
1
  6
Continuous
 62
     3
100
AcDbCircle
 10
-83.74471083591183
 20
20.5
 30
0.0
 40
3.0
100
AcDbArc
 50
270.0
 51
335.5560452195825
  0
ARC
  5
33A
330
1F
100
AcDbEntity
  8
1
  6
Continuous
 62
     3
100
AcDbCircle
 10
-104.1007975655851
 20
17.99999999999993
 30
0.0
 40
0.5
100
AcDbArc
 50
179.9999999999963
 51
270.0
  0
ARC
  5
33B
330
1F
100
AcDbEntity
  8
1
  6
Continuous
 62
     3
100
AcDbCircle
 10
-75.52514448427807
 20
26.4999999999993
 30
0.0
 40
1.0
100
AcDbArc
 50
89.99999999999919
 51
155.5560452195826
  0
ARC
  5
33C
330
1F
100
AcDbEntity
  8
1
  6
Continuous
 62
     3
100
AcDbCircle
 10
-79.60079756540563
 20
27.20000000039438
 30
0.0
 40
1.000000000000004
100
AcDbArc
 50
155.5560452195826
 51
180.0
  0
ARC
  5
33D
330
1F
100
AcDbEntity
  8
1
  6
Continuous
 62
     3
100
AcDbCircle
 10
-80.10079756540563
 20
20.0584770135974
 30
0.0
 40
0.5
100
AcDbArc
 50
180.0
 51
335.5560452195821
  0
ARC
  5
33E
330
1F
100
AcDbEntity
  8
1
  6
Continuous
 62
     3
100
AcDbCircle
 10
-39.1007975655848
 20
30.4999999999986
 30
0.0
 40
1.0
100
AcDbArc
 50
0.0
 51
90.00000000001994
  0
ARC
  5
33F
330
1F
100
AcDbEntity
  8
1
  6
Continuous
 62
     3
100
AcDbCircle
 10
-39.1007975655848
 20
28.49999999999862
 30
0.0
 40
1.000000000000021
100
AcDbArc
 50
269.9999999999752
 51
0.0
  0
ARC
  5
340
330
1F
100
AcDbEntity
  8
1
  6
Continuous
 62
     3
100
AcDbCircle
 10
-76.81297102493193
 20
28.4999999999986
 30
0.0
 40
3.0
100
AcDbArc
 50
90.0
 51
155.5560452195825
  0
ARC
  5
341
330
1F
100
AcDbEntity
  8
1
  6
Continuous
 62
     3
100
AcDbCircle
 10
-163.4253517397971
 20
17.00000000000001
 30
0.0
 40
0.5
100
AcDbArc
 50
0.0
 51
90.0
  0
ARC
  5
342
330
1F
100
AcDbEntity
  8
1
  6
Continuous
 62
     3
100
AcDbCircle
 10
-163.4253517397971
 20
23.50000000000001
 30
0.0
 40
0.5
100
AcDbArc
 50
270.0
 51
0.0
  0
ARC
  5
343
330
1F
100
AcDbEntity
  8
1
  6
Continuous
 62
     3
100
AcDbCircle
 10
-168.6253517397969
 20
22.50000000000003
 30
0.0
 40
0.5
100
AcDbArc
 50
90.0
 51
180.0
  0
ARC
  5
344
330
1F
100
AcDbEntity
  8
1
  6
Continuous
 62
     3
100
AcDbCircle
 10
-179.9253517397971
 20
12.41154273187992
 30
0.0
 40
0.9999999999999589
100
AcDbArc
 50
329.9999999999987
 51
0.0
  0
ARC
  5
345
330
1F
100
AcDbEntity
  8
1
  6
Continuous
 62
     3
100
AcDbCircle
 10
-161.9253517397971
 20
12.41154273188031
 30
0.0
 40
1.0
100
AcDbArc
 50
180.0
 51
210.0000000000005
  0
ARC
  5
346
330
1F
100
AcDbEntity
  8
1
  6
Continuous
 62
     3
100
AcDbCircle
 10
-169.6253517397969
 20
18.86602540378448
 30
0.0
 40
0.500000000000001
100
AcDbArc
 50
299.9999999999999
 51
0.0
  0
ARC
  5
347
330
1F
100
AcDbEntity
  8
1
  6
Continuous
 62
     3
100
AcDbCircle
 10
-163.9253517397971
 20
30.49999999999861
 30
0.0
 40
1.0
100
AcDbArc
 50
359.9999999999982
 51
90.0
  0
ARC
  5
348
330
1F
100
AcDbEntity
  8
1
  6
Continuous
 62
     3
100
AcDbCircle
 10
-177.9259689174856
 20
30.49999999999861
 30
0.0
 40
1.0
100
AcDbArc
 50
90.0
 51
180.0294743790137
  0
ARC
  5
349
330
1F
100
AcDbEntity
  8
1
  6
Continuous
 62
     3
100
AcDbCircle
 10
-163.4253517397971
 20
18.99999999999996
 30
0.0
 40
0.5
100
AcDbArc
 50
359.9999999999976
 51
90.0
  0
ARC
  5
34A
330
1F
100
AcDbEntity
  8
1
  6
Continuous
 62
     3
100
AcDbCircle
 10
-163.9253517397971
 20
17.99999999999995
 30
0.0
 40
1.0
100
AcDbArc
 50
0.00000000000061
 51
90.0
  0
HATCH
  5
34B
330
1F
100
AcDbEntity
  8
1
  6
Continuous
 62
     4
100
AcDbHatch
 10
0.0
 20
0.0
 30
0.0
210
0.0
220
0.0
230
1.0
  2
SOLID
 70
     1
 71
     1
 91
        1
 92
        1
 93
        4
 72
     1
 10
-101.6007975655852
 20
78.6587003469852
 11
-103.100797565585
 21
78.6587003469852
 72
     1
 10
-103.100797565585
 20
78.6587003469852
 11
-103.100797565585
 21
82.6587003469852
 72
     1
 10
-103.100797565585
 20
82.6587003469852
 11
-101.6007975655852
 21
82.6587003469852
 72
     1
 10
-101.6007975655852
 20
82.6587003469852
 11
-101.6007975655852
 21
78.6587003469852
 97
        4
330
7E
330
7F
330
7B
330
80
 75
     0
 76
     1
 98
        1
 10
0.0
 20
0.0
  0
HATCH
  5
34C
330
1F
100
AcDbEntity
  8
1
  6
Continuous
 62
     4
100
AcDbHatch
 10
0.0
 20
0.0
 30
0.0
210
0.0
220
0.0
230
1.0
  2
SOLID
 70
     1
 71
     1
 91
        1
 92
        1
 93
        4
 72
     1
 10
-99.35079756558515
 20
78.6587003469852
 11
-100.8507975655851
 21
78.6587003469852
 72
     1
 10
-100.8507975655851
 20
78.6587003469852
 11
-100.8507975655851
 21
82.6587003469852
 72
     1
 10
-100.8507975655851
 20
82.6587003469852
 11
-99.35079756558515
 21
82.6587003469852
 72
     1
 10
-99.35079756558515
 20
82.6587003469852
 11
-99.35079756558515
 21
78.6587003469852
 97
        4
330
7D
330
81
330
7A
330
82
 75
     0
 76
     1
 98
        1
 10
0.0
 20
0.0
  0
HATCH
  5
34D
330
1F
100
AcDbEntity
  8
1
  6
Continuous
 62
     4
100
AcDbHatch
 10
0.0
 20
0.0
 30
0.0
210
0.0
220
0.0
230
1.0
  2
SOLID
 70
     1
 71
     1
 91
        1
 92
        1
 93
        4
 72
     1
 10
-97.100797565585
 20
78.65870034698526
 11
-98.60079756558511
 21
78.6587003469852
 72
     1
 10
-98.60079756558511
 20
78.6587003469852
 11
-98.60079756558511
 21
82.6587003469852
 72
     1
 10
-98.60079756558511
 20
82.6587003469852
 11
-97.10079756558511
 21
82.6587003469852
 72
     1
 10
-97.10079756558511
 20
82.6587003469852
 11
-97.100797565585
 21
78.65870034698526
 97
        4
330
7C
330
83
330
79
330
84
 75
     0
 76
     1
 98
        1
 10
0.0
 20
0.0
  0
HATCH
  5
34E
330
1F
100
AcDbEntity
  8
1
  6
Continuous
 62
     4
100
AcDbHatch
 10
0.0
 20
0.0
 30
0.0
210
0.0
220
0.0
230
1.0
  2
SOLID
 70
     1
 71
     1
 91
        1
 92
        1
 93
        1
 72
     2
 10
-48.64016231766169
 20
83.10992423242521
 40
0.5393647522560627
 50
0.0
 51
360.0
 73
     1
 97
        1
330
2F8
 75
     0
 76
     1
 98
        1
 10
0.0
 20
0.0
  0
HATCH
  5
34F
330
1F
100
AcDbEntity
  8
1
  6
Continuous
 62
     4
100
AcDbHatch
 10
0.0
 20
0.0
 30
0.0
210
0.0
220
0.0
230
1.0
  2
SOLID
 70
     1
 71
     1
 91
        1
 92
        1
 93
       10
 72
     2
 10
-68.2602792328189
 20
83.02975632273223
 40
0.1235294117647771
 50
21.00151467701144
 51
104.9999999999647
 73
     1
 72
     1
 10
-68.29225099721384
 20
83.14907657186205
 11
-68.73491521246456
 21
83.03046505286756
 72
     1
 10
-68.73491521246456
 20
83.03046505286756
 11
-68.73491521246456
 21
84.46340622933815
 72
     2
 10
-68.63609168305271
 20
84.46340622933815
 40
0.0988235294117957
 50
180.0
 51
326.7380925865417
 73
     0
 72
     2
 10
-74.43660319200404
 20
80.65870034698509
 40
7.035805626598375
 50
326.7380925865558
 51
393.2619074134427
 73
     0
 72
     2
 10
-68.63609168305271
 20
76.8539944646322
 40
0.0988235294118454
 50
33.26190741343074
 51
180.0
 73
     0
 72
     1
 10
-68.73491521246456
 20
76.8539944646322
 11
-68.73491521246456
 21
78.28693564110279
 72
     1
 10
-68.73491521246456
 20
78.28693564110279
 11
-68.29225099721384
 21
78.16832412210829
 72
     2
 10
-68.2602792328189
 20
78.28764437123812
 40
0.1235294117646874
 50
255.0000000000354
 51
338.9984853229885
 73
     1
 72
     2
 10
-74.43660319200404
 20
80.65870034698509
 40
6.739335038363085
 50
338.9984853229844
 51
381.0015146770169
 73
     1
 97
       10
330
315
330
D1
330
D3
330
2DD
330
2DE
330
2DF
330
D4
330
D2
330
316
330
2DC
 75
     0
 76
     1
 98
        1
 10
0.0
 20
0.0
  0
HATCH
  5
350
330
1F
100
AcDbEntity
  8
1
  6
Continuous
 62
     4
100
AcDbHatch
 10
0.0
 20
0.0
 30
0.0
210
0.0
220
0.0
230
1.0
  2
SOLID
 70
     1
 71
     1
 91
        1
 92
        1
 93
       28
 72
     1
 10
-69.32785638893506
 20
78.01517093522045
 11
-70.05934062216602
 21
78.01517093522045
 72
     2
 10
-70.05934062216602
 20
77.7681121116911
 40
0.2470588235293576
 50
90.0
 51
150.0000000000086
 73
     1
 72
     1
 10
-70.27329983957156
 20
77.89164152345575
 11
-70.56571077002587
 21
77.38517093522046
 72
     2
 10
-70.6726903787287
 20
77.44693564110287
 40
0.1235294117647641
 50
30.00000000001248
 51
90.0
 73
     0
 72
     1
 10
-70.6726903787287
 20
77.3234062293381
 11
-71.18079756540561
 21
77.3234062293381
 72
     2
 10
-71.18079756540561
 20
77.44693564110287
 40
0.1235294117648209
 50
90.0
 51
180.0
 73
     0
 72
     1
 10
-71.30432697717043
 20
77.44693564110287
 11
-71.30432697717043
 21
77.5951709352205
 72
     2
 10
-71.18079756540561
 20
77.5951709352205
 40
0.1235294117646504
 50
180.0
 51
270.0
 73
     0
 72
     1
 10
-71.18079756540561
 20
77.71870034698514
 11
-70.66197403599381
 21
77.71870034698514
 72
     1
 10
-70.66197403599381
 20
77.71870034698514
 11
-70.66197403599381
 21
78.01517093522045
 72
     1
 10
-70.66197403599381
 20
78.01517093522045
 11
-71.30432697717043
 21
78.01517093522045
 72
     2
 10
-71.30432697717043
 20
77.71870034698514
 40
0.2964705882353087
 50
90.0
 51
180.0
 73
     1
 72
     1
 10
-71.60079756540563
 20
77.71870034698514
 11
-71.60079756540563
 21
77.3234062293381
 72
     2
 10
-71.30432697717043
 20
77.3234062293381
 40
0.296470588235195
 50
180.0
 51
270.0
 73
     1
 72
     1
 10
-71.30432697717043
 20
77.0269356411028
 11
-70.57284274393942
 21
77.0269356411028
 72
     2
 10
-70.57284274393942
 20
77.27399446463232
 40
0.2470588235295281
 50
270.0
 51
329.9999999999629
 73
     1
 72
     1
 10
-70.35888352653387
 20
77.15046505286745
 11
-70.06647259607962
 21
77.65693564110273
 72
     2
 10
-69.95949298737673
 20
77.5951709352205
 40
0.1235294117646504
 50
209.9999999999308
 51
270.0
 73
     0
 72
     1
 10
-69.95949298737673
 20
77.71870034698514
 11
-69.45138580069965
 21
77.71870034698514
 72
     2
 10
-69.45138580069965
 20
77.5951709352205
 40
0.1235294117645935
 50
270.0
 51
360.0
 73
     0
 72
     1
 10
-69.32785638893506
 20
77.5951709352205
 11
-69.32785638893506
 21
77.44693564110287
 72
     2
 10
-69.45138580069965
 20
77.44693564110287
 40
0.1235294117647641
 50
0.0
 51
90.0
 73
     0
 72
     1
 10
-69.45138580069965
 20
77.3234062293381
 11
-69.9702093301114
 21
77.3234062293381
 72
     1
 10
-69.9702093301114
 20
77.3234062293381
 11
-69.9702093301114
 21
77.0269356411028
 72
     1
 10
-69.9702093301114
 20
77.0269356411028
 11
-69.32785638893506
 21
77.0269356411028
 72
     2
 10
-69.32785638893506
 20
77.3234062293381
 40
0.2964705882353087
 50
270.0
 51
360.0
 73
     1
 72
     1
 10
-69.03138580069981
 20
77.3234062293381
 11
-69.03138580069981
 21
77.71870034698514
 72
     2
 10
-69.32785638893506
 20
77.71870034698514
 40
0.2964705882352519
 50
0.0
 51
90.0
 73
     1
 97
       28
330
EB
330
319
330
DC
330
317
330
E7
330
329
330
E6
330
32A
330
D9
330
DA
330
D5
330
328
330
EA
330
327
330
E9
330
31A
330
DB
330
318
330
E5
330
325
330
E8
330
326
330
D7
330
D8
330
D6
330
324
330
EC
330
323
 75
     0
 76
     1
 98
        1
 10
0.0
 20
0.0
  0
HATCH
  5
351
330
1F
100
AcDbEntity
  8
1
  6
Continuous
 62
     4
100
AcDbHatch
 10
0.0
 20
0.0
 30
0.0
210
0.0
220
0.0
230
1.0
  2
SOLID
 70
     1
 71
     1
 91
        2
 92
        1
 93
        8
 72
     1
 10
-69.32785638893506
 20
84.2904650528676
 11
-71.30432697717043
 21
84.2904650528676
 72
     2
 10
-71.30432697717043
 20
83.99399446463224
 40
0.2964705882353655
 50
90.0
 51
180.0
 73
     1
 72
     1
 10
-71.60079756540563
 20
83.99399446463224
 11
-71.60079756540563
 21
83.5987003469852
 72
     2
 10
-71.30432697717043
 20
83.5987003469852
 40
0.296470588235195
 50
180.0
 51
270.0
 73
     1
 72
     1
 10
-71.30432697717043
 20
83.30222975874995
 11
-69.32785638893506
 21
83.30222975874995
 72
     2
 10
-69.32785638893506
 20
83.5987003469852
 40
0.2964705882352519
 50
270.0
 51
360.0
 73
     1
 72
     1
 10
-69.03138580069981
 20
83.5987003469852
 11
-69.03138580069981
 21
83.99399446463224
 72
     2
 10
-69.32785638893506
 20
83.99399446463224
 40
0.2964705882352519
 50
0.0
 51
90.0
 73
     1
 97
        8
330
E3
330
320
330
E2
330
31F
330
E1
330
31C
330
E4
330
31B
 92
       16
 93
        8
 72
     2
 10
-71.18079756540561
 20
83.87046505286753
 40
0.1235294117647072
 50
90.0
 51
180.0
 73
     1
 72
     1
 10
-71.30432697717043
 20
83.87046505286753
 11
-71.30432697717043
 21
83.7222297587499
 72
     2
 10
-71.18079756540561
 20
83.7222297587499
 40
0.1235294117648209
 50
180.0
 51
270.0
 73
     1
 72
     1
 10
-71.18079756540561
 20
83.5987003469852
 11
-69.45138580069965
 21
83.5987003469852
 72
     2
 10
-69.45138580069965
 20
83.7222297587499
 40
0.1235294117647072
 50
270.0
 51
360.0
 73
     1
 72
     1
 10
-69.32785638893506
 20
83.7222297587499
 11
-69.32785638893506
 21
83.87046505286753
 72
     2
 10
-69.45138580069965
 20
83.87046505286753
 40
0.1235294117645935
 50
0.0
 51
90.0
 73
     1
 72
     1
 10
-69.45138580069965
 20
83.99399446463224
 11
-71.18079756540561
 21
83.99399446463224
 97
        8
330
322
330
DE
330
321
330
DF
330
31E
330
E0
330
31D
330
DD
 75
     0
 76
     1
 98
        1
 10
0.0
 20
0.0
  0
HATCH
  5
352
330
1F
100
AcDbEntity
  8
1
  6
Continuous
 62
     4
100
AcDbHatch
 10
0.0
 20
0.0
 30
0.0
210
0.0
220
0.0
230
1.0
  2
SOLID
 70
     1
 71
     1
 91
        2
 92
        1
 93
       40
 72
     1
 10
-49.58241018800743
 20
79.5805753469852
 11
-49.65991018800742
 21
79.48370034698519
 72
     1
 10
-49.65991018800742
 20
79.48370034698519
 11
-49.73741018800752
 21
79.35453368031853
 72
     1
 10
-49.73741018800752
 20
79.35453368031853
 11
-49.78907685467414
 21
79.22536701365186
 72
     1
 10
-49.78907685467414
 20
79.22536701365186
 11
-49.84074352134076
 21
79.06390868031855
 72
     1
 10
-49.84074352134076
 20
79.06390868031855
 11
-49.86657685467412
 21
78.87015868031853
 72
     1
 10
-49.86657685467412
 20
78.87015868031853
 11
-49.89241018800749
 21
78.57953368031855
 72
     1
 10
-49.89241018800749
 20
78.57953368031855
 11
-49.89241018800749
 21
78.32120034698522
 72
     1
 10
-49.89241018800749
 20
78.32120034698522
 11
-49.86657685467412
 21
78.03057534698519
 72
     1
 10
-49.86657685467412
 20
78.03057534698519
 11
-49.84074352134076
 21
77.83682534698522
 72
     1
 10
-49.84074352134076
 20
77.83682534698522
 11
-49.78907685467414
 21
77.67536701365185
 72
     1
 10
-49.78907685467414
 20
77.67536701365185
 11
-49.73741018800752
 21
77.54620034698519
 72
     1
 10
-49.73741018800752
 20
77.54620034698519
 11
-49.65991018800742
 21
77.41703368031853
 72
     1
 10
-49.65991018800742
 20
77.41703368031853
 11
-49.58241018800743
 21
77.32015868031851
 72
     1
 10
-49.58241018800743
 20
77.32015868031851
 11
-49.50491018800744
 21
77.25557534698521
 72
     1
 10
-49.50491018800744
 20
77.25557534698521
 11
-49.37574352134084
 21
77.19099201365185
 72
     1
 10
-49.37574352134084
 20
77.19099201365185
 11
-49.27241018800748
 21
77.1587003469852
 72
     1
 10
-49.27241018800748
 20
77.1587003469852
 11
-49.09157685467415
 21
77.1587003469852
 72
     1
 10
-49.09157685467415
 20
77.1587003469852
 11
-48.98824352134079
 21
77.19099201365185
 72
     1
 10
-48.98824352134079
 20
77.19099201365185
 11
-48.85907685467407
 21
77.25557534698521
 72
     1
 10
-48.85907685467407
 20
77.25557534698521
 11
-48.78157685467414
 21
77.32015868031851
 72
     1
 10
-48.78157685467414
 20
77.32015868031851
 11
-48.7040768546741
 21
77.41703368031853
 72
     1
 10
-48.7040768546741
 20
77.41703368031853
 11
-48.62657685467411
 21
77.54620034698519
 72
     1
 10
-48.62657685467411
 20
77.54620034698519
 11
-48.57491018800749
 21
77.67536701365185
 72
     1
 10
-48.57491018800749
 20
77.67536701365185
 11
-48.52324352134076
 21
77.83682534698522
 72
     1
 10
-48.52324352134076
 20
77.83682534698522
 11
-48.49741018800751
 21
78.03057534698519
 72
     1
 10
-48.49741018800751
 20
78.03057534698519
 11
-48.47157685467408
 21
78.32120034698522
 72
     1
 10
-48.47157685467408
 20
78.32120034698522
 11
-48.47157685467408
 21
78.57953368031855
 72
     1
 10
-48.47157685467408
 20
78.57953368031855
 11
-48.49741018800751
 21
78.87015868031853
 72
     1
 10
-48.49741018800751
 20
78.87015868031853
 11
-48.52324352134076
 21
79.06390868031855
 72
     1
 10
-48.52324352134076
 20
79.06390868031855
 11
-48.57491018800749
 21
79.22536701365186
 72
     1
 10
-48.57491018800749
 20
79.22536701365186
 11
-48.62657685467411
 21
79.35453368031853
 72
     1
 10
-48.62657685467411
 20
79.35453368031853
 11
-48.7040768546741
 21
79.48370034698519
 72
     1
 10
-48.7040768546741
 20
79.48370034698519
 11
-48.78157685467414
 21
79.5805753469852
 72
     1
 10
-48.78157685467414
 20
79.5805753469852
 11
-48.85907685467407
 21
79.64515868031856
 72
     1
 10
-48.85907685467407
 20
79.64515868031856
 11
-48.98824352134079
 21
79.70974201365186
 72
     1
 10
-48.98824352134079
 20
79.70974201365186
 11
-49.09157685467415
 21
79.74203368031851
 72
     1
 10
-49.09157685467415
 20
79.74203368031851
 11
-49.27241018800748
 21
79.74203368031851
 72
     1
 10
-49.27241018800748
 20
79.74203368031851
 11
-49.37574352134084
 21
79.70974201365186
 72
     1
 10
-49.37574352134084
 20
79.70974201365186
 11
-49.50491018800744
 21
79.64515868031856
 72
     1
 10
-49.50491018800744
 20
79.64515868031856
 11
-49.58241018800743
 21
79.5805753469852
 97
       40
330
102
330
103
330
104
330
105
330
106
330
107
330
108
330
109
330
10A
330
10B
330
10C
330
10D
330
10E
330
10F
330
110
330
111
330
112
330
113
330
114
330
ED
330
EE
330
EF
330
F0
330
F1
330
F2
330
F3
330
F4
330
F5
330
F6
330
F7
330
F8
330
F9
330
FA
330
FB
330
FC
330
FD
330
FE
330
FF
330
100
330
101
 92
       16
 93
       24
 72
     1
 10
-49.09157685467415
 20
77.48161701365188
 11
-48.98824352134079
 21
77.54620034698519
 72
     1
 10
-48.98824352134079
 20
77.54620034698519
 11
-48.88491018800744
 21
77.6430753469852
 72
     1
 10
-48.88491018800744
 20
77.6430753469852
 11
-48.83324352134076
 21
77.73995034698521
 72
     1
 10
-48.83324352134076
 20
77.73995034698521
 11
-48.78157685467414
 21
77.90140868031853
 72
     1
 10
-48.78157685467414
 20
77.90140868031853
 11
-48.75574352134083
 21
78.25661701365186
 72
     1
 10
-48.75574352134083
 20
78.25661701365186
 11
-48.75574352134083
 21
78.64411701365185
 72
     1
 10
-48.75574352134083
 20
78.64411701365185
 11
-48.78157685467414
 21
78.99932534698519
 72
     1
 10
-48.78157685467414
 20
78.99932534698519
 11
-48.83324352134076
 21
79.16078368031856
 72
     1
 10
-48.83324352134076
 20
79.16078368031856
 11
-48.88491018800744
 21
79.25765868031851
 72
     1
 10
-48.88491018800744
 20
79.25765868031851
 11
-48.98824352134079
 21
79.35453368031853
 72
     1
 10
-48.98824352134079
 20
79.35453368031853
 11
-49.09157685467415
 21
79.41911701365188
 72
     1
 10
-49.09157685467415
 20
79.41911701365188
 11
-49.27241018800748
 21
79.41911701365188
 72
     1
 10
-49.27241018800748
 20
79.41911701365188
 11
-49.37574352134084
 21
79.35453368031853
 72
     1
 10
-49.37574352134084
 20
79.35453368031853
 11
-49.47907685467408
 21
79.25765868031851
 72
     1
 10
-49.47907685467408
 20
79.25765868031851
 11
-49.53074352134075
 21
79.16078368031856
 72
     1
 10
-49.53074352134075
 20
79.16078368031856
 11
-49.58241018800743
 21
78.99932534698519
 72
     1
 10
-49.58241018800743
 20
78.99932534698519
 11
-49.6082435213408
 21
78.64411701365185
 72
     1
 10
-49.6082435213408
 20
78.64411701365185
 11
-49.6082435213408
 21
78.25661701365186
 72
     1
 10
-49.6082435213408
 20
78.25661701365186
 11
-49.58241018800743
 21
77.90140868031853
 72
     1
 10
-49.58241018800743
 20
77.90140868031853
 11
-49.53074352134075
 21
77.73995034698521
 72
     1
 10
-49.53074352134075
 20
77.73995034698521
 11
-49.47907685467408
 21
77.6430753469852
 72
     1
 10
-49.47907685467408
 20
77.6430753469852
 11
-49.37574352134084
 21
77.54620034698519
 72
     1
 10
-49.37574352134084
 20
77.54620034698519
 11
-49.27241018800748
 21
77.48161701365188
 72
     1
 10
-49.27241018800748
 20
77.48161701365188
 11
-49.09157685467415
 21
77.48161701365188
 97
       24
330
115
330
116
330
117
330
118
330
119
330
11A
330
11B
330
11C
330
11D
330
11E
330
11F
330
120
330
121
330
122
330
123
330
124
330
125
330
126
330
127
330
128
330
129
330
12A
330
12B
330
12C
 75
     0
 76
     1
 98
        1
 10
0.0
 20
0.0
  0
HATCH
  5
353
330
1F
100
AcDbEntity
  8
1
  6
Continuous
 62
     4
100
AcDbHatch
 10
0.0
 20
0.0
 30
0.0
210
0.0
220
0.0
230
1.0
  2
SOLID
 70
     1
 71
     1
 91
        2
 92
        1
 93
       40
 72
     1
 10
-50.86546574356299
 20
79.70974201365186
 11
-50.9687990768964
 21
79.74203368031851
 72
     1
 10
-50.9687990768964
 20
79.74203368031851
 11
-51.14963241022974
 21
79.74203368031851
 72
     1
 10
-51.14963241022974
 20
79.74203368031851
 11
-51.25296574356298
 21
79.70974201365186
 72
     1
 10
-51.25296574356298
 20
79.70974201365186
 11
-51.3821324102297
 21
79.64515868031856
 72
     1
 10
-51.3821324102297
 20
79.64515868031856
 11
-51.45963241022969
 21
79.5805753469852
 72
     1
 10
-51.45963241022969
 20
79.5805753469852
 11
-51.53713241022973
 21
79.48370034698519
 72
     1
 10
-51.53713241022973
 20
79.48370034698519
 11
-51.61463241022966
 21
79.35453368031853
 72
     1
 10
-51.61463241022966
 20
79.35453368031853
 11
-51.66629907689639
 21
79.22536701365186
 72
     1
 10
-51.66629907689639
 20
79.22536701365186
 11
-51.71796574356301
 21
79.06390868031855
 72
     1
 10
-51.71796574356301
 20
79.06390868031855
 11
-51.74379907689632
 21
78.87015868031853
 72
     1
 10
-51.74379907689632
 20
78.87015868031853
 11
-51.76963241022975
 21
78.57953368031855
 72
     1
 10
-51.76963241022975
 20
78.57953368031855
 11
-51.76963241022975
 21
78.32120034698522
 72
     1
 10
-51.76963241022975
 20
78.32120034698522
 11
-51.74379907689632
 21
78.03057534698519
 72
     1
 10
-51.74379907689632
 20
78.03057534698519
 11
-51.71796574356301
 21
77.83682534698522
 72
     1
 10
-51.71796574356301
 20
77.83682534698522
 11
-51.66629907689639
 21
77.67536701365185
 72
     1
 10
-51.66629907689639
 20
77.67536701365185
 11
-51.61463241022966
 21
77.54620034698519
 72
     1
 10
-51.61463241022966
 20
77.54620034698519
 11
-51.53713241022973
 21
77.41703368031853
 72
     1
 10
-51.53713241022973
 20
77.41703368031853
 11
-51.45963241022969
 21
77.32015868031851
 72
     1
 10
-51.45963241022969
 20
77.32015868031851
 11
-51.3821324102297
 21
77.25557534698521
 72
     1
 10
-51.3821324102297
 20
77.25557534698521
 11
-51.25296574356298
 21
77.19099201365185
 72
     1
 10
-51.25296574356298
 20
77.19099201365185
 11
-51.14963241022974
 21
77.1587003469852
 72
     1
 10
-51.14963241022974
 20
77.1587003469852
 11
-50.9687990768964
 21
77.1587003469852
 72
     1
 10
-50.9687990768964
 20
77.1587003469852
 11
-50.86546574356299
 21
77.19099201365185
 72
     1
 10
-50.86546574356299
 20
77.19099201365185
 11
-50.73629907689633
 21
77.25557534698521
 72
     1
 10
-50.73629907689633
 20
77.25557534698521
 11
-50.65879907689634
 21
77.32015868031851
 72
     1
 10
-50.65879907689634
 20
77.32015868031851
 11
-50.58129907689636
 21
77.41703368031853
 72
     1
 10
-50.58129907689636
 20
77.41703368031853
 11
-50.50379907689637
 21
77.54620034698519
 72
     1
 10
-50.50379907689637
 20
77.54620034698519
 11
-50.45213241022975
 21
77.67536701365185
 72
     1
 10
-50.45213241022975
 20
77.67536701365185
 11
-50.40046574356302
 21
77.83682534698522
 72
     1
 10
-50.40046574356302
 20
77.83682534698522
 11
-50.37463241022965
 21
78.03057534698519
 72
     1
 10
-50.37463241022965
 20
78.03057534698519
 11
-50.3487990768964
 21
78.32120034698522
 72
     1
 10
-50.3487990768964
 20
78.32120034698522
 11
-50.3487990768964
 21
78.57953368031855
 72
     1
 10
-50.3487990768964
 20
78.57953368031855
 11
-50.37463241022965
 21
78.87015868031853
 72
     1
 10
-50.37463241022965
 20
78.87015868031853
 11
-50.40046574356302
 21
79.06390868031855
 72
     1
 10
-50.40046574356302
 20
79.06390868031855
 11
-50.45213241022975
 21
79.22536701365186
 72
     1
 10
-50.45213241022975
 20
79.22536701365186
 11
-50.50379907689637
 21
79.35453368031853
 72
     1
 10
-50.50379907689637
 20
79.35453368031853
 11
-50.58129907689636
 21
79.48370034698519
 72
     1
 10
-50.58129907689636
 20
79.48370034698519
 11
-50.65879907689634
 21
79.5805753469852
 72
     1
 10
-50.65879907689634
 20
79.5805753469852
 11
-50.73629907689633
 21
79.64515868031856
 72
     1
 10
-50.73629907689633
 20
79.64515868031856
 11
-50.86546574356299
 21
79.70974201365186
 97
       40
330
147
330
148
330
149
330
14A
330
14B
330
14C
330
14D
330
14E
330
14F
330
150
330
151
330
152
330
153
330
154
330
12D
330
12E
330
12F
330
130
330
131
330
132
330
133
330
134
330
135
330
136
330
137
330
138
330
139
330
13A
330
13B
330
13C
330
13D
330
13E
330
13F
330
140
330
141
330
142
330
143
330
144
330
145
330
146
 92
       16
 93
       24
 72
     1
 10
-50.9687990768964
 20
77.48161701365188
 11
-50.86546574356299
 21
77.54620034698519
 72
     1
 10
-50.86546574356299
 20
77.54620034698519
 11
-50.7621324102297
 21
77.6430753469852
 72
     1
 10
-50.7621324102297
 20
77.6430753469852
 11
-50.71046574356296
 21
77.73995034698521
 72
     1
 10
-50.71046574356296
 20
77.73995034698521
 11
-50.65879907689634
 21
77.90140868031853
 72
     1
 10
-50.65879907689634
 20
77.90140868031853
 11
-50.63296574356303
 21
78.25661701365186
 72
     1
 10
-50.63296574356303
 20
78.25661701365186
 11
-50.63296574356303
 21
78.64411701365185
 72
     1
 10
-50.63296574356303
 20
78.64411701365185
 11
-50.65879907689634
 21
78.99932534698519
 72
     1
 10
-50.65879907689634
 20
78.99932534698519
 11
-50.71046574356296
 21
79.16078368031856
 72
     1
 10
-50.71046574356296
 20
79.16078368031856
 11
-50.7621324102297
 21
79.25765868031851
 72
     1
 10
-50.7621324102297
 20
79.25765868031851
 11
-50.86546574356299
 21
79.35453368031853
 72
     1
 10
-50.86546574356299
 20
79.35453368031853
 11
-50.9687990768964
 21
79.41911701365188
 72
     1
 10
-50.9687990768964
 20
79.41911701365188
 11
-51.14963241022974
 21
79.41911701365188
 72
     1
 10
-51.14963241022974
 20
79.41911701365188
 11
-51.25296574356298
 21
79.35453368031853
 72
     1
 10
-51.25296574356298
 20
79.35453368031853
 11
-51.35629907689639
 21
79.25765868031851
 72
     1
 10
-51.35629907689639
 20
79.25765868031851
 11
-51.40796574356307
 21
79.16078368031856
 72
     1
 10
-51.40796574356307
 20
79.16078368031856
 11
-51.45963241022969
 21
78.99932534698519
 72
     1
 10
-51.45963241022969
 20
78.99932534698519
 11
-51.48546574356305
 21
78.64411701365185
 72
     1
 10
-51.48546574356305
 20
78.64411701365185
 11
-51.48546574356305
 21
78.25661701365186
 72
     1
 10
-51.48546574356305
 20
78.25661701365186
 11
-51.45963241022969
 21
77.90140868031853
 72
     1
 10
-51.45963241022969
 20
77.90140868031853
 11
-51.40796574356307
 21
77.73995034698521
 72
     1
 10
-51.40796574356307
 20
77.73995034698521
 11
-51.35629907689639
 21
77.6430753469852
 72
     1
 10
-51.35629907689639
 20
77.6430753469852
 11
-51.25296574356298
 21
77.54620034698519
 72
     1
 10
-51.25296574356298
 20
77.54620034698519
 11
-51.14963241022974
 21
77.48161701365188
 72
     1
 10
-51.14963241022974
 20
77.48161701365188
 11
-50.9687990768964
 21
77.48161701365188
 97
       24
330
155
330
156
330
157
330
158
330
159
330
15A
330
15B
330
15C
330
15D
330
15E
330
15F
330
160
330
161
330
162
330
163
330
164
330
165
330
166
330
167
330
168
330
169
330
16A
330
16B
330
16C
 75
     0
 76
     1
 98
        1
 10
0.0
 20
0.0
  0
HATCH
  5
354
330
1F
100
AcDbEntity
  8
1
  6
Continuous
 62
     4
100
AcDbHatch
 10
0.0
 20
0.0
 30
0.0
210
0.0
220
0.0
230
1.0
  2
SOLID
 70
     1
 71
     1
 91
        1
 92
        1
 93
       67
 72
     1
 10
-52.84602129911855
 20
79.74203368031851
 11
-53.00102129911863
 21
79.74203368031851
 72
     1
 10
-53.00102129911863
 20
79.74203368031851
 11
-53.13018796578524
 21
79.70974201365186
 72
     1
 10
-53.13018796578524
 20
79.70974201365186
 11
-53.28518796578521
 21
79.61286701365185
 72
     1
 10
-53.28518796578521
 20
79.61286701365185
 11
-53.38852129911857
 21
79.48370034698519
 72
     1
 10
-53.38852129911857
 20
79.48370034698519
 11
-53.49185463245192
 21
79.28995034698522
 72
     1
 10
-53.49185463245192
 20
79.28995034698522
 11
-53.51768796578529
 21
79.12849201365185
 72
     1
 10
-53.51768796578529
 20
79.12849201365185
 11
-53.51768796578529
 21
78.99932534698519
 72
     1
 10
-53.51768796578529
 20
78.99932534698519
 11
-53.23352129911859
 21
78.99932534698519
 72
     1
 10
-53.23352129911859
 20
78.99932534698519
 11
-53.23352129911859
 21
79.12849201365185
 72
     1
 10
-53.23352129911859
 20
79.12849201365185
 11
-53.20768796578523
 21
79.22536701365186
 72
     1
 10
-53.20768796578523
 20
79.22536701365186
 11
-53.15602129911861
 21
79.32224201365187
 72
     1
 10
-53.15602129911861
 20
79.32224201365187
 11
-53.07852129911856
 21
79.38682534698523
 72
     1
 10
-53.07852129911856
 20
79.38682534698523
 11
-52.97518796578527
 21
79.41911701365188
 72
     1
 10
-52.97518796578527
 20
79.41911701365188
 11
-52.87185463245191
 21
79.41911701365188
 72
     1
 10
-52.87185463245191
 20
79.41911701365188
 11
-52.76852129911856
 21
79.38682534698523
 72
     1
 10
-52.76852129911856
 20
79.38682534698523
 11
-52.69102129911863
 21
79.32224201365187
 72
     1
 10
-52.69102129911863
 20
79.32224201365187
 11
-52.63935463245196
 21
79.22536701365186
 72
     1
 10
-52.63935463245196
 20
79.22536701365186
 11
-52.61352129911859
 21
79.12849201365185
 72
     1
 10
-52.61352129911859
 20
79.12849201365185
 11
-52.61352129911859
 21
78.99932534698519
 72
     1
 10
-52.61352129911859
 20
78.99932534698519
 11
-52.63935463245196
 21
78.90245034698523
 72
     1
 10
-52.63935463245196
 20
78.90245034698523
 11
-52.69102129911863
 21
78.80557534698522
 72
     1
 10
-52.69102129911863
 20
78.80557534698522
 11
-52.76852129911856
 21
78.74099201365186
 72
     1
 10
-52.76852129911856
 20
78.74099201365186
 11
-52.87185463245191
 21
78.70870034698521
 72
     1
 10
-52.87185463245191
 20
78.70870034698521
 11
-52.97518796578527
 21
78.70870034698521
 72
     1
 10
-52.97518796578527
 20
78.70870034698521
 11
-52.97518796578527
 21
78.41807534698523
 72
     1
 10
-52.97518796578527
 20
78.41807534698523
 11
-52.87185463245191
 21
78.41807534698523
 72
     1
 10
-52.87185463245191
 20
78.41807534698523
 11
-52.74268796578531
 21
78.38578368031853
 72
     1
 10
-52.74268796578531
 20
78.38578368031853
 11
-52.63935463245196
 21
78.28890868031851
 72
     1
 10
-52.63935463245196
 20
78.28890868031851
 11
-52.56185463245197
 21
78.15974201365185
 72
     1
 10
-52.56185463245197
 20
78.15974201365185
 11
-52.5360212991186
 21
78.03057534698519
 72
     1
 10
-52.5360212991186
 20
78.03057534698519
 11
-52.5360212991186
 21
77.90140868031853
 72
     1
 10
-52.5360212991186
 20
77.90140868031853
 11
-52.56185463245197
 21
77.77224201365186
 72
     1
 10
-52.56185463245197
 20
77.77224201365186
 11
-52.63935463245196
 21
77.6430753469852
 72
     1
 10
-52.63935463245196
 20
77.6430753469852
 11
-52.74268796578531
 21
77.54620034698519
 72
     1
 10
-52.74268796578531
 20
77.54620034698519
 11
-52.87185463245191
 21
77.51390868031854
 72
     1
 10
-52.87185463245191
 20
77.51390868031854
 11
-52.97518796578527
 21
77.51390868031854
 72
     1
 10
-52.97518796578527
 20
77.51390868031854
 11
-53.10435463245199
 21
77.54620034698519
 72
     1
 10
-53.10435463245199
 20
77.54620034698519
 11
-53.20768796578523
 21
77.6430753469852
 72
     1
 10
-53.20768796578523
 20
77.6430753469852
 11
-53.28518796578521
 21
77.77224201365186
 72
     1
 10
-53.28518796578521
 20
77.77224201365186
 11
-53.31102129911858
 21
77.90140868031853
 72
     1
 10
-53.31102129911858
 20
77.90140868031853
 11
-53.31102129911858
 21
78.03057534698519
 72
     1
 10
-53.31102129911858
 20
78.03057534698519
 11
-53.62102129911864
 21
78.03057534698519
 72
     1
 10
-53.62102129911864
 20
78.03057534698519
 11
-53.62102129911864
 21
77.86911701365187
 72
     1
 10
-53.62102129911864
 20
77.86911701365187
 11
-53.56935463245196
 21
77.6430753469852
 72
     1
 10
-53.56935463245196
 20
77.6430753469852
 11
-53.49185463245192
 21
77.48161701365188
 72
     1
 10
-53.49185463245192
 20
77.48161701365188
 11
-53.3626879657852
 21
77.32015868031851
 72
     1
 10
-53.3626879657852
 20
77.32015868031851
 11
-53.20768796578523
 21
77.22328368031856
 72
     1
 10
-53.20768796578523
 20
77.22328368031856
 11
-53.00102129911863
 21
77.1587003469852
 72
     1
 10
-53.00102129911863
 20
77.1587003469852
 11
-52.84602129911855
 21
77.1587003469852
 72
     1
 10
-52.84602129911855
 20
77.1587003469852
 11
-52.63935463245196
 21
77.22328368031856
 72
     1
 10
-52.63935463245196
 20
77.22328368031856
 11
-52.48435463245198
 21
77.32015868031851
 72
     1
 10
-52.48435463245198
 20
77.32015868031851
 11
-52.35518796578526
 21
77.48161701365188
 72
     1
 10
-52.35518796578526
 20
77.48161701365188
 11
-52.27768796578528
 21
77.6430753469852
 72
     1
 10
-52.27768796578528
 20
77.6430753469852
 11
-52.22602129911854
 21
77.86911701365187
 72
     1
 10
-52.22602129911854
 20
77.86911701365187
 11
-52.22602129911854
 21
78.03057534698519
 72
     1
 10
-52.22602129911854
 20
78.03057534698519
 11
-52.27768796578528
 21
78.25661701365186
 72
     1
 10
-52.27768796578528
 20
78.25661701365186
 11
-52.38102129911857
 21
78.45036701365188
 72
     1
 10
-52.38102129911857
 20
78.45036701365188
 11
-52.51018796578524
 21
78.57953368031855
 72
     1
 10
-52.51018796578524
 20
78.57953368031855
 11
-52.45852129911862
 21
78.64411701365185
 72
     1
 10
-52.45852129911862
 20
78.64411701365185
 11
-52.35518796578526
 21
78.83786701365187
 72
     1
 10
-52.35518796578526
 20
78.83786701365187
 11
-52.3293546324519
 21
78.99932534698519
 72
     1
 10
-52.3293546324519
 20
78.99932534698519
 11
-52.3293546324519
 21
79.12849201365185
 72
     1
 10
-52.3293546324519
 20
79.12849201365185
 11
-52.35518796578526
 21
79.28995034698522
 72
     1
 10
-52.35518796578526
 20
79.28995034698522
 11
-52.45852129911862
 21
79.48370034698519
 72
     1
 10
-52.45852129911862
 20
79.48370034698519
 11
-52.56185463245197
 21
79.61286701365185
 72
     1
 10
-52.56185463245197
 20
79.61286701365185
 11
-52.71685463245194
 21
79.70974201365186
 72
     1
 10
-52.71685463245194
 20
79.70974201365186
 11
-52.84602129911855
 21
79.74203368031851
 97
       67
330
187
330
188
330
189
330
18A
330
18B
330
18C
330
18D
330
18E
330
18F
330
190
330
191
330
192
330
193
330
194
330
195
330
196
330
197
330
198
330
199
330
19A
330
19B
330
19C
330
19D
330
19E
330
19F
330
1A0
330
1A1
330
1A2
330
1A3
330
1A4
330
1A5
330
1A6
330
1A7
330
1A8
330
1A9
330
1AA
330
1AB
330
1AC
330
1AD
330
1AE
330
1AF
330
16D
330
16E
330
16F
330
170
330
171
330
172
330
173
330
174
330
175
330
176
330
177
330
178
330
179
330
17A
330
17B
330
17C
330
17D
330
17E
330
17F
330
180
330
181
330
182
330
183
330
184
330
185
330
186
 75
     0
 76
     1
 98
        1
 10
0.0
 20
0.0
  0
HATCH
  5
355
330
1F
100
AcDbEntity
  8
1
  6
Continuous
 62
     4
100
AcDbHatch
 10
0.0
 20
0.0
 30
0.0
210
0.0
220
0.0
230
1.0
  2
SOLID
 70
     1
 71
     1
 91
        1
 92
        1
 93
        4
 72
     1
 10
-57.40129907689641
 20
78.38578368031853
 11
-57.40129907689641
 21
78.09515868031855
 72
     1
 10
-57.40129907689641
 20
78.09515868031855
 11
-55.670465743563
 21
78.09515868031855
 72
     1
 10
-55.670465743563
 20
78.09515868031855
 11
-55.670465743563
 21
78.38578368031853
 72
     1
 10
-55.670465743563
 20
78.38578368031853
 11
-57.40129907689641
 21
78.38578368031853
 97
        4
330
1B0
330
1B1
330
1B2
330
1B3
 75
     0
 76
     1
 98
        1
 10
0.0
 20
0.0
  0
HATCH
  5
356
330
1F
100
AcDbEntity
  8
1
  6
Continuous
 62
     4
100
AcDbHatch
 10
0.0
 20
0.0
 30
0.0
210
0.0
220
0.0
230
1.0
  2
SOLID
 70
     1
 71
     1
 91
        1
 92
        1
 93
        4
 72
     1
 10
-62.5162990768963
 20
77.1587003469852
 11
-62.25796574356303
 21
77.1587003469852
 72
     1
 10
-62.25796574356303
 20
77.1587003469852
 11
-61.2649506268483
 21
79.641238138772
 72
     1
 10
-61.2649506268483
 20
79.641238138772
 11
-61.52328396018163
 21
79.641238138772
 72
     1
 10
-61.52328396018163
 20
79.641238138772
 11
-62.5162990768963
 21
77.1587003469852
 97
        4
330
1B5
330
1B6
330
1B7
330
1B4
 75
     0
 76
     1
 98
        1
 10
0.0
 20
0.0
  0
HATCH
  5
357
330
1F
100
AcDbEntity
  8
1
  6
Continuous
 62
     4
100
AcDbHatch
 10
0.0
 20
0.0
 30
0.0
210
0.0
220
0.0
230
1.0
  2
SOLID
 70
     1
 71
     1
 91
        1
 92
        1
 93
       12
 72
     1
 10
-64.3518450627497
 20
82.37471622922521
 11
-64.3518450627497
 21
80.65870034698526
 72
     1
 10
-64.3518450627497
 20
80.65870034698526
 11
-63.61626976162972
 21
80.65870034698526
 72
     1
 10
-63.61626976162972
 20
80.65870034698526
 11
-63.61626976162972
 21
81.39403078282521
 72
     1
 10
-63.61626976162972
 20
81.39403078282521
 11
-62.29291984239762
 21
81.39403078282521
 72
     1
 10
-62.29291984239762
 20
81.39403078282521
 11
-62.29291984239762
 21
80.65870034698526
 72
     1
 10
-62.29291984239762
 20
80.65870034698526
 11
-61.55734454127764
 21
80.65870034698526
 72
     1
 10
-61.55734454127764
 20
80.65870034698526
 11
-61.55734454127764
 21
82.37471622922521
 72
     1
 10
-61.55734454127764
 20
82.37471622922521
 11
-62.29291984239762
 21
82.37471622922521
 72
     1
 10
-62.29291984239762
 20
82.37471622922521
 11
-62.29291984239762
 21
81.63938579338526
 72
     1
 10
-62.29291984239762
 20
81.63938579338526
 11
-63.61626976162972
 21
81.63938579338526
 72
     1
 10
-63.61626976162972
 20
81.63938579338526
 11
-63.61626976162972
 21
82.37471622922521
 72
     1
 10
-63.61626976162972
 20
82.37471622922521
 11
-64.3518450627497
 21
82.37471622922521
 97
       12
330
1B9
330
1BA
330
1BB
330
1BC
330
1BD
330
1BE
330
1BF
330
1C0
330
1C1
330
1C2
330
1C3
330
1B8
 75
     0
 76
     1
 98
        1
 10
0.0
 20
0.0
  0
HATCH
  5
358
330
1F
100
AcDbEntity
  8
1
  6
Continuous
 62
     4
100
AcDbHatch
 10
0.0
 20
0.0
 30
0.0
210
0.0
220
0.0
230
1.0
  2
SOLID
 70
     1
 71
     1
 91
        2
 92
        1
 93
        8
 72
     1
 10
-58.70997642792543
 20
82.37471622922521
 11
-57.6803668985815
 21
80.65870034698526
 72
     1
 10
-57.6803668985815
 20
80.65870034698526
 11
-58.57133606224602
 21
80.65870034698526
 72
     1
 10
-58.57133606224602
 20
80.65870034698526
 11
-58.80664180171476
 21
81.05087657943318
 72
     1
 10
-58.80664180171476
 20
81.05087657943318
 11
-60.11893316697956
 21
81.05087657943318
 72
     1
 10
-60.11893316697956
 20
81.05087657943318
 11
-60.37384771807081
 21
80.65870034698526
 72
     1
 10
-60.37384771807081
 20
80.65870034698526
 11
-60.86615278080467
 21
80.65870034698526
 72
     1
 10
-60.86615278080467
 20
80.65870034698526
 11
-59.75074245734868
 21
82.37471622922521
 72
     1
 10
-59.75074245734868
 20
82.37471622922521
 11
-58.70997642792543
 21
82.37471622922521
 97
        8
330
1C5
330
1C6
330
1C7
330
1C8
330
1C9
330
1CA
330
1CB
330
1C4
 92
       16
 93
        3
 72
     1
 10
-59.43654165704186
 20
82.10070967164506
 11
-58.92444159061711
 21
81.24720956093722
 72
     1
 10
-58.92444159061711
 20
81.24720956093722
 11
-59.99131672900182
 21
81.24720956093722
 72
     1
 10
-59.99131672900182
 20
81.24720956093722
 11
-59.43654165704186
 21
82.10070967164506
 97
        3
330
1CD
330
1CC
330
1CE
 75
     0
 76
     1
 98
        1
 10
0.0
 20
0.0
  0
HATCH
  5
359
330
1F
100
AcDbEntity
  8
1
  6
Continuous
 62
     4
100
AcDbHatch
 10
0.0
 20
0.0
 30
0.0
210
0.0
220
0.0
230
1.0
  2
SOLID
 70
     1
 71
     1
 91
        1
 92
        1
 93
       15
 72
     1
 10
-53.5177317760938
 20
82.37471622922521
 11
-53.5177317760938
 21
80.65870034698526
 72
     1
 10
-53.5177317760938
 20
80.65870034698526
 11
-54.25330707721366
 21
80.65870034698526
 72
     1
 10
-54.25330707721366
 20
80.65870034698526
 11
-54.25330707721366
 21
82.11964822922522
 72
     1
 10
-54.25330707721366
 20
82.11964822922522
 11
-54.44947395829672
 21
82.11964822922522
 72
     1
 10
-54.44947395829672
 20
82.11964822922522
 11
-54.95324909010378
 21
80.65870034698526
 72
     1
 10
-54.95324909010378
 20
80.65870034698526
 11
-55.85994026746931
 21
80.65870034698526
 72
     1
 10
-55.85994026746931
 20
80.65870034698526
 11
-56.41409291245691
 21
82.11964822922522
 72
     1
 10
-56.41409291245691
 20
82.11964822922522
 11
-56.60611960662163
 21
82.11964822922522
 72
     1
 10
-56.60611960662163
 20
82.11964822922522
 11
-56.60611960662163
 21
80.65870034698526
 72
     1
 10
-56.60611960662163
 20
80.65870034698526
 11
-57.0475627334057
 21
80.65870034698526
 72
     1
 10
-57.0475627334057
 20
80.65870034698526
 11
-57.0475627334057
 21
82.37471622922521
 72
     1
 10
-57.0475627334057
 20
82.37471622922521
 11
-55.74032383709994
 21
82.37471622922521
 72
     1
 10
-55.74032383709994
 20
82.37471622922521
 11
-55.28264725474969
 21
80.91015116570406
 72
     1
 10
-55.28264725474969
 20
80.91015116570406
 11
-54.82497067239933
 21
82.37471622922521
 72
     1
 10
-54.82497067239933
 20
82.37471622922521
 11
-53.5177317760938
 21
82.37471622922521
 97
       15
330
1D3
330
1D4
330
1EB
330
1EA
330
1D5
330
1D6
330
1EC
330
1E9
330
1D7
330
1D8
330
1D9
330
1CF
330
1D0
330
1D1
330
1D2
 75
     0
 76
     1
 98
        1
 10
0.0
 20
0.0
  0
HATCH
  5
35A
330
1F
100
AcDbEntity
  8
1
  6
Continuous
 62
     4
100
AcDbHatch
 10
0.0
 20
0.0
 30
0.0
210
0.0
220
0.0
230
1.0
  2
SOLID
 70
     1
 71
     1
 91
        2
 92
        1
 93
        8
 72
     1
 10
-50.67036366274152
 20
82.37471622922521
 11
-51.71112969216466
 21
82.37471622922521
 72
     1
 10
-51.71112969216466
 20
82.37471622922521
 11
-52.82654001562071
 21
80.65870034698526
 72
     1
 10
-52.82654001562071
 20
80.65870034698526
 11
-52.33423495288673
 21
80.65870034698526
 72
     1
 10
-52.33423495288673
 20
80.65870034698526
 11
-52.07932040179549
 21
81.05087657943318
 72
     1
 10
-52.07932040179549
 20
81.05087657943318
 11
-50.76702903653074
 21
81.05087657943318
 72
     1
 10
-50.76702903653074
 20
81.05087657943318
 11
-50.53172329706183
 21
80.65870034698526
 72
     1
 10
-50.53172329706183
 20
80.65870034698526
 11
-49.64075413339754
 21
80.65870034698526
 72
     1
 10
-49.64075413339754
 20
80.65870034698526
 11
-50.67036366274152
 21
82.37471622922521
 97
        8
330
1DD
330
1DE
330
1DF
330
1E0
330
1E1
330
1DA
330
1DB
330
1DC
 92
       16
 93
        3
 72
     1
 10
-51.95170396381798
 20
81.24720956093722
 11
-51.39692889185767
 21
82.10070967164506
 72
     1
 10
-51.39692889185767
 20
82.10070967164506
 11
-50.88482882543303
 21
81.24720956093722
 72
     1
 10
-50.88482882543303
 20
81.24720956093722
 11
-51.95170396381798
 21
81.24720956093722
 97
        3
330
1E3
330
1E2
330
1E4
 75
     0
 76
     1
 98
        1
 10
0.0
 20
0.0
  0
HATCH
  5
35B
330
1F
100
AcDbEntity
  8
1
  6
Continuous
 62
     4
100
AcDbHatch
 10
0.0
 20
0.0
 30
0.0
210
0.0
220
0.0
230
1.0
  2
SOLID
 70
     1
 71
     1
 91
        1
 92
        1
 93
        4
 72
     1
 10
-48.2723746671017
 20
82.03156202583318
 11
-48.2723746671017
 21
80.65870034698526
 72
     1
 10
-48.2723746671017
 20
80.65870034698526
 11
-49.00794996822174
 21
80.65870034698526
 72
     1
 10
-49.00794996822174
 20
80.65870034698526
 11
-49.00794996822174
 21
82.03156202583318
 72
     1
 10
-49.00794996822174
 20
82.03156202583318
 11
-48.2723746671017
 21
82.03156202583318
 97
        4
330
1E6
330
1E7
330
1E8
330
1E5
 75
     0
 76
     1
 98
        1
 10
0.0
 20
0.0
  0
HATCH
  5
35C
330
1F
100
AcDbEntity
  8
1
  6
Continuous
 62
     4
100
AcDbHatch
 10
0.0
 20
0.0
 30
0.0
210
0.0
220
0.0
230
1.0
  2
SOLID
 70
     1
 71
     1
 91
        1
 92
        1
 93
       11
 72
     1
 10
-63.81315183135166
 20
79.78254751838153
 11
-63.65475183135175
 21
79.78254751838153
 72
     1
 10
-63.65475183135175
 20
79.78254751838153
 11
-63.65475183135175
 21
77.18859403000943
 72
     1
 10
-63.65475183135175
 20
77.18859403000943
 11
-63.95835183135171
 21
77.18859403000943
 72
     1
 10
-63.95835183135171
 20
77.18859403000943
 11
-63.95835183135171
 21
79.16859403000944
 72
     1
 10
-63.95835183135171
 20
79.16859403000944
 11
-64.34115183135168
 21
79.16859403000944
 72
     1
 10
-64.34115183135168
 20
79.16859403000944
 11
-64.34115183135168
 21
79.3681289137304
 72
     1
 10
-64.34115183135168
 20
79.3681289137304
 11
-64.22235183135172
 21
79.3681289137304
 72
     1
 10
-64.22235183135172
 20
79.3681289137304
 11
-64.07715183135167
 21
79.398826588149
 72
     1
 10
-64.07715183135167
 20
79.398826588149
 11
-63.94515183135172
 21
79.49091961140482
 72
     1
 10
-63.94515183135172
 20
79.49091961140482
 11
-63.85275183135173
 21
79.62905914628851
 72
     1
 10
-63.85275183135173
 20
79.62905914628851
 11
-63.81315183135166
 21
79.78254751838153
 97
       11
330
1EF
330
1F0
330
1F1
330
1F2
330
1F3
330
1F4
330
1F5
330
1F6
330
1F7
330
1ED
330
1EE
 75
     0
 76
     1
 98
        1
 10
0.0
 20
0.0
  0
HATCH
  5
35D
330
1F
100
AcDbEntity
  8
1
  6
Continuous
 62
     4
100
AcDbHatch
 10
0.0
 20
0.0
 30
0.0
210
0.0
220
0.0
230
1.0
  2
SOLID
 70
     1
 71
     1
 91
        1
 92
        1
 93
       35
 72
     1
 10
-59.69682057569798
 20
79.58301263466063
 11
-59.57802057569791
 21
79.35278007652107
 72
     1
 10
-59.57802057569791
 20
79.35278007652107
 11
-59.52522057569797
 21
79.09184984396296
 72
     1
 10
-59.52522057569797
 20
79.09184984396296
 11
-59.57802057569791
 21
78.75417542535831
 72
     1
 10
-59.57802057569791
 20
78.75417542535831
 11
-59.72322057569795
 21
78.46254751838154
 72
     1
 10
-59.72322057569795
 20
78.46254751838154
 11
-59.90802057569795
 21
78.2169661230327
 72
     1
 10
-59.90802057569795
 20
78.2169661230327
 11
-60.09282057569794
 21
77.97138472768387
 72
     1
 10
-60.09282057569794
 20
77.97138472768387
 11
-60.19842057569792
 21
77.83324519280018
 72
     1
 10
-60.19842057569792
 20
77.83324519280018
 11
-60.30402057569791
 21
77.71045449512576
 72
     1
 10
-60.30402057569791
 20
77.71045449512576
 11
-60.3964205756979
 21
77.58766379745134
 72
     1
 10
-60.3964205756979
 20
77.58766379745134
 11
-60.44922057569789
 21
77.46487309977692
 72
     1
 10
-60.44922057569789
 20
77.46487309977692
 11
-59.48562057569791
 21
77.46487309977692
 72
     1
 10
-59.48562057569791
 20
77.46487309977692
 11
-59.48562057569791
 21
77.15789635559088
 72
     1
 10
-59.48562057569791
 20
77.15789635559088
 11
-60.80562057569796
 21
77.15789635559088
 72
     1
 10
-60.80562057569796
 20
77.15789635559088
 11
-60.80562057569796
 21
77.43417542535826
 72
     1
 10
-60.80562057569796
 20
77.43417542535826
 11
-60.73962057569793
 21
77.60301263466062
 72
     1
 10
-60.73962057569793
 20
77.60301263466062
 11
-60.5812205756979
 21
77.84859403000945
 72
     1
 10
-60.5812205756979
 20
77.84859403000945
 11
-60.29082057569792
 21
78.2169661230327
 72
     1
 10
-60.29082057569792
 20
78.2169661230327
 11
-60.05322057569788
 21
78.52394286721875
 72
     1
 10
-60.05322057569788
 20
78.52394286721875
 11
-59.89482057569796
 21
78.80022193698619
 72
     1
 10
-59.89482057569796
 20
78.80022193698619
 11
-59.84202057569792
 21
79.09184984396296
 72
     1
 10
-59.84202057569792
 20
79.09184984396296
 11
-59.86842057569788
 21
79.26068705326526
 72
     1
 10
-59.86842057569788
 20
79.26068705326526
 11
-59.93442057569791
 21
79.398826588149
 72
     1
 10
-59.93442057569791
 20
79.398826588149
 11
-60.02682057569791
 21
79.46022193698622
 72
     1
 10
-60.02682057569791
 20
79.46022193698622
 11
-60.13242057569789
 21
79.49091961140482
 72
     1
 10
-60.13242057569789
 20
79.49091961140482
 11
-60.23802057569793
 21
79.46022193698622
 72
     1
 10
-60.23802057569793
 20
79.46022193698622
 11
-60.31722057569789
 21
79.398826588149
 72
     1
 10
-60.31722057569789
 20
79.398826588149
 11
-60.42282057569793
 21
79.18394286721878
 72
     1
 10
-60.42282057569793
 20
79.18394286721878
 11
-60.44922057569789
 21
78.87696612303273
 72
     1
 10
-60.44922057569789
 20
78.87696612303273
 11
-60.75282057569791
 21
78.87696612303273
 72
     1
 10
-60.75282057569791
 20
78.87696612303273
 11
-60.70002057569798
 21
79.27603589047459
 72
     1
 10
-60.70002057569798
 20
79.27603589047459
 11
-60.54162057569795
 21
79.58301263466063
 72
     1
 10
-60.54162057569795
 20
79.58301263466063
 11
-60.37002057569794
 21
79.72115216954433
 72
     1
 10
-60.37002057569794
 20
79.72115216954433
 11
-60.14562057569793
 21
79.76719868117226
 72
     1
 10
-60.14562057569793
 20
79.76719868117226
 11
-59.89482057569796
 21
79.72115216954433
 72
     1
 10
-59.89482057569796
 20
79.72115216954433
 11
-59.69682057569798
 21
79.58301263466063
 97
       35
330
1FE
330
1FF
330
200
330
201
330
202
330
203
330
204
330
205
330
206
330
207
330
208
330
209
330
20A
330
20B
330
20C
330
20D
330
20E
330
20F
330
210
330
211
330
212
330
213
330
214
330
215
330
216
330
217
330
218
330
219
330
21A
330
1F8
330
1F9
330
1FA
330
1FB
330
1FC
330
1FD
 75
     0
 76
     1
 98
        1
 10
0.0
 20
0.0
  0
ENDSEC
  0
SECTION
  2
OBJECTS
  0
DICTIONARY
  5
C
330
0
100
AcDbDictionary
281
     1
  3
ACAD_GROUP
350
D
  3
ACAD_LAYOUT
350
1A
  3
ACAD_MATERIAL
350
43
  3
ACAD_MLEADERSTYLE
350
360
  3
ACAD_MLINESTYLE
350
17
  3
ACAD_PLOTSETTINGS
350
19
  3
ACAD_PLOTSTYLENAME
350
E
  3
ACAD_SCALELIST
350
47
  3
ACAD_VISUALSTYLE
350
2A
  3
AcDbVariableDictionary
350
35E
  0
DICTIONARY
  5
D
102
{ACAD_REACTORS
330
C
102
}
330
C
100
AcDbDictionary
281
     1
  0
DICTIONARY
  5
1A
102
{ACAD_REACTORS
330
C
102
}
330
C
100
AcDbDictionary
281
     1
  3
Layout1
350
1E
  3
Layout2
350
26
  3
Model
350
22
  0
DICTIONARY
  5
43
102
{ACAD_REACTORS
330
C
102
}
330
C
100
AcDbDictionary
281
     1
  3
ByBlock
350
45
  3
ByLayer
350
44
  3
Global
350
46
  0
DICTIONARY
  5
360
102
{ACAD_REACTORS
330
C
102
}
330
C
100
AcDbDictionary
281
     1
  0
DICTIONARY
  5
17
102
{ACAD_REACTORS
330
C
102
}
330
C
100
AcDbDictionary
281
     1
  3
Standard
350
18
  0
DICTIONARY
  5
19
102
{ACAD_REACTORS
330
C
102
}
330
C
100
AcDbDictionary
281
     1
  0
ACDBDICTIONARYWDFLT
  5
E
102
{ACAD_REACTORS
330
C
102
}
330
C
100
AcDbDictionary
281
     1
  3
Normal
350
F
100
AcDbDictionaryWithDefault
340
F
  0
DICTIONARY
  5
47
102
{ACAD_REACTORS
330
C
102
}
330
C
100
AcDbDictionary
281
     1
  3
A0
350
48
  3
A1
350
49
  3
A2
350
4A
  3
A3
350
4B
  3
A4
350
4C
  3
A5
350
4D
  3
A6
350
4E
  3
A7
350
4F
  3
A8
350
50
  3
A9
350
51
  3
B0
350
52
  3
B1
350
53
  3
B2
350
54
  3
B3
350
55
  3
B4
350
56
  3
B5
350
57
  3
B6
350
58
  3
B7
350
59
  3
B8
350
5A
  3
B9
350
5B
  3
C0
350
5C
  3
C1
350
5D
  3
C2
350
5E
  3
C3
350
5F
  3
C4
350
60
  3
C5
350
61
  3
C6
350
62
  3
C7
350
63
  3
C8
350
64
  3
C9
350
65
  3
D0
350
66
  3
D1
350
67
  3
D2
350
68
  0
DICTIONARY
  5
2A
102
{ACAD_REACTORS
330
C
102
}
330
C
100
AcDbDictionary
281
     1
  3
2dWireframe
350
2F
  3
Basic
350
32
  3
Brighten
350
36
  3
ColorChange
350
3A
  3
Conceptual
350
34
  3
Dim
350
35
  3
EdgeColorOff
350
3D
  3
Facepattern
350
39
  3
Flat
350
2B
  3
FlatWithEdges
350
2C
  3
Gouraud
350
2D
  3
GouraudWithEdges
350
2E
  3
Hidden
350
31
  3
JitterOff
350
3B
  3
Linepattern
350
38
  3
OverhangOff
350
3C
  3
Realistic
350
33
  3
Shaded
350
42
  3
Shaded with edges
350
41
  3
Shades of Gray
350
3E
  3
Sketchy
350
3F
  3
Thicken
350
37
  3
Wireframe
350
30
  3
X-Ray
350
40
  0
DICTIONARY
  5
35E
102
{ACAD_REACTORS
330
C
102
}
330
C
100
AcDbDictionary
281
     1
  3
CANNOSCALE
350
365
  3
DIMASSOC
350
363
  3
HIDETEXT
350
364
  3
MSLTSCALE
350
366
  0
LAYOUT
  5
1E
102
{ACAD_REACTORS
330
1A
102
}
330
1A
100
AcDbPlotSettings
  1

  2
none_device
  4

  6

 40
0.0
 41
0.0
 42
0.0
 43
0.0
 44
0.0
 45
0.0
 46
0.0
 47
0.0
 48
0.0
 49
0.0
140
0.0
141
0.0
142
1.0
143
1.0
 70
   688
 72
     0
 73
     0
 74
     5
  7

 75
    16
147
1.0
148
0.0
149
0.0
100
AcDbLayout
  1
Layout1
 70
     1
 71
     1
 10
0.0
 20
0.0
 11
12.0
 21
9.0
 12
0.0
 22
0.0
 32
0.0
 14
1.00000000000000E+20
 24
1.00000000000000E+20
 34
1.00000000000000E+20
 15
-1.00000000000000E+20
 25
-1.00000000000000E+20
 35
-1.00000000000000E+20
146
0.0
 13
0.0
 23
0.0
 33
0.0
 16
1.0
 26
0.0
 36
0.0
 17
0.0
 27
1.0
 37
0.0
 76
     0
330
1B
  0
LAYOUT
  5
26
102
{ACAD_REACTORS
330
1A
102
}
330
1A
100
AcDbPlotSettings
  1

  2
none_device
  4

  6

 40
0.0
 41
0.0
 42
0.0
 43
0.0
 44
0.0
 45
0.0
 46
0.0
 47
0.0
 48
0.0
 49
0.0
140
0.0
141
0.0
142
1.0
143
1.0
 70
   688
 72
     0
 73
     0
 74
     5
  7

 75
    16
147
1.0
148
0.0
149
0.0
100
AcDbLayout
  1
Layout2
 70
     1
 71
     2
 10
0.0
 20
0.0
 11
0.0
 21
0.0
 12
0.0
 22
0.0
 32
0.0
 14
0.0
 24
0.0
 34
0.0
 15
0.0
 25
0.0
 35
0.0
146
0.0
 13
0.0
 23
0.0
 33
0.0
 16
1.0
 26
0.0
 36
0.0
 17
0.0
 27
1.0
 37
0.0
 76
     0
330
23
  0
LAYOUT
  5
22
102
{ACAD_REACTORS
330
1A
102
}
330
1A
100
AcDbPlotSettings
  1

  2
none_device
  4
Letter_(8.50_x_11.00_Inches)
  6

 40
6.35
 41
6.35
 42
6.35000508
 43
6.35000508
 44
215.9
 45
279.4
 46
0.0
 47
0.0
 48
0.0
 49
0.0
140
0.0
141
0.0
142
1.0
143
1.0
 70
  1712
 72
     0
 73
     0
 74
     0
  7

 75
     0
147
1.0
148
0.0
149
0.0
100
AcDbLayout
  1
Model
 70
     1
 71
     0
 10
0.0
 20
0.0
 11
12.0
 21
9.0
 12
0.0
 22
0.0
 32
0.0
 14
-186.925351739797
 24
-22.54048149838888
 34
0.0
 15
-38.1007975655848
 25
95.1587003469852
 35
0.0
146
0.0
 13
0.0
 23
0.0
 33
0.0
 16
1.0
 26
0.0
 36
0.0
 17
0.0
 27
1.0
 37
0.0
 76
     0
330
1F
331
29
  0
MATERIAL
  5
45
102
{ACAD_REACTORS
330
43
102
}
102
{ACAD_XDICTIONARY
360
399
102
}
330
43
100
AcDbMaterial
  1
ByBlock
  0
MATERIAL
  5
44
102
{ACAD_REACTORS
330
43
102
}
102
{ACAD_XDICTIONARY
360
397
102
}
330
43
100
AcDbMaterial
  1
ByLayer
  0
MATERIAL
  5
46
102
{ACAD_REACTORS
330
43
102
}
102
{ACAD_XDICTIONARY
360
39B
102
}
330
43
100
AcDbMaterial
  1
Global
  0
MLINESTYLE
  5
18
102
{ACAD_REACTORS
330
17
102
}
330
17
100
AcDbMlineStyle
  2
Standard
 70
     0
  3

 62
   256
 51
90.0
 52
90.0
 71
     2
 49
0.5
 62
   256
  6
BYLAYER
 49
-0.5
 62
   256
  6
BYLAYER
  0
ACDBPLACEHOLDER
  5
F
102
{ACAD_REACTORS
330
E
102
}
330
E
  0
SCALE
  5
48
102
{ACAD_REACTORS
330
47
102
}
330
47
100
AcDbScale
 70
     0
300
1:1
140
1.0
141
1.0
290
     1
  0
SCALE
  5
49
102
{ACAD_REACTORS
330
47
102
}
330
47
100
AcDbScale
 70
     0
300
1:2
140
1.0
141
2.0
290
     0
  0
SCALE
  5
4A
102
{ACAD_REACTORS
330
47
102
}
330
47
100
AcDbScale
 70
     0
300
1:4
140
1.0
141
4.0
290
     0
  0
SCALE
  5
4B
102
{ACAD_REACTORS
330
47
102
}
330
47
100
AcDbScale
 70
     0
300
1:5
140
1.0
141
5.0
290
     0
  0
SCALE
  5
4C
102
{ACAD_REACTORS
330
47
102
}
330
47
100
AcDbScale
 70
     0
300
1:8
140
1.0
141
8.0
290
     0
  0
SCALE
  5
4D
102
{ACAD_REACTORS
330
47
102
}
330
47
100
AcDbScale
 70
     0
300
1:10
140
1.0
141
10.0
290
     0
  0
SCALE
  5
4E
102
{ACAD_REACTORS
330
47
102
}
330
47
100
AcDbScale
 70
     0
300
1:16
140
1.0
141
16.0
290
     0
  0
SCALE
  5
4F
102
{ACAD_REACTORS
330
47
102
}
330
47
100
AcDbScale
 70
     0
300
1:20
140
1.0
141
20.0
290
     0
  0
SCALE
  5
50
102
{ACAD_REACTORS
330
47
102
}
330
47
100
AcDbScale
 70
     0
300
1:30
140
1.0
141
30.0
290
     0
  0
SCALE
  5
51
102
{ACAD_REACTORS
330
47
102
}
330
47
100
AcDbScale
 70
     0
300
1:40
140
1.0
141
40.0
290
     0
  0
SCALE
  5
52
102
{ACAD_REACTORS
330
47
102
}
330
47
100
AcDbScale
 70
     0
300
1:50
140
1.0
141
50.0
290
     0
  0
SCALE
  5
53
102
{ACAD_REACTORS
330
47
102
}
330
47
100
AcDbScale
 70
     0
300
1:100
140
1.0
141
100.0
290
     0
  0
SCALE
  5
54
102
{ACAD_REACTORS
330
47
102
}
330
47
100
AcDbScale
 70
     0
300
2:1
140
2.0
141
1.0
290
     0
  0
SCALE
  5
55
102
{ACAD_REACTORS
330
47
102
}
330
47
100
AcDbScale
 70
     0
300
4:1
140
4.0
141
1.0
290
     0
  0
SCALE
  5
56
102
{ACAD_REACTORS
330
47
102
}
330
47
100
AcDbScale
 70
     0
300
8:1
140
8.0
141
1.0
290
     0
  0
SCALE
  5
57
102
{ACAD_REACTORS
330
47
102
}
330
47
100
AcDbScale
 70
     0
300
10:1
140
10.0
141
1.0
290
     0
  0
SCALE
  5
58
102
{ACAD_REACTORS
330
47
102
}
330
47
100
AcDbScale
 70
     0
300
100:1
140
100.0
141
1.0
290
     0
  0
SCALE
  5
59
102
{ACAD_REACTORS
330
47
102
}
330
47
100
AcDbScale
 70
     0
300
1/128" = 1'-0"
140
0.0078125
141
12.0
290
     0
  0
SCALE
  5
5A
102
{ACAD_REACTORS
330
47
102
}
330
47
100
AcDbScale
 70
     0
300
1/64" = 1'-0"
140
0.015625
141
12.0
290
     0
  0
SCALE
  5
5B
102
{ACAD_REACTORS
330
47
102
}
330
47
100
AcDbScale
 70
     0
300
1/32" = 1'-0"
140
0.03125
141
12.0
290
     0
  0
SCALE
  5
5C
102
{ACAD_REACTORS
330
47
102
}
330
47
100
AcDbScale
 70
     0
300
1/16" = 1'-0"
140
0.0625
141
12.0
290
     0
  0
SCALE
  5
5D
102
{ACAD_REACTORS
330
47
102
}
330
47
100
AcDbScale
 70
     0
300
3/32" = 1'-0"
140
0.09375
141
12.0
290
     0
  0
SCALE
  5
5E
102
{ACAD_REACTORS
330
47
102
}
330
47
100
AcDbScale
 70
     0
300
1/8" = 1'-0"
140
0.125
141
12.0
290
     0
  0
SCALE
  5
5F
102
{ACAD_REACTORS
330
47
102
}
330
47
100
AcDbScale
 70
     0
300
3/16" = 1'-0"
140
0.1875
141
12.0
290
     0
  0
SCALE
  5
60
102
{ACAD_REACTORS
330
47
102
}
330
47
100
AcDbScale
 70
     0
300
1/4" = 1'-0"
140
0.25
141
12.0
290
     0
  0
SCALE
  5
61
102
{ACAD_REACTORS
330
47
102
}
330
47
100
AcDbScale
 70
     0
300
3/8" = 1'-0"
140
0.375
141
12.0
290
     0
  0
SCALE
  5
62
102
{ACAD_REACTORS
330
47
102
}
330
47
100
AcDbScale
 70
     0
300
1/2" = 1'-0"
140
0.5
141
12.0
290
     0
  0
SCALE
  5
63
102
{ACAD_REACTORS
330
47
102
}
330
47
100
AcDbScale
 70
     0
300
3/4" = 1'-0"
140
0.75
141
12.0
290
     0
  0
SCALE
  5
64
102
{ACAD_REACTORS
330
47
102
}
330
47
100
AcDbScale
 70
     0
300
1" = 1'-0"
140
1.0
141
12.0
290
     0
  0
SCALE
  5
65
102
{ACAD_REACTORS
330
47
102
}
330
47
100
AcDbScale
 70
     0
300
1-1/2" = 1'-0"
140
1.5
141
12.0
290
     0
  0
SCALE
  5
66
102
{ACAD_REACTORS
330
47
102
}
330
47
100
AcDbScale
 70
     0
300
3" = 1'-0"
140
3.0
141
12.0
290
     0
  0
SCALE
  5
67
102
{ACAD_REACTORS
330
47
102
}
330
47
100
AcDbScale
 70
     0
300
6" = 1'-0"
140
6.0
141
12.0
290
     0
  0
SCALE
  5
68
102
{ACAD_REACTORS
330
47
102
}
330
47
100
AcDbScale
 70
     0
300
1'-0" = 1'-0"
140
12.0
141
12.0
290
     0
  0
VISUALSTYLE
  5
2F
102
{ACAD_REACTORS
330
2A
102
}
102
{ACAD_XDICTIONARY
360
36F
102
}
330
2A
100
AcDbVisualStyle
  2
2dWireframe
 70
     4
 71
     0
 72
     2
 73
     0
 90
        0
 40
0.6
 41
30.0
 62
     5
 63
     7
 74
     1
 91
        4
 64
     7
 65
   257
 75
     1
175
     1
 42
1.0
 92
        0
 66
   257
 43
1.0
 76
     1
 77
     6
 78
     2
 67
     7
 79
     5
170
     0
171
     0
290
     0
174
     0
 93
        1
 44
0.0
173
     0
291
     0
 45
0.0
1001
ACAD
1000
AcDbSavedByObjectVersion
1070
     0
  0
VISUALSTYLE
  5
32
102
{ACAD_REACTORS
330
2A
102
}
102
{ACAD_XDICTIONARY
360
375
102
}
330
2A
100
AcDbVisualStyle
  2
Basic
 70
     7
 71
     1
 72
     0
 73
     1
 90
        0
 40
0.6
 41
30.0
 62
     5
 63
     7
 74
     0
 91
        4
 64
     7
 65
   257
 75
     1
175
     1
 42
1.0
 92
        8
 66
     7
 43
1.0
 76
     1
 77
     6
 78
     2
 67
     7
 79
     5
170
     0
171
     0
290
     0
174
     0
 93
        1
 44
0.0
173
     0
291
     1
 45
0.0
1001
ACAD
1000
AcDbSavedByObjectVersion
1070
     0
  0
VISUALSTYLE
  5
36
102
{ACAD_REACTORS
330
2A
102
}
102
{ACAD_XDICTIONARY
360
37D
102
}
330
2A
100
AcDbVisualStyle
  2
Brighten
 70
    12
 71
     2
 72
     2
 73
     0
 90
        0
 40
0.6
 41
30.0
 62
     5
 63
     7
 74
     1
 91
        4
 64
     7
 65
   257
 75
     1
175
     1
 42
1.0
 92
        8
 66
     7
 43
1.0
 76
     1
 77
     6
 78
     2
 67
     7
 79
     5
170
     0
171
     0
290
     0
174
     0
 93
        1
 44
50.0
173
     0
291
     1
 45
0.0
1001
ACAD
1000
AcDbSavedByObjectVersion
1070
     0
  0
VISUALSTYLE
  5
3A
102
{ACAD_REACTORS
330
2A
102
}
102
{ACAD_XDICTIONARY
360
385
102
}
330
2A
100
AcDbVisualStyle
  2
ColorChange
 70
    16
 71
     2
 72
     2
 73
     3
 90
        0
 40
0.6
 41
30.0
 62
     5
 63
     8
 74
     1
 91
        4
 64
     7
 65
   257
 75
     1
175
     1
 42
1.0
 92
        8
 66
     8
 43
1.0
 76
     1
 77
     6
 78
     2
 67
     7
 79
     5
170
     0
171
     0
290
     0
174
     0
 93
        1
 44
0.0
173
     0
291
     1
 45
0.0
1001
ACAD
1000
AcDbSavedByObjectVersion
1070
     0
  0
VISUALSTYLE
  5
34
102
{ACAD_REACTORS
330
2A
102
}
102
{ACAD_XDICTIONARY
360
379
102
}
330
2A
100
AcDbVisualStyle
  2
Conceptual
 70
     9
 71
     3
 72
     2
 73
     0
 90
        0
 40
0.6
 41
30.0
 62
     5
 63
     7
 74
     2
 91
        2
 64
     7
 65
   257
 75
     1
175
     1
 42
179.0
 92
        8
 66
     7
 43
1.0
 76
     1
 77
     6
 78
     2
 67
     7
 79
     3
170
     0
171
     0
290
     0
174
     0
 93
        1
 44
0.0
173
     0
291
     0
 45
0.0
1001
ACAD
1000
AcDbSavedByObjectVersion
1070
     0
  0
VISUALSTYLE
  5
35
102
{ACAD_REACTORS
330
2A
102
}
102
{ACAD_XDICTIONARY
360
37B
102
}
330
2A
100
AcDbVisualStyle
  2
Dim
 70
    11
 71
     2
 72
     2
 73
     0
 90
        0
 40
0.6
 41
30.0
 62
     5
 63
     7
 74
     1
 91
        4
 64
     7
 65
   257
 75
     1
175
     1
 42
1.0
 92
        8
 66
     7
 43
1.0
 76
     1
 77
     6
 78
     2
 67
     7
 79
     5
170
     0
171
     0
290
     0
174
     0
 93
        1
 44
-50.0
173
     0
291
     1
 45
0.0
1001
ACAD
1000
AcDbSavedByObjectVersion
1070
     0
  0
VISUALSTYLE
  5
3D
102
{ACAD_REACTORS
330
2A
102
}
102
{ACAD_XDICTIONARY
360
38B
102
}
330
2A
100
AcDbVisualStyle
  2
EdgeColorOff
 70
    22
 71
     2
 72
     2
 73
     0
 90
        0
 40
0.6
 41
30.0
 62
     5
 63
     7
 74
     1
 91
        4
 64
     7
 65
   257
 75
     1
175
     1
 42
1.0
 92
        8
 66
     7
 43
1.0
 76
     1
 77
     6
 78
     2
 67
     7
 79
     5
170
     0
171
     0
290
     0
174
     0
 93
        1
 44
0.0
173
     0
291
     1
 45
0.0
1001
ACAD
1000
AcDbSavedByObjectVersion
1070
     0
  0
VISUALSTYLE
  5
39
102
{ACAD_REACTORS
330
2A
102
}
102
{ACAD_XDICTIONARY
360
383
102
}
330
2A
100
AcDbVisualStyle
  2
Facepattern
 70
    15
 71
     2
 72
     2
 73
     0
 90
        0
 40
0.6
 41
30.0
 62
     5
 63
     7
 74
     1
 91
        4
 64
     7
 65
   257
 75
     1
175
     1
 42
1.0
 92
        8
 66
     7
 43
1.0
 76
     1
 77
     6
 78
     2
 67
     7
 79
     5
170
     0
171
     0
290
     0
174
     0
 93
        1
 44
0.0
173
     0
291
     1
 45
0.0
1001
ACAD
1000
AcDbSavedByObjectVersion
1070
     0
  0
VISUALSTYLE
  5
2B
102
{ACAD_REACTORS
330
2A
102
}
102
{ACAD_XDICTIONARY
360
367
102
}
330
2A
100
AcDbVisualStyle
  2
Flat
 70
     0
 71
     2
 72
     1
 73
     1
 90
        2
 40
0.6
 41
30.0
 62
     5
 63
     7
 74
     0
 91
        0
 64
     7
 65
   257
 75
     1
175
     1
 42
1.0
 92
        8
 66
     7
 43
1.0
 76
     1
 77
     6
 78
     2
 67
     7
 79
     5
170
     0
171
     0
290
     0
174
     0
 93
       13
 44
0.0
173
     0
291
     1
 45
0.0
1001
ACAD
1000
AcDbSavedByObjectVersion
1070
     0
  0
VISUALSTYLE
  5
2C
102
{ACAD_REACTORS
330
2A
102
}
102
{ACAD_XDICTIONARY
360
369
102
}
330
2A
100
AcDbVisualStyle
  2
FlatWithEdges
 70
     1
 71
     2
 72
     1
 73
     1
 90
        2
 40
0.6
 41
30.0
 62
     5
 63
     7
 74
     1
 91
        0
 64
     7
 65
   257
 75
     1
175
     1
 42
1.0
 92
        0
 66
   257
 43
1.0
 76
     1
 77
     6
 78
     2
 67
     7
 79
     5
170
     0
171
     0
290
     0
174
     0
 93
       13
 44
0.0
173
     0
291
     1
 45
0.0
1001
ACAD
1000
AcDbSavedByObjectVersion
1070
     0
  0
VISUALSTYLE
  5
2D
102
{ACAD_REACTORS
330
2A
102
}
102
{ACAD_XDICTIONARY
360
36B
102
}
330
2A
100
AcDbVisualStyle
  2
Gouraud
 70
     2
 71
     2
 72
     2
 73
     1
 90
        2
 40
0.6
 41
30.0
 62
     5
 63
     7
 74
     0
 91
        0
 64
     7
 65
   257
 75
     1
175
     1
 42
1.0
 92
        0
 66
     7
 43
1.0
 76
     1
 77
     6
 78
     2
 67
     7
 79
     5
170
     0
171
     0
290
     0
174
     0
 93
       13
 44
0.0
173
     0
291
     1
 45
0.0
1001
ACAD
1000
AcDbSavedByObjectVersion
1070
     0
  0
VISUALSTYLE
  5
2E
102
{ACAD_REACTORS
330
2A
102
}
102
{ACAD_XDICTIONARY
360
36D
102
}
330
2A
100
AcDbVisualStyle
  2
GouraudWithEdges
 70
     3
 71
     2
 72
     2
 73
     1
 90
        2
 40
0.6
 41
30.0
 62
     5
 63
     7
 74
     1
 91
        0
 64
     7
 65
   257
 75
     1
175
     1
 42
1.0
 92
        0
 66
   257
 43
1.0
 76
     1
 77
     6
 78
     2
 67
     7
 79
     5
170
     0
171
     0
290
     0
174
     0
 93
       13
 44
0.0
173
     0
291
     1
 45
0.0
1001
ACAD
1000
AcDbSavedByObjectVersion
1070
     0
  0
VISUALSTYLE
  5
31
102
{ACAD_REACTORS
330
2A
102
}
102
{ACAD_XDICTIONARY
360
373
102
}
330
2A
100
AcDbVisualStyle
  2
Hidden
 70
     6
 71
     1
 72
     2
 73
     2
 90
        0
 40
0.6
 41
30.0
 62
     5
 63
     7
 74
     2
 91
        2
 64
     7
 65
   257
 75
     2
175
     1
 42
40.0
 92
        0
 66
   257
 43
1.0
 76
     1
 77
     6
 78
     2
 67
     7
 79
     3
170
     0
171
     0
290
     0
174
     0
 93
        1
 44
0.0
173
     0
291
     0
 45
0.0
1001
ACAD
1000
AcDbSavedByObjectVersion
1070
     0
  0
VISUALSTYLE
  5
3B
102
{ACAD_REACTORS
330
2A
102
}
102
{ACAD_XDICTIONARY
360
387
102
}
330
2A
100
AcDbVisualStyle
  2
JitterOff
 70
    20
 71
     2
 72
     2
 73
     0
 90
        0
 40
0.6
 41
30.0
 62
     5
 63
     7
 74
     1
 91
        4
 64
     7
 65
   257
 75
     1
175
     1
 42
1.0
 92
       10
 66
     7
 43
1.0
 76
     1
 77
     6
 78
     2
 67
     7
 79
     5
170
     0
171
     0
290
     0
174
     0
 93
        1
 44
0.0
173
     0
291
     1
 45
0.0
1001
ACAD
1000
AcDbSavedByObjectVersion
1070
     0
  0
VISUALSTYLE
  5
38
102
{ACAD_REACTORS
330
2A
102
}
102
{ACAD_XDICTIONARY
360
381
102
}
330
2A
100
AcDbVisualStyle
  2
Linepattern
 70
    14
 71
     2
 72
     2
 73
     0
 90
        0
 40
0.6
 41
30.0
 62
     5
 63
     7
 74
     1
 91
        4
 64
     7
 65
   257
 75
     7
175
     7
 42
1.0
 92
        8
 66
     7
 43
1.0
 76
     1
 77
     6
 78
     2
 67
     7
 79
     5
170
     0
171
     0
290
     0
174
     0
 93
        1
 44
0.0
173
     0
291
     1
 45
0.0
1001
ACAD
1000
AcDbSavedByObjectVersion
1070
     0
  0
VISUALSTYLE
  5
3C
102
{ACAD_REACTORS
330
2A
102
}
102
{ACAD_XDICTIONARY
360
389
102
}
330
2A
100
AcDbVisualStyle
  2
OverhangOff
 70
    21
 71
     2
 72
     2
 73
     0
 90
        0
 40
0.6
 41
30.0
 62
     5
 63
     7
 74
     1
 91
        4
 64
     7
 65
   257
 75
     1
175
     1
 42
1.0
 92
        9
 66
     7
 43
1.0
 76
     1
 77
     6
 78
     2
 67
     7
 79
     5
170
     0
171
     0
290
     0
174
     0
 93
        1
 44
0.0
173
     0
291
     1
 45
0.0
1001
ACAD
1000
AcDbSavedByObjectVersion
1070
     0
  0
VISUALSTYLE
  5
33
102
{ACAD_REACTORS
330
2A
102
}
102
{ACAD_XDICTIONARY
360
377
102
}
330
2A
100
AcDbVisualStyle
  2
Realistic
 70
     8
 71
     2
 72
     3
 73
     0
 90
        2
 40
0.6
 41
30.0
 62
     5
 63
     7
 74
     0
 91
        0
 64
     7
 65
   257
 75
     1
175
     1
 42
1.0
 92
        8
 66
   257
 43
1.0
 76
     1
 77
     6
 78
     2
 67
     7
 79
     3
170
     0
171
     0
290
     0
174
     0
 93
       13
 44
0.0
173
     0
291
     0
 45
0.0
1001
ACAD
1000
AcDbSavedByObjectVersion
1070
     0
  0
VISUALSTYLE
  5
42
102
{ACAD_REACTORS
330
2A
102
}
102
{ACAD_XDICTIONARY
360
395
102
}
330
2A
100
AcDbVisualStyle
  2
Shaded
 70
    27
 71
     2
 72
     2
 73
     1
 90
        2
 40
0.6
 41
30.0
 62
     5
 63
     7
 74
     0
 91
        4
 64
     7
 65
   257
 75
     1
175
     1
 42
1.0
 92
        8
 66
   257
 43
1.0
 76
     1
 77
     6
 78
     2
 67
     8
 79
     3
170
     0
171
     0
290
     0
174
     0
 93
        5
 44
0.0
173
     0
291
     0
 45
0.0
1001
ACAD
1000
AcDbSavedByObjectVersion
1070
     0
  0
VISUALSTYLE
  5
41
102
{ACAD_REACTORS
330
2A
102
}
102
{ACAD_XDICTIONARY
360
393
102
}
330
2A
100
AcDbVisualStyle
  2
Shaded with edges
 70
    26
 71
     2
 72
     2
 73
     1
 90
        2
 40
0.6
 41
30.0
 62
     5
 63
     7
 74
     1
 91
       10
 64
     7
 65
   257
 75
     2
175
     1
 42
1.0
 92
        8
 66
   257
 43
1.0
 76
     1
 77
     6
 78
     2
 67
     7
 79
     3
170
     0
171
     0
290
     0
174
     0
 93
        5
 44
0.0
173
     0
291
     0
 45
0.0
1001
ACAD
1000
AcDbSavedByObjectVersion
1070
     0
  0
VISUALSTYLE
  5
3E
102
{ACAD_REACTORS
330
2A
102
}
102
{ACAD_XDICTIONARY
360
38D
102
}
330
2A
100
AcDbVisualStyle
  2
Shades of Gray
 70
    23
 71
     2
 72
     2
 73
     3
 90
        0
 40
0.6
 41
30.0
 62
     5
 63
     7
 74
     2
 91
        2
 64
     7
 65
     7
 75
     1
175
     1
 42
40.0
 92
        8
 66
     7
 43
1.0
 76
     1
 77
     6
 78
     2
 67
     7
 79
     3
170
     0
171
     0
290
     0
174
     0
 93
        1
 44
0.0
173
     0
291
     0
 45
0.0
1001
ACAD
1000
AcDbSavedByObjectVersion
1070
     0
  0
VISUALSTYLE
  5
3F
102
{ACAD_REACTORS
330
2A
102
}
102
{ACAD_XDICTIONARY
360
38F
102
}
330
2A
100
AcDbVisualStyle
  2
Sketchy
 70
    24
 71
     1
 72
     2
 73
     2
 90
        0
 40
0.6
 41
30.0
 62
     5
 63
     7
 74
     2
 91
        2
 64
     7
 65
     7
 75
     1
175
     1
 42
40.0
 92
       11
 66
     7
 43
1.0
 76
     1
 77
     6
 78
     2
 67
     7
 79
     6
170
     0
171
     0
290
     0
174
     0
 93
        1
 44
0.0
173
     0
291
     0
 45
0.0
1001
ACAD
1000
AcDbSavedByObjectVersion
1070
     0
  0
VISUALSTYLE
  5
37
102
{ACAD_REACTORS
330
2A
102
}
102
{ACAD_XDICTIONARY
360
37F
102
}
330
2A
100
AcDbVisualStyle
  2
Thicken
 70
    13
 71
     2
 72
     2
 73
     0
 90
        0
 40
0.6
 41
30.0
 62
     5
 63
     7
 74
     1
 91
        4
 64
     7
 65
   257
 75
     1
175
     1
 42
1.0
 92
       12
 66
     7
 43
1.0
 76
     1
 77
     6
 78
     2
 67
     7
 79
     5
170
     0
171
     0
290
     0
174
     0
 93
        1
 44
0.0
173
     0
291
     1
 45
0.0
1001
ACAD
1000
AcDbSavedByObjectVersion
1070
     0
  0
VISUALSTYLE
  5
30
102
{ACAD_REACTORS
330
2A
102
}
102
{ACAD_XDICTIONARY
360
371
102
}
330
2A
100
AcDbVisualStyle
  2
Wireframe
 70
     5
 71
     0
 72
     2
 73
     0
 90
        0
 40
0.6
 41
30.0
 62
     5
 63
     7
 74
     1
 91
        4
 64
     7
 65
   257
 75
     1
175
     1
 42
1.0
 92
        0
 66
   257
 43
1.0
 76
     1
 77
     6
 78
     2
 67
     7
 79
     3
170
     0
171
     0
290
     0
174
     0
 93
        1
 44
0.0
173
     0
291
     0
 45
0.0
1001
ACAD
1000
AcDbSavedByObjectVersion
1070
     0
  0
VISUALSTYLE
  5
40
102
{ACAD_REACTORS
330
2A
102
}
102
{ACAD_XDICTIONARY
360
391
102
}
330
2A
100
AcDbVisualStyle
  2
X-Ray
 70
    25
 71
     2
 72
     2
 73
     1
 90
        1
 40
0.5
 41
30.0
 62
     5
 63
     7
 74
     1
 91
        0
 64
     7
 65
   257
 75
     1
175
     1
 42
1.0
 92
        8
 66
     7
 43
1.0
 76
     1
 77
     6
 78
     2
 67
     7
 79
     3
170
     0
171
     0
290
     0
174
     0
 93
       13
 44
0.0
173
     0
291
     0
 45
0.0
1001
ACAD
1000
AcDbSavedByObjectVersion
1070
     0
  0
DICTIONARYVAR
  5
365
102
{ACAD_REACTORS
330
35E
102
}
330
35E
100
DictionaryVariables
280
     0
  1
1:1
  0
DICTIONARYVAR
  5
363
102
{ACAD_REACTORS
330
35E
102
}
330
35E
100
DictionaryVariables
280
     0
  1
2
  0
DICTIONARYVAR
  5
364
102
{ACAD_REACTORS
330
35E
102
}
330
35E
100
DictionaryVariables
280
     0
  1
1
  0
DICTIONARYVAR
  5
366
102
{ACAD_REACTORS
330
35E
102
}
330
35E
100
DictionaryVariables
280
     0
  1
1
  0
DICTIONARY
  5
399
330
45
100
AcDbDictionary
280
     1
281
     1
  3
ACAD_XREC_ROUNDTRIP
360
39A
  0
DICTIONARY
  5
397
330
44
100
AcDbDictionary
280
     1
281
     1
  3
ACAD_XREC_ROUNDTRIP
360
398
  0
DICTIONARY
  5
39B
330
46
100
AcDbDictionary
280
     1
281
     1
  3
ACAD_XREC_ROUNDTRIP
360
39C
  0
DICTIONARY
  5
36F
330
2F
100
AcDbDictionary
280
     1
281
     1
  3
ACAD_XREC_ROUNDTRIP
360
370
  0
DICTIONARY
  5
375
330
32
100
AcDbDictionary
280
     1
281
     1
  3
ACAD_XREC_ROUNDTRIP
360
376
  0
DICTIONARY
  5
37D
330
36
100
AcDbDictionary
280
     1
281
     1
  3
ACAD_XREC_ROUNDTRIP
360
37E
  0
DICTIONARY
  5
385
330
3A
100
AcDbDictionary
280
     1
281
     1
  3
ACAD_XREC_ROUNDTRIP
360
386
  0
DICTIONARY
  5
379
330
34
100
AcDbDictionary
280
     1
281
     1
  3
ACAD_XREC_ROUNDTRIP
360
37A
  0
DICTIONARY
  5
37B
330
35
100
AcDbDictionary
280
     1
281
     1
  3
ACAD_XREC_ROUNDTRIP
360
37C
  0
DICTIONARY
  5
38B
330
3D
100
AcDbDictionary
280
     1
281
     1
  3
ACAD_XREC_ROUNDTRIP
360
38C
  0
DICTIONARY
  5
383
330
39
100
AcDbDictionary
280
     1
281
     1
  3
ACAD_XREC_ROUNDTRIP
360
384
  0
DICTIONARY
  5
367
330
2B
100
AcDbDictionary
280
     1
281
     1
  3
ACAD_XREC_ROUNDTRIP
360
368
  0
DICTIONARY
  5
369
330
2C
100
AcDbDictionary
280
     1
281
     1
  3
ACAD_XREC_ROUNDTRIP
360
36A
  0
DICTIONARY
  5
36B
330
2D
100
AcDbDictionary
280
     1
281
     1
  3
ACAD_XREC_ROUNDTRIP
360
36C
  0
DICTIONARY
  5
36D
330
2E
100
AcDbDictionary
280
     1
281
     1
  3
ACAD_XREC_ROUNDTRIP
360
36E
  0
DICTIONARY
  5
373
330
31
100
AcDbDictionary
280
     1
281
     1
  3
ACAD_XREC_ROUNDTRIP
360
374
  0
DICTIONARY
  5
387
330
3B
100
AcDbDictionary
280
     1
281
     1
  3
ACAD_XREC_ROUNDTRIP
360
388
  0
DICTIONARY
  5
381
330
38
100
AcDbDictionary
280
     1
281
     1
  3
ACAD_XREC_ROUNDTRIP
360
382
  0
DICTIONARY
  5
389
330
3C
100
AcDbDictionary
280
     1
281
     1
  3
ACAD_XREC_ROUNDTRIP
360
38A
  0
DICTIONARY
  5
377
330
33
100
AcDbDictionary
280
     1
281
     1
  3
ACAD_XREC_ROUNDTRIP
360
378
  0
DICTIONARY
  5
395
330
42
100
AcDbDictionary
280
     1
281
     1
  3
ACAD_XREC_ROUNDTRIP
360
396
  0
DICTIONARY
  5
393
330
41
100
AcDbDictionary
280
     1
281
     1
  3
ACAD_XREC_ROUNDTRIP
360
394
  0
DICTIONARY
  5
38D
330
3E
100
AcDbDictionary
280
     1
281
     1
  3
ACAD_XREC_ROUNDTRIP
360
38E
  0
DICTIONARY
  5
38F
330
3F
100
AcDbDictionary
280
     1
281
     1
  3
ACAD_XREC_ROUNDTRIP
360
390
  0
DICTIONARY
  5
37F
330
37
100
AcDbDictionary
280
     1
281
     1
  3
ACAD_XREC_ROUNDTRIP
360
380
  0
DICTIONARY
  5
371
330
30
100
AcDbDictionary
280
     1
281
     1
  3
ACAD_XREC_ROUNDTRIP
360
372
  0
DICTIONARY
  5
391
330
40
100
AcDbDictionary
280
     1
281
     1
  3
ACAD_XREC_ROUNDTRIP
360
392
  0
XRECORD
  5
39A
102
{ACAD_REACTORS
330
399
102
}
330
399
100
AcDbXrecord
280
     1
102
MATERIAL
148
0.0
149
0.0
149
0.0
 93
        0
 94
      127
282
     0
 72
     1
 77
     1
171
     1
175
     1
179
     1
273
     0
  0
XRECORD
  5
398
102
{ACAD_REACTORS
330
397
102
}
330
397
100
AcDbXrecord
280
     1
102
MATERIAL
148
0.0
149
0.0
149
0.0
 93
        0
 94
      127
282
     0
 72
     1
 77
     1
171
     1
175
     1
179
     1
273
     0
  0
XRECORD
  5
39C
102
{ACAD_REACTORS
330
39B
102
}
330
39B
100
AcDbXrecord
280
     1
102
MATERIAL
148
0.0
149
0.0
149
0.0
 93
        0
 94
      127
282
     0
 72
     1
 77
     1
171
     1
175
     1
179
     1
273
     0
  0
XRECORD
  5
370
102
{ACAD_REACTORS
330
36F
102
}
330
36F
100
AcDbXrecord
280
     1
102
RTVSPropertyOp0
 70
     1
102
RTVSPropertyOp1
 70
     1
102
RTVSPropertyOp2
 70
     1
102
RTVSPropertyOp3
 70
     1
102
RTVSPropertyOp4
 70
     1
102
RTVSPropertyOp5
 70
     1
102
RTVSPropertyOp6
 70
     1
102
RTVSPropertyOp7
 70
     1
102
RTVSPropertyOp8
 70
     1
102
RTVSPropertyOp9
 70
     1
102
RTVSPropertyOp10
 70
     1
102
RTVSPropertyOp11
 70
     1
102
RTVSPropertyOp12
 70
     1
102
RTVSPropertyOp13
 70
     1
102
RTVSPropertyOp14
 70
     1
102
RTVSPropertyOp15
 70
     1
102
RTVSPropertyOp16
 70
     1
102
RTVSPropertyOp17
 70
     1
102
RTVSPropertyOp18
 70
     1
102
RTVSPropertyOp19
 70
     1
102
RTVSPropertyOp20
 70
     1
102
RTVSPropertyOp21
 70
     1
102
RTVSPropertyOp22
 70
     1
102
RTVSPropertyOp23
 70
     1
102
RTVSPropertyOp24
 70
     1
102
RTVSPropertyOp25
 70
     1
102
RTVSPropertyOp26
 70
     1
102
RTVSPropertyOp27
 70
     1
102
RTVSPropertyOp28
 70
     1
102
RTVSPropertyOp29
 70
     1
102
RTVSPropertyOp30
 70
     1
102
RTVSPropertyOp31
 70
     1
102
RTVSPropertyOp32
 70
     1
102
RTVSPropertyOp33
 70
     1
102
RTVSPropertyOp34
 70
     1
102
RTVSPropertyOp35
 70
     1
102
RTVSPropertyOp36
 70
     1
102
RTVSPropertyOp37
 70
     1
102
RTVSPropertyOp38
 70
     1
102
RTVSPropertyOp39
 70
     1
102
RTVSPropertyOp40
 70
     1
102
RTVSPropertyOp41
 70
     1
102
RTVSPropertyOp42
 70
     1
102
RTVSPropertyOp43
 70
     1
102
RTVSPropertyOp44
 70
     1
102
RTVSPropertyOp45
 70
     1
102
RTVSPropertyOp46
 70
     1
102
RTVSPropertyOp47
 70
     1
102
RTVSPropertyOp48
 70
     1
102
RTVSPropertyOp49
 70
     1
102
RTVSPropertyOp50
 70
     1
102
RTVSPropertyOp51
 70
     0
102
RTVSPropertyOp52
 70
     0
102
RTVSPropertyOp53
 70
     1
102
RTVSPropertyOp54
 70
     1
102
RTVSPropertyOp55
 70
     1
102
RTVSPropertyOp56
 70
     1
102
RTVSPropertyOp57
 70
     1
102
RTVSPost2010Prop28
280
     1
102
RTVSPost2010PropOp28
 70
     1
102
RTVSPost2010Prop29
280
     1
102
RTVSPost2010PropOp29
 70
     1
102
RTVSPost2010Prop30
280
     0
102
RTVSPost2010PropOp30
 70
     1
102
RTVSPost2010Prop31
280
     0
102
RTVSPost2010PropOp31
 70
     1
102
RTVSPost2010Prop32
280
     0
102
RTVSPost2010PropOp32
 70
     1
102
RTVSPost2010Prop33
280
     0
102
RTVSPost2010PropOp33
 70
     1
102
RTVSPost2010Prop34
280
     0
102
RTVSPost2010PropOp34
 70
     1
102
RTVSPost2010Prop35
280
     0
102
RTVSPost2010PropOp35
 70
     1
102
RTVSPost2010Prop36
280
     0
102
RTVSPost2010PropOp36
 70
     1
102
RTVSPost2010Prop37
 90
       50
102
RTVSPost2010PropOp37
 70
     1
102
RTVSPost2010Prop38
140
0.0
102
RTVSPost2010PropOp38
 70
     1
102
RTVSPost2010Prop39
140
1.0
102
RTVSPost2010PropOp39
 70
     1
102
RTVSPost2010Prop40
 90
        0
102
RTVSPost2010PropOp40
 70
     1
102
RTVSPost2010Prop41ColorIndex
 90
       18
102
RTVSPost2010Prop41ColorRGB
 90
        0
102
RTVSPost2010PropOp41
 70
     1
102
RTVSPost2010Prop42
 90
       50
102
RTVSPost2010PropOp42
 70
     1
102
RTVSPost2010Prop43
 90
        3
102
RTVSPost2010PropOp43
 70
     1
102
RTVSPost2010Prop44ColorIndex
 90
        5
102
RTVSPost2010Prop44ColorRGB
 90
      255
102
RTVSPost2010PropOp44
 70
     1
102
RTVSPost2010Prop45
280
     0
102
RTVSPost2010PropOp45
 70
     1
102
RTVSPost2010Prop46
 90
       50
102
RTVSPost2010PropOp46
 70
     1
102
RTVSPost2010Prop47
 90
       50
102
RTVSPost2010PropOp47
 70
     1
102
RTVSPost2010Prop48
 90
       50
102
RTVSPost2010PropOp48
 70
     1
102
RTVSPost2010Prop49
280
     0
102
RTVSPost2010PropOp49
 70
     1
102
RTVSPost2010Prop50
 90
       50
102
RTVSPost2010PropOp50
 70
     1
102
RTVSPost2010Prop51ColorIndex
 90
      256
102
RTVSPost2010Prop51ColorRGB
 90
-16777216
102
RTVSPost2010PropOp51
 70
     0
102
RTVSPost2010Prop52
140
1.0
102
RTVSPost2010PropOp52
 70
     0
102
RTVSPost2010Prop53
 90
        2
102
RTVSPost2010PropOp53
 70
     1
102
RTVSPost2010Prop54
  1
strokes_ogs.tif
102
RTVSPost2010PropOp54
 70
     1
102
RTVSPost2010Prop55
280
     0
102
RTVSPost2010PropOp55
 70
     1
102
RTVSPost2010Prop56
140
1.0
102
RTVSPost2010PropOp56
 70
     1
102
RTVSPost2010Prop57
140
1.0
102
RTVSPost2010PropOp57
 70
     1
  0
XRECORD
  5
376
102
{ACAD_REACTORS
330
375
102
}
330
375
100
AcDbXrecord
280
     1
102
RTVSPropertyOp0
 70
     1
102
RTVSPropertyOp1
 70
     1
102
RTVSPropertyOp2
 70
     1
102
RTVSPropertyOp3
 70
     1
102
RTVSPropertyOp4
 70
     1
102
RTVSPropertyOp5
 70
     1
102
RTVSPropertyOp6
 70
     1
102
RTVSPropertyOp7
 70
     1
102
RTVSPropertyOp8
 70
     1
102
RTVSPropertyOp9
 70
     1
102
RTVSPropertyOp10
 70
     1
102
RTVSPropertyOp11
 70
     1
102
RTVSPropertyOp12
 70
     1
102
RTVSPropertyOp13
 70
     1
102
RTVSPropertyOp14
 70
     1
102
RTVSPropertyOp15
 70
     1
102
RTVSPropertyOp16
 70
     1
102
RTVSPropertyOp17
 70
     1
102
RTVSPropertyOp18
 70
     1
102
RTVSPropertyOp19
 70
     1
102
RTVSPropertyOp20
 70
     1
102
RTVSPropertyOp21
 70
     1
102
RTVSPropertyOp22
 70
     1
102
RTVSPropertyOp23
 70
     1
102
RTVSPropertyOp24
 70
     1
102
RTVSPropertyOp25
 70
     1
102
RTVSPropertyOp26
 70
     1
102
RTVSPropertyOp27
 70
     1
102
RTVSPropertyOp28
 70
     1
102
RTVSPropertyOp29
 70
     1
102
RTVSPropertyOp30
 70
     1
102
RTVSPropertyOp31
 70
     1
102
RTVSPropertyOp32
 70
     1
102
RTVSPropertyOp33
 70
     1
102
RTVSPropertyOp34
 70
     1
102
RTVSPropertyOp35
 70
     1
102
RTVSPropertyOp36
 70
     1
102
RTVSPropertyOp37
 70
     1
102
RTVSPropertyOp38
 70
     1
102
RTVSPropertyOp39
 70
     1
102
RTVSPropertyOp40
 70
     1
102
RTVSPropertyOp41
 70
     1
102
RTVSPropertyOp42
 70
     1
102
RTVSPropertyOp43
 70
     1
102
RTVSPropertyOp44
 70
     1
102
RTVSPropertyOp45
 70
     1
102
RTVSPropertyOp46
 70
     1
102
RTVSPropertyOp47
 70
     1
102
RTVSPropertyOp48
 70
     1
102
RTVSPropertyOp49
 70
     1
102
RTVSPropertyOp50
 70
     1
102
RTVSPropertyOp51
 70
     0
102
RTVSPropertyOp52
 70
     0
102
RTVSPropertyOp53
 70
     1
102
RTVSPropertyOp54
 70
     1
102
RTVSPropertyOp55
 70
     1
102
RTVSPropertyOp56
 70
     1
102
RTVSPropertyOp57
 70
     1
102
RTVSPost2010Prop28
280
     0
102
RTVSPost2010PropOp28
 70
     1
102
RTVSPost2010Prop29
280
     1
102
RTVSPost2010PropOp29
 70
     1
102
RTVSPost2010Prop30
280
     1
102
RTVSPost2010PropOp30
 70
     1
102
RTVSPost2010Prop31
280
     0
102
RTVSPost2010PropOp31
 70
     1
102
RTVSPost2010Prop32
280
     0
102
RTVSPost2010PropOp32
 70
     1
102
RTVSPost2010Prop33
280
     0
102
RTVSPost2010PropOp33
 70
     1
102
RTVSPost2010Prop34
280
     0
102
RTVSPost2010PropOp34
 70
     1
102
RTVSPost2010Prop35
280
     0
102
RTVSPost2010PropOp35
 70
     1
102
RTVSPost2010Prop36
280
     0
102
RTVSPost2010PropOp36
 70
     1
102
RTVSPost2010Prop37
 90
       50
102
RTVSPost2010PropOp37
 70
     1
102
RTVSPost2010Prop38
140
0.0
102
RTVSPost2010PropOp38
 70
     1
102
RTVSPost2010Prop39
140
1.0
102
RTVSPost2010PropOp39
 70
     1
102
RTVSPost2010Prop40
 90
        0
102
RTVSPost2010PropOp40
 70
     1
102
RTVSPost2010Prop41ColorIndex
 90
       18
102
RTVSPost2010Prop41ColorRGB
 90
        0
102
RTVSPost2010PropOp41
 70
     1
102
RTVSPost2010Prop42
 90
       50
102
RTVSPost2010PropOp42
 70
     1
102
RTVSPost2010Prop43
 90
        3
102
RTVSPost2010PropOp43
 70
     1
102
RTVSPost2010Prop44ColorIndex
 90
        5
102
RTVSPost2010Prop44ColorRGB
 90
      255
102
RTVSPost2010PropOp44
 70
     1
102
RTVSPost2010Prop45
280
     0
102
RTVSPost2010PropOp45
 70
     1
102
RTVSPost2010Prop46
 90
       50
102
RTVSPost2010PropOp46
 70
     1
102
RTVSPost2010Prop47
 90
       50
102
RTVSPost2010PropOp47
 70
     1
102
RTVSPost2010Prop48
 90
       50
102
RTVSPost2010PropOp48
 70
     1
102
RTVSPost2010Prop49
280
     0
102
RTVSPost2010PropOp49
 70
     1
102
RTVSPost2010Prop50
 90
       50
102
RTVSPost2010PropOp50
 70
     1
102
RTVSPost2010Prop51ColorIndex
 90
      256
102
RTVSPost2010Prop51ColorRGB
 90
-16777216
102
RTVSPost2010PropOp51
 70
     0
102
RTVSPost2010Prop52
140
1.0
102
RTVSPost2010PropOp52
 70
     0
102
RTVSPost2010Prop53
 90
        2
102
RTVSPost2010PropOp53
 70
     1
102
RTVSPost2010Prop54
  1
strokes_ogs.tif
102
RTVSPost2010PropOp54
 70
     1
102
RTVSPost2010Prop55
280
     0
102
RTVSPost2010PropOp55
 70
     1
102
RTVSPost2010Prop56
140
1.0
102
RTVSPost2010PropOp56
 70
     1
102
RTVSPost2010Prop57
140
1.0
102
RTVSPost2010PropOp57
 70
     1
  0
XRECORD
  5
37E
102
{ACAD_REACTORS
330
37D
102
}
330
37D
100
AcDbXrecord
280
     1
102
RTVSPropertyOp0
 70
     1
102
RTVSPropertyOp1
 70
     1
102
RTVSPropertyOp2
 70
     1
102
RTVSPropertyOp3
 70
     1
102
RTVSPropertyOp4
 70
     1
102
RTVSPropertyOp5
 70
     1
102
RTVSPropertyOp6
 70
     1
102
RTVSPropertyOp7
 70
     1
102
RTVSPropertyOp8
 70
     1
102
RTVSPropertyOp9
 70
     1
102
RTVSPropertyOp10
 70
     1
102
RTVSPropertyOp11
 70
     1
102
RTVSPropertyOp12
 70
     1
102
RTVSPropertyOp13
 70
     1
102
RTVSPropertyOp14
 70
     1
102
RTVSPropertyOp15
 70
     1
102
RTVSPropertyOp16
 70
     1
102
RTVSPropertyOp17
 70
     1
102
RTVSPropertyOp18
 70
     1
102
RTVSPropertyOp19
 70
     1
102
RTVSPropertyOp20
 70
     1
102
RTVSPropertyOp21
 70
     1
102
RTVSPropertyOp22
 70
     1
102
RTVSPropertyOp23
 70
     1
102
RTVSPropertyOp24
 70
     1
102
RTVSPropertyOp25
 70
     1
102
RTVSPropertyOp26
 70
     1
102
RTVSPropertyOp27
 70
     1
102
RTVSPropertyOp28
 70
     1
102
RTVSPropertyOp29
 70
     1
102
RTVSPropertyOp30
 70
     1
102
RTVSPropertyOp31
 70
     1
102
RTVSPropertyOp32
 70
     1
102
RTVSPropertyOp33
 70
     1
102
RTVSPropertyOp34
 70
     1
102
RTVSPropertyOp35
 70
     1
102
RTVSPropertyOp36
 70
     1
102
RTVSPropertyOp37
 70
     1
102
RTVSPropertyOp38
 70
     1
102
RTVSPropertyOp39
 70
     1
102
RTVSPropertyOp40
 70
     1
102
RTVSPropertyOp41
 70
     1
102
RTVSPropertyOp42
 70
     1
102
RTVSPropertyOp43
 70
     1
102
RTVSPropertyOp44
 70
     1
102
RTVSPropertyOp45
 70
     1
102
RTVSPropertyOp46
 70
     1
102
RTVSPropertyOp47
 70
     1
102
RTVSPropertyOp48
 70
     1
102
RTVSPropertyOp49
 70
     1
102
RTVSPropertyOp50
 70
     1
102
RTVSPropertyOp51
 70
     0
102
RTVSPropertyOp52
 70
     0
102
RTVSPropertyOp53
 70
     1
102
RTVSPropertyOp54
 70
     1
102
RTVSPropertyOp55
 70
     1
102
RTVSPropertyOp56
 70
     1
102
RTVSPropertyOp57
 70
     1
102
RTVSPost2010Prop28
280
     0
102
RTVSPost2010PropOp28
 70
     1
102
RTVSPost2010Prop29
280
     1
102
RTVSPost2010PropOp29
 70
     1
102
RTVSPost2010Prop30
280
     1
102
RTVSPost2010PropOp30
 70
     1
102
RTVSPost2010Prop31
280
     0
102
RTVSPost2010PropOp31
 70
     1
102
RTVSPost2010Prop32
280
     0
102
RTVSPost2010PropOp32
 70
     1
102
RTVSPost2010Prop33
280
     0
102
RTVSPost2010PropOp33
 70
     1
102
RTVSPost2010Prop34
280
     0
102
RTVSPost2010PropOp34
 70
     1
102
RTVSPost2010Prop35
280
     0
102
RTVSPost2010PropOp35
 70
     1
102
RTVSPost2010Prop36
280
     0
102
RTVSPost2010PropOp36
 70
     1
102
RTVSPost2010Prop37
 90
       50
102
RTVSPost2010PropOp37
 70
     1
102
RTVSPost2010Prop38
140
0.0
102
RTVSPost2010PropOp38
 70
     1
102
RTVSPost2010Prop39
140
1.0
102
RTVSPost2010PropOp39
 70
     1
102
RTVSPost2010Prop40
 90
        0
102
RTVSPost2010PropOp40
 70
     1
102
RTVSPost2010Prop41ColorIndex
 90
       18
102
RTVSPost2010Prop41ColorRGB
 90
        0
102
RTVSPost2010PropOp41
 70
     1
102
RTVSPost2010Prop42
 90
       50
102
RTVSPost2010PropOp42
 70
     1
102
RTVSPost2010Prop43
 90
        3
102
RTVSPost2010PropOp43
 70
     1
102
RTVSPost2010Prop44ColorIndex
 90
        5
102
RTVSPost2010Prop44ColorRGB
 90
      255
102
RTVSPost2010PropOp44
 70
     1
102
RTVSPost2010Prop45
280
     0
102
RTVSPost2010PropOp45
 70
     1
102
RTVSPost2010Prop46
 90
       50
102
RTVSPost2010PropOp46
 70
     1
102
RTVSPost2010Prop47
 90
       50
102
RTVSPost2010PropOp47
 70
     1
102
RTVSPost2010Prop48
 90
       50
102
RTVSPost2010PropOp48
 70
     1
102
RTVSPost2010Prop49
280
     0
102
RTVSPost2010PropOp49
 70
     1
102
RTVSPost2010Prop50
 90
       50
102
RTVSPost2010PropOp50
 70
     1
102
RTVSPost2010Prop51ColorIndex
 90
      256
102
RTVSPost2010Prop51ColorRGB
 90
-16777216
102
RTVSPost2010PropOp51
 70
     0
102
RTVSPost2010Prop52
140
1.0
102
RTVSPost2010PropOp52
 70
     0
102
RTVSPost2010Prop53
 90
        2
102
RTVSPost2010PropOp53
 70
     1
102
RTVSPost2010Prop54
  1
strokes_ogs.tif
102
RTVSPost2010PropOp54
 70
     1
102
RTVSPost2010Prop55
280
     0
102
RTVSPost2010PropOp55
 70
     1
102
RTVSPost2010Prop56
140
1.0
102
RTVSPost2010PropOp56
 70
     1
102
RTVSPost2010Prop57
140
1.0
102
RTVSPost2010PropOp57
 70
     1
  0
XRECORD
  5
386
102
{ACAD_REACTORS
330
385
102
}
330
385
100
AcDbXrecord
280
     1
102
RTVSPropertyOp0
 70
     1
102
RTVSPropertyOp1
 70
     1
102
RTVSPropertyOp2
 70
     1
102
RTVSPropertyOp3
 70
     1
102
RTVSPropertyOp4
 70
     1
102
RTVSPropertyOp5
 70
     1
102
RTVSPropertyOp6
 70
     1
102
RTVSPropertyOp7
 70
     1
102
RTVSPropertyOp8
 70
     1
102
RTVSPropertyOp9
 70
     1
102
RTVSPropertyOp10
 70
     1
102
RTVSPropertyOp11
 70
     1
102
RTVSPropertyOp12
 70
     1
102
RTVSPropertyOp13
 70
     1
102
RTVSPropertyOp14
 70
     1
102
RTVSPropertyOp15
 70
     1
102
RTVSPropertyOp16
 70
     1
102
RTVSPropertyOp17
 70
     1
102
RTVSPropertyOp18
 70
     1
102
RTVSPropertyOp19
 70
     1
102
RTVSPropertyOp20
 70
     1
102
RTVSPropertyOp21
 70
     1
102
RTVSPropertyOp22
 70
     1
102
RTVSPropertyOp23
 70
     1
102
RTVSPropertyOp24
 70
     1
102
RTVSPropertyOp25
 70
     1
102
RTVSPropertyOp26
 70
     1
102
RTVSPropertyOp27
 70
     1
102
RTVSPropertyOp28
 70
     1
102
RTVSPropertyOp29
 70
     1
102
RTVSPropertyOp30
 70
     1
102
RTVSPropertyOp31
 70
     1
102
RTVSPropertyOp32
 70
     1
102
RTVSPropertyOp33
 70
     1
102
RTVSPropertyOp34
 70
     1
102
RTVSPropertyOp35
 70
     1
102
RTVSPropertyOp36
 70
     1
102
RTVSPropertyOp37
 70
     1
102
RTVSPropertyOp38
 70
     1
102
RTVSPropertyOp39
 70
     1
102
RTVSPropertyOp40
 70
     1
102
RTVSPropertyOp41
 70
     1
102
RTVSPropertyOp42
 70
     1
102
RTVSPropertyOp43
 70
     1
102
RTVSPropertyOp44
 70
     1
102
RTVSPropertyOp45
 70
     1
102
RTVSPropertyOp46
 70
     1
102
RTVSPropertyOp47
 70
     1
102
RTVSPropertyOp48
 70
     1
102
RTVSPropertyOp49
 70
     1
102
RTVSPropertyOp50
 70
     1
102
RTVSPropertyOp51
 70
     0
102
RTVSPropertyOp52
 70
     0
102
RTVSPropertyOp53
 70
     1
102
RTVSPropertyOp54
 70
     1
102
RTVSPropertyOp55
 70
     1
102
RTVSPropertyOp56
 70
     1
102
RTVSPropertyOp57
 70
     1
102
RTVSPost2010Prop28
280
     0
102
RTVSPost2010PropOp28
 70
     1
102
RTVSPost2010Prop29
280
     1
102
RTVSPost2010PropOp29
 70
     1
102
RTVSPost2010Prop30
280
     1
102
RTVSPost2010PropOp30
 70
     1
102
RTVSPost2010Prop31
280
     0
102
RTVSPost2010PropOp31
 70
     1
102
RTVSPost2010Prop32
280
     0
102
RTVSPost2010PropOp32
 70
     1
102
RTVSPost2010Prop33
280
     0
102
RTVSPost2010PropOp33
 70
     1
102
RTVSPost2010Prop34
280
     0
102
RTVSPost2010PropOp34
 70
     1
102
RTVSPost2010Prop35
280
     0
102
RTVSPost2010PropOp35
 70
     1
102
RTVSPost2010Prop36
280
     0
102
RTVSPost2010PropOp36
 70
     1
102
RTVSPost2010Prop37
 90
       50
102
RTVSPost2010PropOp37
 70
     1
102
RTVSPost2010Prop38
140
0.0
102
RTVSPost2010PropOp38
 70
     1
102
RTVSPost2010Prop39
140
1.0
102
RTVSPost2010PropOp39
 70
     1
102
RTVSPost2010Prop40
 90
        0
102
RTVSPost2010PropOp40
 70
     1
102
RTVSPost2010Prop41ColorIndex
 90
       18
102
RTVSPost2010Prop41ColorRGB
 90
        0
102
RTVSPost2010PropOp41
 70
     1
102
RTVSPost2010Prop42
 90
       50
102
RTVSPost2010PropOp42
 70
     1
102
RTVSPost2010Prop43
 90
        3
102
RTVSPost2010PropOp43
 70
     1
102
RTVSPost2010Prop44ColorIndex
 90
        5
102
RTVSPost2010Prop44ColorRGB
 90
      255
102
RTVSPost2010PropOp44
 70
     1
102
RTVSPost2010Prop45
280
     0
102
RTVSPost2010PropOp45
 70
     1
102
RTVSPost2010Prop46
 90
       50
102
RTVSPost2010PropOp46
 70
     1
102
RTVSPost2010Prop47
 90
       50
102
RTVSPost2010PropOp47
 70
     1
102
RTVSPost2010Prop48
 90
       50
102
RTVSPost2010PropOp48
 70
     1
102
RTVSPost2010Prop49
280
     0
102
RTVSPost2010PropOp49
 70
     1
102
RTVSPost2010Prop50
 90
       50
102
RTVSPost2010PropOp50
 70
     1
102
RTVSPost2010Prop51ColorIndex
 90
      256
102
RTVSPost2010Prop51ColorRGB
 90
-16777216
102
RTVSPost2010PropOp51
 70
     0
102
RTVSPost2010Prop52
140
1.0
102
RTVSPost2010PropOp52
 70
     0
102
RTVSPost2010Prop53
 90
        2
102
RTVSPost2010PropOp53
 70
     1
102
RTVSPost2010Prop54
  1
strokes_ogs.tif
102
RTVSPost2010PropOp54
 70
     1
102
RTVSPost2010Prop55
280
     0
102
RTVSPost2010PropOp55
 70
     1
102
RTVSPost2010Prop56
140
1.0
102
RTVSPost2010PropOp56
 70
     1
102
RTVSPost2010Prop57
140
1.0
102
RTVSPost2010PropOp57
 70
     1
  0
XRECORD
  5
37A
102
{ACAD_REACTORS
330
379
102
}
330
379
100
AcDbXrecord
280
     1
102
RTVSPropertyOp0
 70
     1
102
RTVSPropertyOp1
 70
     1
102
RTVSPropertyOp2
 70
     1
102
RTVSPropertyOp3
 70
     1
102
RTVSPropertyOp4
 70
     1
102
RTVSPropertyOp5
 70
     1
102
RTVSPropertyOp6
 70
     1
102
RTVSPropertyOp7
 70
     1
102
RTVSPropertyOp8
 70
     1
102
RTVSPropertyOp9
 70
     1
102
RTVSPropertyOp10
 70
     1
102
RTVSPropertyOp11
 70
     1
102
RTVSPropertyOp12
 70
     1
102
RTVSPropertyOp13
 70
     1
102
RTVSPropertyOp14
 70
     1
102
RTVSPropertyOp15
 70
     1
102
RTVSPropertyOp16
 70
     1
102
RTVSPropertyOp17
 70
     1
102
RTVSPropertyOp18
 70
     1
102
RTVSPropertyOp19
 70
     1
102
RTVSPropertyOp20
 70
     1
102
RTVSPropertyOp21
 70
     1
102
RTVSPropertyOp22
 70
     1
102
RTVSPropertyOp23
 70
     1
102
RTVSPropertyOp24
 70
     1
102
RTVSPropertyOp25
 70
     1
102
RTVSPropertyOp26
 70
     1
102
RTVSPropertyOp27
 70
     1
102
RTVSPropertyOp28
 70
     1
102
RTVSPropertyOp29
 70
     1
102
RTVSPropertyOp30
 70
     1
102
RTVSPropertyOp31
 70
     1
102
RTVSPropertyOp32
 70
     1
102
RTVSPropertyOp33
 70
     1
102
RTVSPropertyOp34
 70
     1
102
RTVSPropertyOp35
 70
     1
102
RTVSPropertyOp36
 70
     1
102
RTVSPropertyOp37
 70
     1
102
RTVSPropertyOp38
 70
     1
102
RTVSPropertyOp39
 70
     1
102
RTVSPropertyOp40
 70
     1
102
RTVSPropertyOp41
 70
     1
102
RTVSPropertyOp42
 70
     1
102
RTVSPropertyOp43
 70
     1
102
RTVSPropertyOp44
 70
     1
102
RTVSPropertyOp45
 70
     1
102
RTVSPropertyOp46
 70
     1
102
RTVSPropertyOp47
 70
     1
102
RTVSPropertyOp48
 70
     1
102
RTVSPropertyOp49
 70
     1
102
RTVSPropertyOp50
 70
     1
102
RTVSPropertyOp51
 70
     0
102
RTVSPropertyOp52
 70
     0
102
RTVSPropertyOp53
 70
     1
102
RTVSPropertyOp54
 70
     1
102
RTVSPropertyOp55
 70
     1
102
RTVSPropertyOp56
 70
     1
102
RTVSPropertyOp57
 70
     1
102
RTVSPost2010Prop28
280
     0
102
RTVSPost2010PropOp28
 70
     1
102
RTVSPost2010Prop29
280
     1
102
RTVSPost2010PropOp29
 70
     1
102
RTVSPost2010Prop30
280
     1
102
RTVSPost2010PropOp30
 70
     1
102
RTVSPost2010Prop31
280
     0
102
RTVSPost2010PropOp31
 70
     1
102
RTVSPost2010Prop32
280
     0
102
RTVSPost2010PropOp32
 70
     1
102
RTVSPost2010Prop33
280
     0
102
RTVSPost2010PropOp33
 70
     1
102
RTVSPost2010Prop34
280
     0
102
RTVSPost2010PropOp34
 70
     1
102
RTVSPost2010Prop35
280
     0
102
RTVSPost2010PropOp35
 70
     1
102
RTVSPost2010Prop36
280
     0
102
RTVSPost2010PropOp36
 70
     1
102
RTVSPost2010Prop37
 90
       50
102
RTVSPost2010PropOp37
 70
     1
102
RTVSPost2010Prop38
140
0.0
102
RTVSPost2010PropOp38
 70
     1
102
RTVSPost2010Prop39
140
1.0
102
RTVSPost2010PropOp39
 70
     1
102
RTVSPost2010Prop40
 90
        0
102
RTVSPost2010PropOp40
 70
     1
102
RTVSPost2010Prop41ColorIndex
 90
       18
102
RTVSPost2010Prop41ColorRGB
 90
        0
102
RTVSPost2010PropOp41
 70
     1
102
RTVSPost2010Prop42
 90
       50
102
RTVSPost2010PropOp42
 70
     1
102
RTVSPost2010Prop43
 90
        3
102
RTVSPost2010PropOp43
 70
     1
102
RTVSPost2010Prop44ColorIndex
 90
        5
102
RTVSPost2010Prop44ColorRGB
 90
      255
102
RTVSPost2010PropOp44
 70
     1
102
RTVSPost2010Prop45
280
     0
102
RTVSPost2010PropOp45
 70
     1
102
RTVSPost2010Prop46
 90
       50
102
RTVSPost2010PropOp46
 70
     1
102
RTVSPost2010Prop47
 90
       50
102
RTVSPost2010PropOp47
 70
     1
102
RTVSPost2010Prop48
 90
       50
102
RTVSPost2010PropOp48
 70
     1
102
RTVSPost2010Prop49
280
     0
102
RTVSPost2010PropOp49
 70
     1
102
RTVSPost2010Prop50
 90
       50
102
RTVSPost2010PropOp50
 70
     1
102
RTVSPost2010Prop51ColorIndex
 90
      256
102
RTVSPost2010Prop51ColorRGB
 90
-16777216
102
RTVSPost2010PropOp51
 70
     0
102
RTVSPost2010Prop52
140
1.0
102
RTVSPost2010PropOp52
 70
     0
102
RTVSPost2010Prop53
 90
        2
102
RTVSPost2010PropOp53
 70
     1
102
RTVSPost2010Prop54
  1
strokes_ogs.tif
102
RTVSPost2010PropOp54
 70
     1
102
RTVSPost2010Prop55
280
     0
102
RTVSPost2010PropOp55
 70
     1
102
RTVSPost2010Prop56
140
1.0
102
RTVSPost2010PropOp56
 70
     1
102
RTVSPost2010Prop57
140
1.0
102
RTVSPost2010PropOp57
 70
     1
  0
XRECORD
  5
37C
102
{ACAD_REACTORS
330
37B
102
}
330
37B
100
AcDbXrecord
280
     1
102
RTVSPropertyOp0
 70
     1
102
RTVSPropertyOp1
 70
     1
102
RTVSPropertyOp2
 70
     1
102
RTVSPropertyOp3
 70
     1
102
RTVSPropertyOp4
 70
     1
102
RTVSPropertyOp5
 70
     1
102
RTVSPropertyOp6
 70
     1
102
RTVSPropertyOp7
 70
     1
102
RTVSPropertyOp8
 70
     1
102
RTVSPropertyOp9
 70
     1
102
RTVSPropertyOp10
 70
     1
102
RTVSPropertyOp11
 70
     1
102
RTVSPropertyOp12
 70
     1
102
RTVSPropertyOp13
 70
     1
102
RTVSPropertyOp14
 70
     1
102
RTVSPropertyOp15
 70
     1
102
RTVSPropertyOp16
 70
     1
102
RTVSPropertyOp17
 70
     1
102
RTVSPropertyOp18
 70
     1
102
RTVSPropertyOp19
 70
     1
102
RTVSPropertyOp20
 70
     1
102
RTVSPropertyOp21
 70
     1
102
RTVSPropertyOp22
 70
     1
102
RTVSPropertyOp23
 70
     1
102
RTVSPropertyOp24
 70
     1
102
RTVSPropertyOp25
 70
     1
102
RTVSPropertyOp26
 70
     1
102
RTVSPropertyOp27
 70
     1
102
RTVSPropertyOp28
 70
     1
102
RTVSPropertyOp29
 70
     1
102
RTVSPropertyOp30
 70
     1
102
RTVSPropertyOp31
 70
     1
102
RTVSPropertyOp32
 70
     1
102
RTVSPropertyOp33
 70
     1
102
RTVSPropertyOp34
 70
     1
102
RTVSPropertyOp35
 70
     1
102
RTVSPropertyOp36
 70
     1
102
RTVSPropertyOp37
 70
     1
102
RTVSPropertyOp38
 70
     1
102
RTVSPropertyOp39
 70
     1
102
RTVSPropertyOp40
 70
     1
102
RTVSPropertyOp41
 70
     1
102
RTVSPropertyOp42
 70
     1
102
RTVSPropertyOp43
 70
     1
102
RTVSPropertyOp44
 70
     1
102
RTVSPropertyOp45
 70
     1
102
RTVSPropertyOp46
 70
     1
102
RTVSPropertyOp47
 70
     1
102
RTVSPropertyOp48
 70
     1
102
RTVSPropertyOp49
 70
     1
102
RTVSPropertyOp50
 70
     1
102
RTVSPropertyOp51
 70
     0
102
RTVSPropertyOp52
 70
     0
102
RTVSPropertyOp53
 70
     1
102
RTVSPropertyOp54
 70
     1
102
RTVSPropertyOp55
 70
     1
102
RTVSPropertyOp56
 70
     1
102
RTVSPropertyOp57
 70
     1
102
RTVSPost2010Prop28
280
     0
102
RTVSPost2010PropOp28
 70
     1
102
RTVSPost2010Prop29
280
     1
102
RTVSPost2010PropOp29
 70
     1
102
RTVSPost2010Prop30
280
     1
102
RTVSPost2010PropOp30
 70
     1
102
RTVSPost2010Prop31
280
     0
102
RTVSPost2010PropOp31
 70
     1
102
RTVSPost2010Prop32
280
     0
102
RTVSPost2010PropOp32
 70
     1
102
RTVSPost2010Prop33
280
     0
102
RTVSPost2010PropOp33
 70
     1
102
RTVSPost2010Prop34
280
     0
102
RTVSPost2010PropOp34
 70
     1
102
RTVSPost2010Prop35
280
     0
102
RTVSPost2010PropOp35
 70
     1
102
RTVSPost2010Prop36
280
     0
102
RTVSPost2010PropOp36
 70
     1
102
RTVSPost2010Prop37
 90
       50
102
RTVSPost2010PropOp37
 70
     1
102
RTVSPost2010Prop38
140
0.0
102
RTVSPost2010PropOp38
 70
     1
102
RTVSPost2010Prop39
140
1.0
102
RTVSPost2010PropOp39
 70
     1
102
RTVSPost2010Prop40
 90
        0
102
RTVSPost2010PropOp40
 70
     1
102
RTVSPost2010Prop41ColorIndex
 90
       18
102
RTVSPost2010Prop41ColorRGB
 90
        0
102
RTVSPost2010PropOp41
 70
     1
102
RTVSPost2010Prop42
 90
       50
102
RTVSPost2010PropOp42
 70
     1
102
RTVSPost2010Prop43
 90
        3
102
RTVSPost2010PropOp43
 70
     1
102
RTVSPost2010Prop44ColorIndex
 90
        5
102
RTVSPost2010Prop44ColorRGB
 90
      255
102
RTVSPost2010PropOp44
 70
     1
102
RTVSPost2010Prop45
280
     0
102
RTVSPost2010PropOp45
 70
     1
102
RTVSPost2010Prop46
 90
       50
102
RTVSPost2010PropOp46
 70
     1
102
RTVSPost2010Prop47
 90
       50
102
RTVSPost2010PropOp47
 70
     1
102
RTVSPost2010Prop48
 90
       50
102
RTVSPost2010PropOp48
 70
     1
102
RTVSPost2010Prop49
280
     0
102
RTVSPost2010PropOp49
 70
     1
102
RTVSPost2010Prop50
 90
       50
102
RTVSPost2010PropOp50
 70
     1
102
RTVSPost2010Prop51ColorIndex
 90
      256
102
RTVSPost2010Prop51ColorRGB
 90
-16777216
102
RTVSPost2010PropOp51
 70
     0
102
RTVSPost2010Prop52
140
1.0
102
RTVSPost2010PropOp52
 70
     0
102
RTVSPost2010Prop53
 90
        2
102
RTVSPost2010PropOp53
 70
     1
102
RTVSPost2010Prop54
  1
strokes_ogs.tif
102
RTVSPost2010PropOp54
 70
     1
102
RTVSPost2010Prop55
280
     0
102
RTVSPost2010PropOp55
 70
     1
102
RTVSPost2010Prop56
140
1.0
102
RTVSPost2010PropOp56
 70
     1
102
RTVSPost2010Prop57
140
1.0
102
RTVSPost2010PropOp57
 70
     1
  0
XRECORD
  5
38C
102
{ACAD_REACTORS
330
38B
102
}
330
38B
100
AcDbXrecord
280
     1
102
RTVSPropertyOp0
 70
     0
102
RTVSPropertyOp1
 70
     0
102
RTVSPropertyOp2
 70
     0
102
RTVSPropertyOp3
 70
     0
102
RTVSPropertyOp4
 70
     0
102
RTVSPropertyOp5
 70
     0
102
RTVSPropertyOp6
 70
     0
102
RTVSPropertyOp7
 70
     0
102
RTVSPropertyOp8
 70
     0
102
RTVSPropertyOp9
 70
     0
102
RTVSPropertyOp10
 70
     0
102
RTVSPropertyOp11
 70
     0
102
RTVSPropertyOp12
 70
     0
102
RTVSPropertyOp13
 70
     0
102
RTVSPropertyOp14
 70
     2
102
RTVSPropertyOp15
 70
     0
102
RTVSPropertyOp16
 70
     0
102
RTVSPropertyOp17
 70
     0
102
RTVSPropertyOp18
 70
     0
102
RTVSPropertyOp19
 70
     0
102
RTVSPropertyOp20
 70
     0
102
RTVSPropertyOp21
 70
     0
102
RTVSPropertyOp22
 70
     0
102
RTVSPropertyOp23
 70
     0
102
RTVSPropertyOp24
 70
     0
102
RTVSPropertyOp25
 70
     0
102
RTVSPropertyOp26
 70
     0
102
RTVSPropertyOp27
 70
     0
102
RTVSPropertyOp28
 70
     0
102
RTVSPropertyOp29
 70
     0
102
RTVSPropertyOp30
 70
     0
102
RTVSPropertyOp31
 70
     0
102
RTVSPropertyOp32
 70
     0
102
RTVSPropertyOp33
 70
     0
102
RTVSPropertyOp34
 70
     0
102
RTVSPropertyOp35
 70
     0
102
RTVSPropertyOp36
 70
     0
102
RTVSPropertyOp37
 70
     0
102
RTVSPropertyOp38
 70
     0
102
RTVSPropertyOp39
 70
     0
102
RTVSPropertyOp40
 70
     0
102
RTVSPropertyOp41
 70
     0
102
RTVSPropertyOp42
 70
     0
102
RTVSPropertyOp43
 70
     0
102
RTVSPropertyOp44
 70
     0
102
RTVSPropertyOp45
 70
     0
102
RTVSPropertyOp46
 70
     0
102
RTVSPropertyOp47
 70
     0
102
RTVSPropertyOp48
 70
     0
102
RTVSPropertyOp49
 70
     0
102
RTVSPropertyOp50
 70
     0
102
RTVSPropertyOp51
 70
     0
102
RTVSPropertyOp52
 70
     0
102
RTVSPropertyOp53
 70
     0
102
RTVSPropertyOp54
 70
     0
102
RTVSPropertyOp55
 70
     0
102
RTVSPropertyOp56
 70
     0
102
RTVSPropertyOp57
 70
     0
102
RTVSPost2010Prop28
280
     0
102
RTVSPost2010PropOp28
 70
     0
102
RTVSPost2010Prop29
280
     1
102
RTVSPost2010PropOp29
 70
     0
102
RTVSPost2010Prop30
280
     1
102
RTVSPost2010PropOp30
 70
     0
102
RTVSPost2010Prop31
280
     0
102
RTVSPost2010PropOp31
 70
     0
102
RTVSPost2010Prop32
280
     0
102
RTVSPost2010PropOp32
 70
     0
102
RTVSPost2010Prop33
280
     0
102
RTVSPost2010PropOp33
 70
     0
102
RTVSPost2010Prop34
280
     0
102
RTVSPost2010PropOp34
 70
     0
102
RTVSPost2010Prop35
280
     0
102
RTVSPost2010PropOp35
 70
     0
102
RTVSPost2010Prop36
280
     0
102
RTVSPost2010PropOp36
 70
     0
102
RTVSPost2010Prop37
 90
       50
102
RTVSPost2010PropOp37
 70
     0
102
RTVSPost2010Prop38
140
0.0
102
RTVSPost2010PropOp38
 70
     0
102
RTVSPost2010Prop39
140
1.0
102
RTVSPost2010PropOp39
 70
     0
102
RTVSPost2010Prop40
 90
        0
102
RTVSPost2010PropOp40
 70
     0
102
RTVSPost2010Prop41ColorIndex
 90
       18
102
RTVSPost2010Prop41ColorRGB
 90
        0
102
RTVSPost2010PropOp41
 70
     0
102
RTVSPost2010Prop42
 90
       50
102
RTVSPost2010PropOp42
 70
     0
102
RTVSPost2010Prop43
 90
        3
102
RTVSPost2010PropOp43
 70
     0
102
RTVSPost2010Prop44ColorIndex
 90
        5
102
RTVSPost2010Prop44ColorRGB
 90
      255
102
RTVSPost2010PropOp44
 70
     0
102
RTVSPost2010Prop45
280
     0
102
RTVSPost2010PropOp45
 70
     0
102
RTVSPost2010Prop46
 90
       50
102
RTVSPost2010PropOp46
 70
     0
102
RTVSPost2010Prop47
 90
       50
102
RTVSPost2010PropOp47
 70
     0
102
RTVSPost2010Prop48
 90
       50
102
RTVSPost2010PropOp48
 70
     0
102
RTVSPost2010Prop49
280
     0
102
RTVSPost2010PropOp49
 70
     0
102
RTVSPost2010Prop50
 90
       50
102
RTVSPost2010PropOp50
 70
     0
102
RTVSPost2010Prop51ColorIndex
 90
      256
102
RTVSPost2010Prop51ColorRGB
 90
-16777216
102
RTVSPost2010PropOp51
 70
     0
102
RTVSPost2010Prop52
140
1.0
102
RTVSPost2010PropOp52
 70
     0
102
RTVSPost2010Prop53
 90
        2
102
RTVSPost2010PropOp53
 70
     0
102
RTVSPost2010Prop54
  1
strokes_ogs.tif
102
RTVSPost2010PropOp54
 70
     0
102
RTVSPost2010Prop55
280
     0
102
RTVSPost2010PropOp55
 70
     0
102
RTVSPost2010Prop56
140
1.0
102
RTVSPost2010PropOp56
 70
     0
102
RTVSPost2010Prop57
140
1.0
102
RTVSPost2010PropOp57
 70
     0
  0
XRECORD
  5
384
102
{ACAD_REACTORS
330
383
102
}
330
383
100
AcDbXrecord
280
     1
102
RTVSPropertyOp0
 70
     1
102
RTVSPropertyOp1
 70
     1
102
RTVSPropertyOp2
 70
     1
102
RTVSPropertyOp3
 70
     1
102
RTVSPropertyOp4
 70
     1
102
RTVSPropertyOp5
 70
     1
102
RTVSPropertyOp6
 70
     1
102
RTVSPropertyOp7
 70
     1
102
RTVSPropertyOp8
 70
     1
102
RTVSPropertyOp9
 70
     1
102
RTVSPropertyOp10
 70
     1
102
RTVSPropertyOp11
 70
     1
102
RTVSPropertyOp12
 70
     1
102
RTVSPropertyOp13
 70
     1
102
RTVSPropertyOp14
 70
     1
102
RTVSPropertyOp15
 70
     1
102
RTVSPropertyOp16
 70
     1
102
RTVSPropertyOp17
 70
     1
102
RTVSPropertyOp18
 70
     1
102
RTVSPropertyOp19
 70
     1
102
RTVSPropertyOp20
 70
     1
102
RTVSPropertyOp21
 70
     1
102
RTVSPropertyOp22
 70
     1
102
RTVSPropertyOp23
 70
     1
102
RTVSPropertyOp24
 70
     1
102
RTVSPropertyOp25
 70
     1
102
RTVSPropertyOp26
 70
     1
102
RTVSPropertyOp27
 70
     1
102
RTVSPropertyOp28
 70
     1
102
RTVSPropertyOp29
 70
     1
102
RTVSPropertyOp30
 70
     1
102
RTVSPropertyOp31
 70
     1
102
RTVSPropertyOp32
 70
     1
102
RTVSPropertyOp33
 70
     1
102
RTVSPropertyOp34
 70
     1
102
RTVSPropertyOp35
 70
     1
102
RTVSPropertyOp36
 70
     1
102
RTVSPropertyOp37
 70
     1
102
RTVSPropertyOp38
 70
     1
102
RTVSPropertyOp39
 70
     1
102
RTVSPropertyOp40
 70
     1
102
RTVSPropertyOp41
 70
     1
102
RTVSPropertyOp42
 70
     1
102
RTVSPropertyOp43
 70
     1
102
RTVSPropertyOp44
 70
     1
102
RTVSPropertyOp45
 70
     1
102
RTVSPropertyOp46
 70
     1
102
RTVSPropertyOp47
 70
     1
102
RTVSPropertyOp48
 70
     1
102
RTVSPropertyOp49
 70
     1
102
RTVSPropertyOp50
 70
     1
102
RTVSPropertyOp51
 70
     0
102
RTVSPropertyOp52
 70
     0
102
RTVSPropertyOp53
 70
     1
102
RTVSPropertyOp54
 70
     1
102
RTVSPropertyOp55
 70
     1
102
RTVSPropertyOp56
 70
     1
102
RTVSPropertyOp57
 70
     1
102
RTVSPost2010Prop28
280
     0
102
RTVSPost2010PropOp28
 70
     1
102
RTVSPost2010Prop29
280
     1
102
RTVSPost2010PropOp29
 70
     1
102
RTVSPost2010Prop30
280
     1
102
RTVSPost2010PropOp30
 70
     1
102
RTVSPost2010Prop31
280
     0
102
RTVSPost2010PropOp31
 70
     1
102
RTVSPost2010Prop32
280
     0
102
RTVSPost2010PropOp32
 70
     1
102
RTVSPost2010Prop33
280
     0
102
RTVSPost2010PropOp33
 70
     1
102
RTVSPost2010Prop34
280
     0
102
RTVSPost2010PropOp34
 70
     1
102
RTVSPost2010Prop35
280
     0
102
RTVSPost2010PropOp35
 70
     1
102
RTVSPost2010Prop36
280
     0
102
RTVSPost2010PropOp36
 70
     1
102
RTVSPost2010Prop37
 90
       50
102
RTVSPost2010PropOp37
 70
     1
102
RTVSPost2010Prop38
140
0.0
102
RTVSPost2010PropOp38
 70
     1
102
RTVSPost2010Prop39
140
1.0
102
RTVSPost2010PropOp39
 70
     1
102
RTVSPost2010Prop40
 90
        0
102
RTVSPost2010PropOp40
 70
     1
102
RTVSPost2010Prop41ColorIndex
 90
       18
102
RTVSPost2010Prop41ColorRGB
 90
        0
102
RTVSPost2010PropOp41
 70
     1
102
RTVSPost2010Prop42
 90
       50
102
RTVSPost2010PropOp42
 70
     1
102
RTVSPost2010Prop43
 90
        3
102
RTVSPost2010PropOp43
 70
     1
102
RTVSPost2010Prop44ColorIndex
 90
        5
102
RTVSPost2010Prop44ColorRGB
 90
      255
102
RTVSPost2010PropOp44
 70
     1
102
RTVSPost2010Prop45
280
     0
102
RTVSPost2010PropOp45
 70
     1
102
RTVSPost2010Prop46
 90
       50
102
RTVSPost2010PropOp46
 70
     1
102
RTVSPost2010Prop47
 90
       50
102
RTVSPost2010PropOp47
 70
     1
102
RTVSPost2010Prop48
 90
       50
102
RTVSPost2010PropOp48
 70
     1
102
RTVSPost2010Prop49
280
     0
102
RTVSPost2010PropOp49
 70
     1
102
RTVSPost2010Prop50
 90
       50
102
RTVSPost2010PropOp50
 70
     1
102
RTVSPost2010Prop51ColorIndex
 90
      256
102
RTVSPost2010Prop51ColorRGB
 90
-16777216
102
RTVSPost2010PropOp51
 70
     0
102
RTVSPost2010Prop52
140
1.0
102
RTVSPost2010PropOp52
 70
     0
102
RTVSPost2010Prop53
 90
        2
102
RTVSPost2010PropOp53
 70
     1
102
RTVSPost2010Prop54
  1
strokes_ogs.tif
102
RTVSPost2010PropOp54
 70
     1
102
RTVSPost2010Prop55
280
     0
102
RTVSPost2010PropOp55
 70
     1
102
RTVSPost2010Prop56
140
1.0
102
RTVSPost2010PropOp56
 70
     1
102
RTVSPost2010Prop57
140
1.0
102
RTVSPost2010PropOp57
 70
     1
  0
XRECORD
  5
368
102
{ACAD_REACTORS
330
367
102
}
330
367
100
AcDbXrecord
280
     1
102
RTVSPropertyOp0
 70
     1
102
RTVSPropertyOp1
 70
     1
102
RTVSPropertyOp2
 70
     1
102
RTVSPropertyOp3
 70
     1
102
RTVSPropertyOp4
 70
     1
102
RTVSPropertyOp5
 70
     1
102
RTVSPropertyOp6
 70
     1
102
RTVSPropertyOp7
 70
     1
102
RTVSPropertyOp8
 70
     1
102
RTVSPropertyOp9
 70
     1
102
RTVSPropertyOp10
 70
     1
102
RTVSPropertyOp11
 70
     1
102
RTVSPropertyOp12
 70
     1
102
RTVSPropertyOp13
 70
     1
102
RTVSPropertyOp14
 70
     1
102
RTVSPropertyOp15
 70
     1
102
RTVSPropertyOp16
 70
     1
102
RTVSPropertyOp17
 70
     1
102
RTVSPropertyOp18
 70
     1
102
RTVSPropertyOp19
 70
     1
102
RTVSPropertyOp20
 70
     1
102
RTVSPropertyOp21
 70
     1
102
RTVSPropertyOp22
 70
     1
102
RTVSPropertyOp23
 70
     1
102
RTVSPropertyOp24
 70
     1
102
RTVSPropertyOp25
 70
     1
102
RTVSPropertyOp26
 70
     1
102
RTVSPropertyOp27
 70
     1
102
RTVSPropertyOp28
 70
     1
102
RTVSPropertyOp29
 70
     1
102
RTVSPropertyOp30
 70
     1
102
RTVSPropertyOp31
 70
     1
102
RTVSPropertyOp32
 70
     1
102
RTVSPropertyOp33
 70
     1
102
RTVSPropertyOp34
 70
     1
102
RTVSPropertyOp35
 70
     1
102
RTVSPropertyOp36
 70
     1
102
RTVSPropertyOp37
 70
     1
102
RTVSPropertyOp38
 70
     1
102
RTVSPropertyOp39
 70
     1
102
RTVSPropertyOp40
 70
     1
102
RTVSPropertyOp41
 70
     1
102
RTVSPropertyOp42
 70
     1
102
RTVSPropertyOp43
 70
     1
102
RTVSPropertyOp44
 70
     1
102
RTVSPropertyOp45
 70
     1
102
RTVSPropertyOp46
 70
     1
102
RTVSPropertyOp47
 70
     1
102
RTVSPropertyOp48
 70
     1
102
RTVSPropertyOp49
 70
     1
102
RTVSPropertyOp50
 70
     1
102
RTVSPropertyOp51
 70
     0
102
RTVSPropertyOp52
 70
     0
102
RTVSPropertyOp53
 70
     1
102
RTVSPropertyOp54
 70
     1
102
RTVSPropertyOp55
 70
     1
102
RTVSPropertyOp56
 70
     1
102
RTVSPropertyOp57
 70
     1
102
RTVSPost2010Prop28
280
     0
102
RTVSPost2010PropOp28
 70
     1
102
RTVSPost2010Prop29
280
     1
102
RTVSPost2010PropOp29
 70
     1
102
RTVSPost2010Prop30
280
     1
102
RTVSPost2010PropOp30
 70
     1
102
RTVSPost2010Prop31
280
     0
102
RTVSPost2010PropOp31
 70
     1
102
RTVSPost2010Prop32
280
     0
102
RTVSPost2010PropOp32
 70
     1
102
RTVSPost2010Prop33
280
     0
102
RTVSPost2010PropOp33
 70
     1
102
RTVSPost2010Prop34
280
     0
102
RTVSPost2010PropOp34
 70
     1
102
RTVSPost2010Prop35
280
     0
102
RTVSPost2010PropOp35
 70
     1
102
RTVSPost2010Prop36
280
     0
102
RTVSPost2010PropOp36
 70
     1
102
RTVSPost2010Prop37
 90
       50
102
RTVSPost2010PropOp37
 70
     1
102
RTVSPost2010Prop38
140
0.0
102
RTVSPost2010PropOp38
 70
     1
102
RTVSPost2010Prop39
140
1.0
102
RTVSPost2010PropOp39
 70
     1
102
RTVSPost2010Prop40
 90
        0
102
RTVSPost2010PropOp40
 70
     1
102
RTVSPost2010Prop41ColorIndex
 90
       18
102
RTVSPost2010Prop41ColorRGB
 90
        0
102
RTVSPost2010PropOp41
 70
     1
102
RTVSPost2010Prop42
 90
       50
102
RTVSPost2010PropOp42
 70
     1
102
RTVSPost2010Prop43
 90
        3
102
RTVSPost2010PropOp43
 70
     1
102
RTVSPost2010Prop44ColorIndex
 90
        5
102
RTVSPost2010Prop44ColorRGB
 90
      255
102
RTVSPost2010PropOp44
 70
     1
102
RTVSPost2010Prop45
280
     0
102
RTVSPost2010PropOp45
 70
     1
102
RTVSPost2010Prop46
 90
       50
102
RTVSPost2010PropOp46
 70
     1
102
RTVSPost2010Prop47
 90
       50
102
RTVSPost2010PropOp47
 70
     1
102
RTVSPost2010Prop48
 90
       50
102
RTVSPost2010PropOp48
 70
     1
102
RTVSPost2010Prop49
280
     0
102
RTVSPost2010PropOp49
 70
     1
102
RTVSPost2010Prop50
 90
       50
102
RTVSPost2010PropOp50
 70
     1
102
RTVSPost2010Prop51ColorIndex
 90
      256
102
RTVSPost2010Prop51ColorRGB
 90
-16777216
102
RTVSPost2010PropOp51
 70
     0
102
RTVSPost2010Prop52
140
1.0
102
RTVSPost2010PropOp52
 70
     0
102
RTVSPost2010Prop53
 90
        2
102
RTVSPost2010PropOp53
 70
     1
102
RTVSPost2010Prop54
  1
strokes_ogs.tif
102
RTVSPost2010PropOp54
 70
     1
102
RTVSPost2010Prop55
280
     0
102
RTVSPost2010PropOp55
 70
     1
102
RTVSPost2010Prop56
140
1.0
102
RTVSPost2010PropOp56
 70
     1
102
RTVSPost2010Prop57
140
1.0
102
RTVSPost2010PropOp57
 70
     1
  0
XRECORD
  5
36A
102
{ACAD_REACTORS
330
369
102
}
330
369
100
AcDbXrecord
280
     1
102
RTVSPropertyOp0
 70
     1
102
RTVSPropertyOp1
 70
     1
102
RTVSPropertyOp2
 70
     1
102
RTVSPropertyOp3
 70
     1
102
RTVSPropertyOp4
 70
     1
102
RTVSPropertyOp5
 70
     1
102
RTVSPropertyOp6
 70
     1
102
RTVSPropertyOp7
 70
     1
102
RTVSPropertyOp8
 70
     1
102
RTVSPropertyOp9
 70
     1
102
RTVSPropertyOp10
 70
     1
102
RTVSPropertyOp11
 70
     1
102
RTVSPropertyOp12
 70
     1
102
RTVSPropertyOp13
 70
     1
102
RTVSPropertyOp14
 70
     1
102
RTVSPropertyOp15
 70
     1
102
RTVSPropertyOp16
 70
     1
102
RTVSPropertyOp17
 70
     1
102
RTVSPropertyOp18
 70
     1
102
RTVSPropertyOp19
 70
     1
102
RTVSPropertyOp20
 70
     1
102
RTVSPropertyOp21
 70
     1
102
RTVSPropertyOp22
 70
     1
102
RTVSPropertyOp23
 70
     1
102
RTVSPropertyOp24
 70
     1
102
RTVSPropertyOp25
 70
     1
102
RTVSPropertyOp26
 70
     1
102
RTVSPropertyOp27
 70
     1
102
RTVSPropertyOp28
 70
     1
102
RTVSPropertyOp29
 70
     1
102
RTVSPropertyOp30
 70
     1
102
RTVSPropertyOp31
 70
     1
102
RTVSPropertyOp32
 70
     1
102
RTVSPropertyOp33
 70
     1
102
RTVSPropertyOp34
 70
     1
102
RTVSPropertyOp35
 70
     1
102
RTVSPropertyOp36
 70
     1
102
RTVSPropertyOp37
 70
     1
102
RTVSPropertyOp38
 70
     1
102
RTVSPropertyOp39
 70
     1
102
RTVSPropertyOp40
 70
     1
102
RTVSPropertyOp41
 70
     1
102
RTVSPropertyOp42
 70
     1
102
RTVSPropertyOp43
 70
     1
102
RTVSPropertyOp44
 70
     1
102
RTVSPropertyOp45
 70
     1
102
RTVSPropertyOp46
 70
     1
102
RTVSPropertyOp47
 70
     1
102
RTVSPropertyOp48
 70
     1
102
RTVSPropertyOp49
 70
     1
102
RTVSPropertyOp50
 70
     1
102
RTVSPropertyOp51
 70
     0
102
RTVSPropertyOp52
 70
     0
102
RTVSPropertyOp53
 70
     1
102
RTVSPropertyOp54
 70
     1
102
RTVSPropertyOp55
 70
     1
102
RTVSPropertyOp56
 70
     1
102
RTVSPropertyOp57
 70
     1
102
RTVSPost2010Prop28
280
     0
102
RTVSPost2010PropOp28
 70
     1
102
RTVSPost2010Prop29
280
     1
102
RTVSPost2010PropOp29
 70
     1
102
RTVSPost2010Prop30
280
     1
102
RTVSPost2010PropOp30
 70
     1
102
RTVSPost2010Prop31
280
     0
102
RTVSPost2010PropOp31
 70
     1
102
RTVSPost2010Prop32
280
     0
102
RTVSPost2010PropOp32
 70
     1
102
RTVSPost2010Prop33
280
     0
102
RTVSPost2010PropOp33
 70
     1
102
RTVSPost2010Prop34
280
     0
102
RTVSPost2010PropOp34
 70
     1
102
RTVSPost2010Prop35
280
     0
102
RTVSPost2010PropOp35
 70
     1
102
RTVSPost2010Prop36
280
     0
102
RTVSPost2010PropOp36
 70
     1
102
RTVSPost2010Prop37
 90
       50
102
RTVSPost2010PropOp37
 70
     1
102
RTVSPost2010Prop38
140
0.0
102
RTVSPost2010PropOp38
 70
     1
102
RTVSPost2010Prop39
140
1.0
102
RTVSPost2010PropOp39
 70
     1
102
RTVSPost2010Prop40
 90
        0
102
RTVSPost2010PropOp40
 70
     1
102
RTVSPost2010Prop41ColorIndex
 90
       18
102
RTVSPost2010Prop41ColorRGB
 90
        0
102
RTVSPost2010PropOp41
 70
     1
102
RTVSPost2010Prop42
 90
       50
102
RTVSPost2010PropOp42
 70
     1
102
RTVSPost2010Prop43
 90
        3
102
RTVSPost2010PropOp43
 70
     1
102
RTVSPost2010Prop44ColorIndex
 90
        5
102
RTVSPost2010Prop44ColorRGB
 90
      255
102
RTVSPost2010PropOp44
 70
     1
102
RTVSPost2010Prop45
280
     0
102
RTVSPost2010PropOp45
 70
     1
102
RTVSPost2010Prop46
 90
       50
102
RTVSPost2010PropOp46
 70
     1
102
RTVSPost2010Prop47
 90
       50
102
RTVSPost2010PropOp47
 70
     1
102
RTVSPost2010Prop48
 90
       50
102
RTVSPost2010PropOp48
 70
     1
102
RTVSPost2010Prop49
280
     0
102
RTVSPost2010PropOp49
 70
     1
102
RTVSPost2010Prop50
 90
       50
102
RTVSPost2010PropOp50
 70
     1
102
RTVSPost2010Prop51ColorIndex
 90
      256
102
RTVSPost2010Prop51ColorRGB
 90
-16777216
102
RTVSPost2010PropOp51
 70
     0
102
RTVSPost2010Prop52
140
1.0
102
RTVSPost2010PropOp52
 70
     0
102
RTVSPost2010Prop53
 90
        2
102
RTVSPost2010PropOp53
 70
     1
102
RTVSPost2010Prop54
  1
strokes_ogs.tif
102
RTVSPost2010PropOp54
 70
     1
102
RTVSPost2010Prop55
280
     0
102
RTVSPost2010PropOp55
 70
     1
102
RTVSPost2010Prop56
140
1.0
102
RTVSPost2010PropOp56
 70
     1
102
RTVSPost2010Prop57
140
1.0
102
RTVSPost2010PropOp57
 70
     1
  0
XRECORD
  5
36C
102
{ACAD_REACTORS
330
36B
102
}
330
36B
100
AcDbXrecord
280
     1
102
RTVSPropertyOp0
 70
     1
102
RTVSPropertyOp1
 70
     1
102
RTVSPropertyOp2
 70
     1
102
RTVSPropertyOp3
 70
     1
102
RTVSPropertyOp4
 70
     1
102
RTVSPropertyOp5
 70
     1
102
RTVSPropertyOp6
 70
     1
102
RTVSPropertyOp7
 70
     1
102
RTVSPropertyOp8
 70
     1
102
RTVSPropertyOp9
 70
     1
102
RTVSPropertyOp10
 70
     1
102
RTVSPropertyOp11
 70
     1
102
RTVSPropertyOp12
 70
     1
102
RTVSPropertyOp13
 70
     1
102
RTVSPropertyOp14
 70
     1
102
RTVSPropertyOp15
 70
     1
102
RTVSPropertyOp16
 70
     1
102
RTVSPropertyOp17
 70
     1
102
RTVSPropertyOp18
 70
     1
102
RTVSPropertyOp19
 70
     1
102
RTVSPropertyOp20
 70
     1
102
RTVSPropertyOp21
 70
     1
102
RTVSPropertyOp22
 70
     1
102
RTVSPropertyOp23
 70
     1
102
RTVSPropertyOp24
 70
     1
102
RTVSPropertyOp25
 70
     1
102
RTVSPropertyOp26
 70
     1
102
RTVSPropertyOp27
 70
     1
102
RTVSPropertyOp28
 70
     1
102
RTVSPropertyOp29
 70
     1
102
RTVSPropertyOp30
 70
     1
102
RTVSPropertyOp31
 70
     1
102
RTVSPropertyOp32
 70
     1
102
RTVSPropertyOp33
 70
     1
102
RTVSPropertyOp34
 70
     1
102
RTVSPropertyOp35
 70
     1
102
RTVSPropertyOp36
 70
     1
102
RTVSPropertyOp37
 70
     1
102
RTVSPropertyOp38
 70
     1
102
RTVSPropertyOp39
 70
     1
102
RTVSPropertyOp40
 70
     1
102
RTVSPropertyOp41
 70
     1
102
RTVSPropertyOp42
 70
     1
102
RTVSPropertyOp43
 70
     1
102
RTVSPropertyOp44
 70
     1
102
RTVSPropertyOp45
 70
     1
102
RTVSPropertyOp46
 70
     1
102
RTVSPropertyOp47
 70
     1
102
RTVSPropertyOp48
 70
     1
102
RTVSPropertyOp49
 70
     1
102
RTVSPropertyOp50
 70
     1
102
RTVSPropertyOp51
 70
     0
102
RTVSPropertyOp52
 70
     0
102
RTVSPropertyOp53
 70
     1
102
RTVSPropertyOp54
 70
     1
102
RTVSPropertyOp55
 70
     1
102
RTVSPropertyOp56
 70
     1
102
RTVSPropertyOp57
 70
     1
102
RTVSPost2010Prop28
280
     0
102
RTVSPost2010PropOp28
 70
     1
102
RTVSPost2010Prop29
280
     1
102
RTVSPost2010PropOp29
 70
     1
102
RTVSPost2010Prop30
280
     1
102
RTVSPost2010PropOp30
 70
     1
102
RTVSPost2010Prop31
280
     0
102
RTVSPost2010PropOp31
 70
     1
102
RTVSPost2010Prop32
280
     0
102
RTVSPost2010PropOp32
 70
     1
102
RTVSPost2010Prop33
280
     0
102
RTVSPost2010PropOp33
 70
     1
102
RTVSPost2010Prop34
280
     0
102
RTVSPost2010PropOp34
 70
     1
102
RTVSPost2010Prop35
280
     0
102
RTVSPost2010PropOp35
 70
     1
102
RTVSPost2010Prop36
280
     0
102
RTVSPost2010PropOp36
 70
     1
102
RTVSPost2010Prop37
 90
       50
102
RTVSPost2010PropOp37
 70
     1
102
RTVSPost2010Prop38
140
0.0
102
RTVSPost2010PropOp38
 70
     1
102
RTVSPost2010Prop39
140
1.0
102
RTVSPost2010PropOp39
 70
     1
102
RTVSPost2010Prop40
 90
        0
102
RTVSPost2010PropOp40
 70
     1
102
RTVSPost2010Prop41ColorIndex
 90
       18
102
RTVSPost2010Prop41ColorRGB
 90
        0
102
RTVSPost2010PropOp41
 70
     1
102
RTVSPost2010Prop42
 90
       50
102
RTVSPost2010PropOp42
 70
     1
102
RTVSPost2010Prop43
 90
        3
102
RTVSPost2010PropOp43
 70
     1
102
RTVSPost2010Prop44ColorIndex
 90
        5
102
RTVSPost2010Prop44ColorRGB
 90
      255
102
RTVSPost2010PropOp44
 70
     1
102
RTVSPost2010Prop45
280
     0
102
RTVSPost2010PropOp45
 70
     1
102
RTVSPost2010Prop46
 90
       50
102
RTVSPost2010PropOp46
 70
     1
102
RTVSPost2010Prop47
 90
       50
102
RTVSPost2010PropOp47
 70
     1
102
RTVSPost2010Prop48
 90
       50
102
RTVSPost2010PropOp48
 70
     1
102
RTVSPost2010Prop49
280
     0
102
RTVSPost2010PropOp49
 70
     1
102
RTVSPost2010Prop50
 90
       50
102
RTVSPost2010PropOp50
 70
     1
102
RTVSPost2010Prop51ColorIndex
 90
      256
102
RTVSPost2010Prop51ColorRGB
 90
-16777216
102
RTVSPost2010PropOp51
 70
     0
102
RTVSPost2010Prop52
140
1.0
102
RTVSPost2010PropOp52
 70
     0
102
RTVSPost2010Prop53
 90
        2
102
RTVSPost2010PropOp53
 70
     1
102
RTVSPost2010Prop54
  1
strokes_ogs.tif
102
RTVSPost2010PropOp54
 70
     1
102
RTVSPost2010Prop55
280
     0
102
RTVSPost2010PropOp55
 70
     1
102
RTVSPost2010Prop56
140
1.0
102
RTVSPost2010PropOp56
 70
     1
102
RTVSPost2010Prop57
140
1.0
102
RTVSPost2010PropOp57
 70
     1
  0
XRECORD
  5
36E
102
{ACAD_REACTORS
330
36D
102
}
330
36D
100
AcDbXrecord
280
     1
102
RTVSPropertyOp0
 70
     1
102
RTVSPropertyOp1
 70
     1
102
RTVSPropertyOp2
 70
     1
102
RTVSPropertyOp3
 70
     1
102
RTVSPropertyOp4
 70
     1
102
RTVSPropertyOp5
 70
     1
102
RTVSPropertyOp6
 70
     1
102
RTVSPropertyOp7
 70
     1
102
RTVSPropertyOp8
 70
     1
102
RTVSPropertyOp9
 70
     1
102
RTVSPropertyOp10
 70
     1
102
RTVSPropertyOp11
 70
     1
102
RTVSPropertyOp12
 70
     1
102
RTVSPropertyOp13
 70
     1
102
RTVSPropertyOp14
 70
     1
102
RTVSPropertyOp15
 70
     1
102
RTVSPropertyOp16
 70
     1
102
RTVSPropertyOp17
 70
     1
102
RTVSPropertyOp18
 70
     1
102
RTVSPropertyOp19
 70
     1
102
RTVSPropertyOp20
 70
     1
102
RTVSPropertyOp21
 70
     1
102
RTVSPropertyOp22
 70
     1
102
RTVSPropertyOp23
 70
     1
102
RTVSPropertyOp24
 70
     1
102
RTVSPropertyOp25
 70
     1
102
RTVSPropertyOp26
 70
     1
102
RTVSPropertyOp27
 70
     1
102
RTVSPropertyOp28
 70
     1
102
RTVSPropertyOp29
 70
     1
102
RTVSPropertyOp30
 70
     1
102
RTVSPropertyOp31
 70
     1
102
RTVSPropertyOp32
 70
     1
102
RTVSPropertyOp33
 70
     1
102
RTVSPropertyOp34
 70
     1
102
RTVSPropertyOp35
 70
     1
102
RTVSPropertyOp36
 70
     1
102
RTVSPropertyOp37
 70
     1
102
RTVSPropertyOp38
 70
     1
102
RTVSPropertyOp39
 70
     1
102
RTVSPropertyOp40
 70
     1
102
RTVSPropertyOp41
 70
     1
102
RTVSPropertyOp42
 70
     1
102
RTVSPropertyOp43
 70
     1
102
RTVSPropertyOp44
 70
     1
102
RTVSPropertyOp45
 70
     1
102
RTVSPropertyOp46
 70
     1
102
RTVSPropertyOp47
 70
     1
102
RTVSPropertyOp48
 70
     1
102
RTVSPropertyOp49
 70
     1
102
RTVSPropertyOp50
 70
     1
102
RTVSPropertyOp51
 70
     0
102
RTVSPropertyOp52
 70
     0
102
RTVSPropertyOp53
 70
     1
102
RTVSPropertyOp54
 70
     1
102
RTVSPropertyOp55
 70
     1
102
RTVSPropertyOp56
 70
     1
102
RTVSPropertyOp57
 70
     1
102
RTVSPost2010Prop28
280
     0
102
RTVSPost2010PropOp28
 70
     1
102
RTVSPost2010Prop29
280
     1
102
RTVSPost2010PropOp29
 70
     1
102
RTVSPost2010Prop30
280
     1
102
RTVSPost2010PropOp30
 70
     1
102
RTVSPost2010Prop31
280
     0
102
RTVSPost2010PropOp31
 70
     1
102
RTVSPost2010Prop32
280
     0
102
RTVSPost2010PropOp32
 70
     1
102
RTVSPost2010Prop33
280
     0
102
RTVSPost2010PropOp33
 70
     1
102
RTVSPost2010Prop34
280
     0
102
RTVSPost2010PropOp34
 70
     1
102
RTVSPost2010Prop35
280
     0
102
RTVSPost2010PropOp35
 70
     1
102
RTVSPost2010Prop36
280
     0
102
RTVSPost2010PropOp36
 70
     1
102
RTVSPost2010Prop37
 90
       50
102
RTVSPost2010PropOp37
 70
     1
102
RTVSPost2010Prop38
140
0.0
102
RTVSPost2010PropOp38
 70
     1
102
RTVSPost2010Prop39
140
1.0
102
RTVSPost2010PropOp39
 70
     1
102
RTVSPost2010Prop40
 90
        0
102
RTVSPost2010PropOp40
 70
     1
102
RTVSPost2010Prop41ColorIndex
 90
       18
102
RTVSPost2010Prop41ColorRGB
 90
        0
102
RTVSPost2010PropOp41
 70
     1
102
RTVSPost2010Prop42
 90
       50
102
RTVSPost2010PropOp42
 70
     1
102
RTVSPost2010Prop43
 90
        3
102
RTVSPost2010PropOp43
 70
     1
102
RTVSPost2010Prop44ColorIndex
 90
        5
102
RTVSPost2010Prop44ColorRGB
 90
      255
102
RTVSPost2010PropOp44
 70
     1
102
RTVSPost2010Prop45
280
     0
102
RTVSPost2010PropOp45
 70
     1
102
RTVSPost2010Prop46
 90
       50
102
RTVSPost2010PropOp46
 70
     1
102
RTVSPost2010Prop47
 90
       50
102
RTVSPost2010PropOp47
 70
     1
102
RTVSPost2010Prop48
 90
       50
102
RTVSPost2010PropOp48
 70
     1
102
RTVSPost2010Prop49
280
     0
102
RTVSPost2010PropOp49
 70
     1
102
RTVSPost2010Prop50
 90
       50
102
RTVSPost2010PropOp50
 70
     1
102
RTVSPost2010Prop51ColorIndex
 90
      256
102
RTVSPost2010Prop51ColorRGB
 90
-16777216
102
RTVSPost2010PropOp51
 70
     0
102
RTVSPost2010Prop52
140
1.0
102
RTVSPost2010PropOp52
 70
     0
102
RTVSPost2010Prop53
 90
        2
102
RTVSPost2010PropOp53
 70
     1
102
RTVSPost2010Prop54
  1
strokes_ogs.tif
102
RTVSPost2010PropOp54
 70
     1
102
RTVSPost2010Prop55
280
     0
102
RTVSPost2010PropOp55
 70
     1
102
RTVSPost2010Prop56
140
1.0
102
RTVSPost2010PropOp56
 70
     1
102
RTVSPost2010Prop57
140
1.0
102
RTVSPost2010PropOp57
 70
     1
  0
XRECORD
  5
374
102
{ACAD_REACTORS
330
373
102
}
330
373
100
AcDbXrecord
280
     1
102
RTVSPropertyOp0
 70
     1
102
RTVSPropertyOp1
 70
     1
102
RTVSPropertyOp2
 70
     1
102
RTVSPropertyOp3
 70
     1
102
RTVSPropertyOp4
 70
     1
102
RTVSPropertyOp5
 70
     1
102
RTVSPropertyOp6
 70
     1
102
RTVSPropertyOp7
 70
     1
102
RTVSPropertyOp8
 70
     1
102
RTVSPropertyOp9
 70
     1
102
RTVSPropertyOp10
 70
     1
102
RTVSPropertyOp11
 70
     1
102
RTVSPropertyOp12
 70
     1
102
RTVSPropertyOp13
 70
     1
102
RTVSPropertyOp14
 70
     1
102
RTVSPropertyOp15
 70
     1
102
RTVSPropertyOp16
 70
     1
102
RTVSPropertyOp17
 70
     1
102
RTVSPropertyOp18
 70
     1
102
RTVSPropertyOp19
 70
     1
102
RTVSPropertyOp20
 70
     1
102
RTVSPropertyOp21
 70
     1
102
RTVSPropertyOp22
 70
     1
102
RTVSPropertyOp23
 70
     1
102
RTVSPropertyOp24
 70
     1
102
RTVSPropertyOp25
 70
     1
102
RTVSPropertyOp26
 70
     1
102
RTVSPropertyOp27
 70
     1
102
RTVSPropertyOp28
 70
     1
102
RTVSPropertyOp29
 70
     1
102
RTVSPropertyOp30
 70
     1
102
RTVSPropertyOp31
 70
     1
102
RTVSPropertyOp32
 70
     1
102
RTVSPropertyOp33
 70
     1
102
RTVSPropertyOp34
 70
     1
102
RTVSPropertyOp35
 70
     1
102
RTVSPropertyOp36
 70
     1
102
RTVSPropertyOp37
 70
     1
102
RTVSPropertyOp38
 70
     1
102
RTVSPropertyOp39
 70
     1
102
RTVSPropertyOp40
 70
     1
102
RTVSPropertyOp41
 70
     1
102
RTVSPropertyOp42
 70
     1
102
RTVSPropertyOp43
 70
     1
102
RTVSPropertyOp44
 70
     1
102
RTVSPropertyOp45
 70
     1
102
RTVSPropertyOp46
 70
     1
102
RTVSPropertyOp47
 70
     1
102
RTVSPropertyOp48
 70
     1
102
RTVSPropertyOp49
 70
     1
102
RTVSPropertyOp50
 70
     1
102
RTVSPropertyOp51
 70
     0
102
RTVSPropertyOp52
 70
     0
102
RTVSPropertyOp53
 70
     1
102
RTVSPropertyOp54
 70
     1
102
RTVSPropertyOp55
 70
     1
102
RTVSPropertyOp56
 70
     1
102
RTVSPropertyOp57
 70
     1
102
RTVSPost2010Prop28
280
     0
102
RTVSPost2010PropOp28
 70
     1
102
RTVSPost2010Prop29
280
     1
102
RTVSPost2010PropOp29
 70
     1
102
RTVSPost2010Prop30
280
     1
102
RTVSPost2010PropOp30
 70
     1
102
RTVSPost2010Prop31
280
     0
102
RTVSPost2010PropOp31
 70
     1
102
RTVSPost2010Prop32
280
     0
102
RTVSPost2010PropOp32
 70
     1
102
RTVSPost2010Prop33
280
     0
102
RTVSPost2010PropOp33
 70
     1
102
RTVSPost2010Prop34
280
     0
102
RTVSPost2010PropOp34
 70
     1
102
RTVSPost2010Prop35
280
     0
102
RTVSPost2010PropOp35
 70
     1
102
RTVSPost2010Prop36
280
     0
102
RTVSPost2010PropOp36
 70
     1
102
RTVSPost2010Prop37
 90
       50
102
RTVSPost2010PropOp37
 70
     1
102
RTVSPost2010Prop38
140
0.0
102
RTVSPost2010PropOp38
 70
     1
102
RTVSPost2010Prop39
140
1.0
102
RTVSPost2010PropOp39
 70
     1
102
RTVSPost2010Prop40
 90
        0
102
RTVSPost2010PropOp40
 70
     1
102
RTVSPost2010Prop41ColorIndex
 90
       18
102
RTVSPost2010Prop41ColorRGB
 90
        0
102
RTVSPost2010PropOp41
 70
     1
102
RTVSPost2010Prop42
 90
       50
102
RTVSPost2010PropOp42
 70
     1
102
RTVSPost2010Prop43
 90
        3
102
RTVSPost2010PropOp43
 70
     1
102
RTVSPost2010Prop44ColorIndex
 90
        5
102
RTVSPost2010Prop44ColorRGB
 90
      255
102
RTVSPost2010PropOp44
 70
     1
102
RTVSPost2010Prop45
280
     0
102
RTVSPost2010PropOp45
 70
     1
102
RTVSPost2010Prop46
 90
       50
102
RTVSPost2010PropOp46
 70
     1
102
RTVSPost2010Prop47
 90
       50
102
RTVSPost2010PropOp47
 70
     1
102
RTVSPost2010Prop48
 90
       50
102
RTVSPost2010PropOp48
 70
     1
102
RTVSPost2010Prop49
280
     0
102
RTVSPost2010PropOp49
 70
     1
102
RTVSPost2010Prop50
 90
       50
102
RTVSPost2010PropOp50
 70
     1
102
RTVSPost2010Prop51ColorIndex
 90
      256
102
RTVSPost2010Prop51ColorRGB
 90
-16777216
102
RTVSPost2010PropOp51
 70
     0
102
RTVSPost2010Prop52
140
1.0
102
RTVSPost2010PropOp52
 70
     0
102
RTVSPost2010Prop53
 90
        2
102
RTVSPost2010PropOp53
 70
     1
102
RTVSPost2010Prop54
  1
strokes_ogs.tif
102
RTVSPost2010PropOp54
 70
     1
102
RTVSPost2010Prop55
280
     0
102
RTVSPost2010PropOp55
 70
     1
102
RTVSPost2010Prop56
140
1.0
102
RTVSPost2010PropOp56
 70
     1
102
RTVSPost2010Prop57
140
1.0
102
RTVSPost2010PropOp57
 70
     1
  0
XRECORD
  5
388
102
{ACAD_REACTORS
330
387
102
}
330
387
100
AcDbXrecord
280
     1
102
RTVSPropertyOp0
 70
     0
102
RTVSPropertyOp1
 70
     0
102
RTVSPropertyOp2
 70
     0
102
RTVSPropertyOp3
 70
     0
102
RTVSPropertyOp4
 70
     0
102
RTVSPropertyOp5
 70
     0
102
RTVSPropertyOp6
 70
     0
102
RTVSPropertyOp7
 70
     0
102
RTVSPropertyOp8
 70
     0
102
RTVSPropertyOp9
 70
     0
102
RTVSPropertyOp10
 70
     0
102
RTVSPropertyOp11
 70
     0
102
RTVSPropertyOp12
 70
     0
102
RTVSPropertyOp13
 70
     0
102
RTVSPropertyOp14
 70
     2
102
RTVSPropertyOp15
 70
     0
102
RTVSPropertyOp16
 70
     0
102
RTVSPropertyOp17
 70
     0
102
RTVSPropertyOp18
 70
     0
102
RTVSPropertyOp19
 70
     0
102
RTVSPropertyOp20
 70
     0
102
RTVSPropertyOp21
 70
     0
102
RTVSPropertyOp22
 70
     0
102
RTVSPropertyOp23
 70
     0
102
RTVSPropertyOp24
 70
     0
102
RTVSPropertyOp25
 70
     0
102
RTVSPropertyOp26
 70
     0
102
RTVSPropertyOp27
 70
     0
102
RTVSPropertyOp28
 70
     0
102
RTVSPropertyOp29
 70
     0
102
RTVSPropertyOp30
 70
     0
102
RTVSPropertyOp31
 70
     0
102
RTVSPropertyOp32
 70
     0
102
RTVSPropertyOp33
 70
     0
102
RTVSPropertyOp34
 70
     0
102
RTVSPropertyOp35
 70
     0
102
RTVSPropertyOp36
 70
     0
102
RTVSPropertyOp37
 70
     0
102
RTVSPropertyOp38
 70
     0
102
RTVSPropertyOp39
 70
     0
102
RTVSPropertyOp40
 70
     0
102
RTVSPropertyOp41
 70
     0
102
RTVSPropertyOp42
 70
     0
102
RTVSPropertyOp43
 70
     0
102
RTVSPropertyOp44
 70
     0
102
RTVSPropertyOp45
 70
     0
102
RTVSPropertyOp46
 70
     0
102
RTVSPropertyOp47
 70
     0
102
RTVSPropertyOp48
 70
     0
102
RTVSPropertyOp49
 70
     0
102
RTVSPropertyOp50
 70
     0
102
RTVSPropertyOp51
 70
     0
102
RTVSPropertyOp52
 70
     0
102
RTVSPropertyOp53
 70
     0
102
RTVSPropertyOp54
 70
     0
102
RTVSPropertyOp55
 70
     0
102
RTVSPropertyOp56
 70
     0
102
RTVSPropertyOp57
 70
     0
102
RTVSPost2010Prop28
280
     0
102
RTVSPost2010PropOp28
 70
     0
102
RTVSPost2010Prop29
280
     1
102
RTVSPost2010PropOp29
 70
     0
102
RTVSPost2010Prop30
280
     1
102
RTVSPost2010PropOp30
 70
     0
102
RTVSPost2010Prop31
280
     0
102
RTVSPost2010PropOp31
 70
     0
102
RTVSPost2010Prop32
280
     0
102
RTVSPost2010PropOp32
 70
     0
102
RTVSPost2010Prop33
280
     0
102
RTVSPost2010PropOp33
 70
     0
102
RTVSPost2010Prop34
280
     0
102
RTVSPost2010PropOp34
 70
     0
102
RTVSPost2010Prop35
280
     0
102
RTVSPost2010PropOp35
 70
     0
102
RTVSPost2010Prop36
280
     0
102
RTVSPost2010PropOp36
 70
     0
102
RTVSPost2010Prop37
 90
       50
102
RTVSPost2010PropOp37
 70
     0
102
RTVSPost2010Prop38
140
0.0
102
RTVSPost2010PropOp38
 70
     0
102
RTVSPost2010Prop39
140
1.0
102
RTVSPost2010PropOp39
 70
     0
102
RTVSPost2010Prop40
 90
        0
102
RTVSPost2010PropOp40
 70
     0
102
RTVSPost2010Prop41ColorIndex
 90
       18
102
RTVSPost2010Prop41ColorRGB
 90
        0
102
RTVSPost2010PropOp41
 70
     0
102
RTVSPost2010Prop42
 90
       50
102
RTVSPost2010PropOp42
 70
     0
102
RTVSPost2010Prop43
 90
        3
102
RTVSPost2010PropOp43
 70
     0
102
RTVSPost2010Prop44ColorIndex
 90
        5
102
RTVSPost2010Prop44ColorRGB
 90
      255
102
RTVSPost2010PropOp44
 70
     0
102
RTVSPost2010Prop45
280
     0
102
RTVSPost2010PropOp45
 70
     0
102
RTVSPost2010Prop46
 90
       50
102
RTVSPost2010PropOp46
 70
     0
102
RTVSPost2010Prop47
 90
       50
102
RTVSPost2010PropOp47
 70
     0
102
RTVSPost2010Prop48
 90
       50
102
RTVSPost2010PropOp48
 70
     0
102
RTVSPost2010Prop49
280
     0
102
RTVSPost2010PropOp49
 70
     0
102
RTVSPost2010Prop50
 90
       50
102
RTVSPost2010PropOp50
 70
     0
102
RTVSPost2010Prop51ColorIndex
 90
      256
102
RTVSPost2010Prop51ColorRGB
 90
-16777216
102
RTVSPost2010PropOp51
 70
     0
102
RTVSPost2010Prop52
140
1.0
102
RTVSPost2010PropOp52
 70
     0
102
RTVSPost2010Prop53
 90
        2
102
RTVSPost2010PropOp53
 70
     0
102
RTVSPost2010Prop54
  1
strokes_ogs.tif
102
RTVSPost2010PropOp54
 70
     0
102
RTVSPost2010Prop55
280
     0
102
RTVSPost2010PropOp55
 70
     0
102
RTVSPost2010Prop56
140
1.0
102
RTVSPost2010PropOp56
 70
     0
102
RTVSPost2010Prop57
140
1.0
102
RTVSPost2010PropOp57
 70
     0
  0
XRECORD
  5
382
102
{ACAD_REACTORS
330
381
102
}
330
381
100
AcDbXrecord
280
     1
102
RTVSPropertyOp0
 70
     1
102
RTVSPropertyOp1
 70
     1
102
RTVSPropertyOp2
 70
     1
102
RTVSPropertyOp3
 70
     1
102
RTVSPropertyOp4
 70
     1
102
RTVSPropertyOp5
 70
     1
102
RTVSPropertyOp6
 70
     1
102
RTVSPropertyOp7
 70
     1
102
RTVSPropertyOp8
 70
     1
102
RTVSPropertyOp9
 70
     1
102
RTVSPropertyOp10
 70
     1
102
RTVSPropertyOp11
 70
     1
102
RTVSPropertyOp12
 70
     1
102
RTVSPropertyOp13
 70
     1
102
RTVSPropertyOp14
 70
     1
102
RTVSPropertyOp15
 70
     1
102
RTVSPropertyOp16
 70
     1
102
RTVSPropertyOp17
 70
     1
102
RTVSPropertyOp18
 70
     1
102
RTVSPropertyOp19
 70
     1
102
RTVSPropertyOp20
 70
     1
102
RTVSPropertyOp21
 70
     1
102
RTVSPropertyOp22
 70
     1
102
RTVSPropertyOp23
 70
     1
102
RTVSPropertyOp24
 70
     1
102
RTVSPropertyOp25
 70
     1
102
RTVSPropertyOp26
 70
     1
102
RTVSPropertyOp27
 70
     1
102
RTVSPropertyOp28
 70
     1
102
RTVSPropertyOp29
 70
     1
102
RTVSPropertyOp30
 70
     1
102
RTVSPropertyOp31
 70
     1
102
RTVSPropertyOp32
 70
     1
102
RTVSPropertyOp33
 70
     1
102
RTVSPropertyOp34
 70
     1
102
RTVSPropertyOp35
 70
     1
102
RTVSPropertyOp36
 70
     1
102
RTVSPropertyOp37
 70
     1
102
RTVSPropertyOp38
 70
     1
102
RTVSPropertyOp39
 70
     1
102
RTVSPropertyOp40
 70
     1
102
RTVSPropertyOp41
 70
     1
102
RTVSPropertyOp42
 70
     1
102
RTVSPropertyOp43
 70
     1
102
RTVSPropertyOp44
 70
     1
102
RTVSPropertyOp45
 70
     1
102
RTVSPropertyOp46
 70
     1
102
RTVSPropertyOp47
 70
     1
102
RTVSPropertyOp48
 70
     1
102
RTVSPropertyOp49
 70
     1
102
RTVSPropertyOp50
 70
     1
102
RTVSPropertyOp51
 70
     0
102
RTVSPropertyOp52
 70
     0
102
RTVSPropertyOp53
 70
     1
102
RTVSPropertyOp54
 70
     1
102
RTVSPropertyOp55
 70
     1
102
RTVSPropertyOp56
 70
     1
102
RTVSPropertyOp57
 70
     1
102
RTVSPost2010Prop28
280
     0
102
RTVSPost2010PropOp28
 70
     1
102
RTVSPost2010Prop29
280
     1
102
RTVSPost2010PropOp29
 70
     1
102
RTVSPost2010Prop30
280
     1
102
RTVSPost2010PropOp30
 70
     1
102
RTVSPost2010Prop31
280
     0
102
RTVSPost2010PropOp31
 70
     1
102
RTVSPost2010Prop32
280
     0
102
RTVSPost2010PropOp32
 70
     1
102
RTVSPost2010Prop33
280
     0
102
RTVSPost2010PropOp33
 70
     1
102
RTVSPost2010Prop34
280
     0
102
RTVSPost2010PropOp34
 70
     1
102
RTVSPost2010Prop35
280
     0
102
RTVSPost2010PropOp35
 70
     1
102
RTVSPost2010Prop36
280
     0
102
RTVSPost2010PropOp36
 70
     1
102
RTVSPost2010Prop37
 90
       50
102
RTVSPost2010PropOp37
 70
     1
102
RTVSPost2010Prop38
140
0.0
102
RTVSPost2010PropOp38
 70
     1
102
RTVSPost2010Prop39
140
1.0
102
RTVSPost2010PropOp39
 70
     1
102
RTVSPost2010Prop40
 90
        0
102
RTVSPost2010PropOp40
 70
     1
102
RTVSPost2010Prop41ColorIndex
 90
       18
102
RTVSPost2010Prop41ColorRGB
 90
        0
102
RTVSPost2010PropOp41
 70
     1
102
RTVSPost2010Prop42
 90
       50
102
RTVSPost2010PropOp42
 70
     1
102
RTVSPost2010Prop43
 90
        3
102
RTVSPost2010PropOp43
 70
     1
102
RTVSPost2010Prop44ColorIndex
 90
        5
102
RTVSPost2010Prop44ColorRGB
 90
      255
102
RTVSPost2010PropOp44
 70
     1
102
RTVSPost2010Prop45
280
     0
102
RTVSPost2010PropOp45
 70
     1
102
RTVSPost2010Prop46
 90
       50
102
RTVSPost2010PropOp46
 70
     1
102
RTVSPost2010Prop47
 90
       50
102
RTVSPost2010PropOp47
 70
     1
102
RTVSPost2010Prop48
 90
       50
102
RTVSPost2010PropOp48
 70
     1
102
RTVSPost2010Prop49
280
     0
102
RTVSPost2010PropOp49
 70
     1
102
RTVSPost2010Prop50
 90
       50
102
RTVSPost2010PropOp50
 70
     1
102
RTVSPost2010Prop51ColorIndex
 90
      256
102
RTVSPost2010Prop51ColorRGB
 90
-16777216
102
RTVSPost2010PropOp51
 70
     0
102
RTVSPost2010Prop52
140
1.0
102
RTVSPost2010PropOp52
 70
     0
102
RTVSPost2010Prop53
 90
        2
102
RTVSPost2010PropOp53
 70
     1
102
RTVSPost2010Prop54
  1
strokes_ogs.tif
102
RTVSPost2010PropOp54
 70
     1
102
RTVSPost2010Prop55
280
     0
102
RTVSPost2010PropOp55
 70
     1
102
RTVSPost2010Prop56
140
1.0
102
RTVSPost2010PropOp56
 70
     1
102
RTVSPost2010Prop57
140
1.0
102
RTVSPost2010PropOp57
 70
     1
  0
XRECORD
  5
38A
102
{ACAD_REACTORS
330
389
102
}
330
389
100
AcDbXrecord
280
     1
102
RTVSPropertyOp0
 70
     0
102
RTVSPropertyOp1
 70
     0
102
RTVSPropertyOp2
 70
     0
102
RTVSPropertyOp3
 70
     0
102
RTVSPropertyOp4
 70
     0
102
RTVSPropertyOp5
 70
     0
102
RTVSPropertyOp6
 70
     0
102
RTVSPropertyOp7
 70
     0
102
RTVSPropertyOp8
 70
     0
102
RTVSPropertyOp9
 70
     0
102
RTVSPropertyOp10
 70
     0
102
RTVSPropertyOp11
 70
     0
102
RTVSPropertyOp12
 70
     0
102
RTVSPropertyOp13
 70
     0
102
RTVSPropertyOp14
 70
     2
102
RTVSPropertyOp15
 70
     0
102
RTVSPropertyOp16
 70
     0
102
RTVSPropertyOp17
 70
     0
102
RTVSPropertyOp18
 70
     0
102
RTVSPropertyOp19
 70
     0
102
RTVSPropertyOp20
 70
     0
102
RTVSPropertyOp21
 70
     0
102
RTVSPropertyOp22
 70
     0
102
RTVSPropertyOp23
 70
     0
102
RTVSPropertyOp24
 70
     0
102
RTVSPropertyOp25
 70
     0
102
RTVSPropertyOp26
 70
     0
102
RTVSPropertyOp27
 70
     0
102
RTVSPropertyOp28
 70
     0
102
RTVSPropertyOp29
 70
     0
102
RTVSPropertyOp30
 70
     0
102
RTVSPropertyOp31
 70
     0
102
RTVSPropertyOp32
 70
     0
102
RTVSPropertyOp33
 70
     0
102
RTVSPropertyOp34
 70
     0
102
RTVSPropertyOp35
 70
     0
102
RTVSPropertyOp36
 70
     0
102
RTVSPropertyOp37
 70
     0
102
RTVSPropertyOp38
 70
     0
102
RTVSPropertyOp39
 70
     0
102
RTVSPropertyOp40
 70
     0
102
RTVSPropertyOp41
 70
     0
102
RTVSPropertyOp42
 70
     0
102
RTVSPropertyOp43
 70
     0
102
RTVSPropertyOp44
 70
     0
102
RTVSPropertyOp45
 70
     0
102
RTVSPropertyOp46
 70
     0
102
RTVSPropertyOp47
 70
     0
102
RTVSPropertyOp48
 70
     0
102
RTVSPropertyOp49
 70
     0
102
RTVSPropertyOp50
 70
     0
102
RTVSPropertyOp51
 70
     0
102
RTVSPropertyOp52
 70
     0
102
RTVSPropertyOp53
 70
     0
102
RTVSPropertyOp54
 70
     0
102
RTVSPropertyOp55
 70
     0
102
RTVSPropertyOp56
 70
     0
102
RTVSPropertyOp57
 70
     0
102
RTVSPost2010Prop28
280
     0
102
RTVSPost2010PropOp28
 70
     0
102
RTVSPost2010Prop29
280
     1
102
RTVSPost2010PropOp29
 70
     0
102
RTVSPost2010Prop30
280
     1
102
RTVSPost2010PropOp30
 70
     0
102
RTVSPost2010Prop31
280
     0
102
RTVSPost2010PropOp31
 70
     0
102
RTVSPost2010Prop32
280
     0
102
RTVSPost2010PropOp32
 70
     0
102
RTVSPost2010Prop33
280
     0
102
RTVSPost2010PropOp33
 70
     0
102
RTVSPost2010Prop34
280
     0
102
RTVSPost2010PropOp34
 70
     0
102
RTVSPost2010Prop35
280
     0
102
RTVSPost2010PropOp35
 70
     0
102
RTVSPost2010Prop36
280
     0
102
RTVSPost2010PropOp36
 70
     0
102
RTVSPost2010Prop37
 90
       50
102
RTVSPost2010PropOp37
 70
     0
102
RTVSPost2010Prop38
140
0.0
102
RTVSPost2010PropOp38
 70
     0
102
RTVSPost2010Prop39
140
1.0
102
RTVSPost2010PropOp39
 70
     0
102
RTVSPost2010Prop40
 90
        0
102
RTVSPost2010PropOp40
 70
     0
102
RTVSPost2010Prop41ColorIndex
 90
       18
102
RTVSPost2010Prop41ColorRGB
 90
        0
102
RTVSPost2010PropOp41
 70
     0
102
RTVSPost2010Prop42
 90
       50
102
RTVSPost2010PropOp42
 70
     0
102
RTVSPost2010Prop43
 90
        3
102
RTVSPost2010PropOp43
 70
     0
102
RTVSPost2010Prop44ColorIndex
 90
        5
102
RTVSPost2010Prop44ColorRGB
 90
      255
102
RTVSPost2010PropOp44
 70
     0
102
RTVSPost2010Prop45
280
     0
102
RTVSPost2010PropOp45
 70
     0
102
RTVSPost2010Prop46
 90
       50
102
RTVSPost2010PropOp46
 70
     0
102
RTVSPost2010Prop47
 90
       50
102
RTVSPost2010PropOp47
 70
     0
102
RTVSPost2010Prop48
 90
       50
102
RTVSPost2010PropOp48
 70
     0
102
RTVSPost2010Prop49
280
     0
102
RTVSPost2010PropOp49
 70
     0
102
RTVSPost2010Prop50
 90
       50
102
RTVSPost2010PropOp50
 70
     0
102
RTVSPost2010Prop51ColorIndex
 90
      256
102
RTVSPost2010Prop51ColorRGB
 90
-16777216
102
RTVSPost2010PropOp51
 70
     0
102
RTVSPost2010Prop52
140
1.0
102
RTVSPost2010PropOp52
 70
     0
102
RTVSPost2010Prop53
 90
        2
102
RTVSPost2010PropOp53
 70
     0
102
RTVSPost2010Prop54
  1
strokes_ogs.tif
102
RTVSPost2010PropOp54
 70
     0
102
RTVSPost2010Prop55
280
     0
102
RTVSPost2010PropOp55
 70
     0
102
RTVSPost2010Prop56
140
1.0
102
RTVSPost2010PropOp56
 70
     0
102
RTVSPost2010Prop57
140
1.0
102
RTVSPost2010PropOp57
 70
     0
  0
XRECORD
  5
378
102
{ACAD_REACTORS
330
377
102
}
330
377
100
AcDbXrecord
280
     1
102
RTVSPropertyOp0
 70
     1
102
RTVSPropertyOp1
 70
     1
102
RTVSPropertyOp2
 70
     1
102
RTVSPropertyOp3
 70
     1
102
RTVSPropertyOp4
 70
     1
102
RTVSPropertyOp5
 70
     1
102
RTVSPropertyOp6
 70
     1
102
RTVSPropertyOp7
 70
     1
102
RTVSPropertyOp8
 70
     1
102
RTVSPropertyOp9
 70
     1
102
RTVSPropertyOp10
 70
     1
102
RTVSPropertyOp11
 70
     1
102
RTVSPropertyOp12
 70
     1
102
RTVSPropertyOp13
 70
     1
102
RTVSPropertyOp14
 70
     1
102
RTVSPropertyOp15
 70
     1
102
RTVSPropertyOp16
 70
     1
102
RTVSPropertyOp17
 70
     1
102
RTVSPropertyOp18
 70
     1
102
RTVSPropertyOp19
 70
     1
102
RTVSPropertyOp20
 70
     1
102
RTVSPropertyOp21
 70
     1
102
RTVSPropertyOp22
 70
     1
102
RTVSPropertyOp23
 70
     1
102
RTVSPropertyOp24
 70
     1
102
RTVSPropertyOp25
 70
     1
102
RTVSPropertyOp26
 70
     1
102
RTVSPropertyOp27
 70
     1
102
RTVSPropertyOp28
 70
     1
102
RTVSPropertyOp29
 70
     1
102
RTVSPropertyOp30
 70
     1
102
RTVSPropertyOp31
 70
     1
102
RTVSPropertyOp32
 70
     1
102
RTVSPropertyOp33
 70
     1
102
RTVSPropertyOp34
 70
     1
102
RTVSPropertyOp35
 70
     1
102
RTVSPropertyOp36
 70
     1
102
RTVSPropertyOp37
 70
     1
102
RTVSPropertyOp38
 70
     1
102
RTVSPropertyOp39
 70
     1
102
RTVSPropertyOp40
 70
     1
102
RTVSPropertyOp41
 70
     1
102
RTVSPropertyOp42
 70
     1
102
RTVSPropertyOp43
 70
     1
102
RTVSPropertyOp44
 70
     1
102
RTVSPropertyOp45
 70
     1
102
RTVSPropertyOp46
 70
     1
102
RTVSPropertyOp47
 70
     1
102
RTVSPropertyOp48
 70
     1
102
RTVSPropertyOp49
 70
     1
102
RTVSPropertyOp50
 70
     1
102
RTVSPropertyOp51
 70
     0
102
RTVSPropertyOp52
 70
     0
102
RTVSPropertyOp53
 70
     1
102
RTVSPropertyOp54
 70
     1
102
RTVSPropertyOp55
 70
     1
102
RTVSPropertyOp56
 70
     1
102
RTVSPropertyOp57
 70
     1
102
RTVSPost2010Prop28
280
     0
102
RTVSPost2010PropOp28
 70
     1
102
RTVSPost2010Prop29
280
     1
102
RTVSPost2010PropOp29
 70
     1
102
RTVSPost2010Prop30
280
     1
102
RTVSPost2010PropOp30
 70
     1
102
RTVSPost2010Prop31
280
     0
102
RTVSPost2010PropOp31
 70
     1
102
RTVSPost2010Prop32
280
     0
102
RTVSPost2010PropOp32
 70
     1
102
RTVSPost2010Prop33
280
     0
102
RTVSPost2010PropOp33
 70
     1
102
RTVSPost2010Prop34
280
     0
102
RTVSPost2010PropOp34
 70
     1
102
RTVSPost2010Prop35
280
     0
102
RTVSPost2010PropOp35
 70
     1
102
RTVSPost2010Prop36
280
     0
102
RTVSPost2010PropOp36
 70
     1
102
RTVSPost2010Prop37
 90
       50
102
RTVSPost2010PropOp37
 70
     1
102
RTVSPost2010Prop38
140
0.0
102
RTVSPost2010PropOp38
 70
     1
102
RTVSPost2010Prop39
140
1.0
102
RTVSPost2010PropOp39
 70
     1
102
RTVSPost2010Prop40
 90
        0
102
RTVSPost2010PropOp40
 70
     1
102
RTVSPost2010Prop41ColorIndex
 90
       18
102
RTVSPost2010Prop41ColorRGB
 90
        0
102
RTVSPost2010PropOp41
 70
     1
102
RTVSPost2010Prop42
 90
       50
102
RTVSPost2010PropOp42
 70
     1
102
RTVSPost2010Prop43
 90
        3
102
RTVSPost2010PropOp43
 70
     1
102
RTVSPost2010Prop44ColorIndex
 90
        5
102
RTVSPost2010Prop44ColorRGB
 90
      255
102
RTVSPost2010PropOp44
 70
     1
102
RTVSPost2010Prop45
280
     0
102
RTVSPost2010PropOp45
 70
     1
102
RTVSPost2010Prop46
 90
       50
102
RTVSPost2010PropOp46
 70
     1
102
RTVSPost2010Prop47
 90
       50
102
RTVSPost2010PropOp47
 70
     1
102
RTVSPost2010Prop48
 90
       50
102
RTVSPost2010PropOp48
 70
     1
102
RTVSPost2010Prop49
280
     0
102
RTVSPost2010PropOp49
 70
     1
102
RTVSPost2010Prop50
 90
       50
102
RTVSPost2010PropOp50
 70
     1
102
RTVSPost2010Prop51ColorIndex
 90
      256
102
RTVSPost2010Prop51ColorRGB
 90
-16777216
102
RTVSPost2010PropOp51
 70
     0
102
RTVSPost2010Prop52
140
1.0
102
RTVSPost2010PropOp52
 70
     0
102
RTVSPost2010Prop53
 90
        2
102
RTVSPost2010PropOp53
 70
     1
102
RTVSPost2010Prop54
  1
strokes_ogs.tif
102
RTVSPost2010PropOp54
 70
     1
102
RTVSPost2010Prop55
280
     0
102
RTVSPost2010PropOp55
 70
     1
102
RTVSPost2010Prop56
140
1.0
102
RTVSPost2010PropOp56
 70
     1
102
RTVSPost2010Prop57
140
1.0
102
RTVSPost2010PropOp57
 70
     1
  0
XRECORD
  5
396
102
{ACAD_REACTORS
330
395
102
}
330
395
100
AcDbXrecord
280
     1
102
RTVSPropertyOp0
 70
     1
102
RTVSPropertyOp1
 70
     1
102
RTVSPropertyOp2
 70
     1
102
RTVSPropertyOp3
 70
     1
102
RTVSPropertyOp4
 70
     1
102
RTVSPropertyOp5
 70
     1
102
RTVSPropertyOp6
 70
     1
102
RTVSPropertyOp7
 70
     1
102
RTVSPropertyOp8
 70
     1
102
RTVSPropertyOp9
 70
     1
102
RTVSPropertyOp10
 70
     1
102
RTVSPropertyOp11
 70
     1
102
RTVSPropertyOp12
 70
     1
102
RTVSPropertyOp13
 70
     1
102
RTVSPropertyOp14
 70
     1
102
RTVSPropertyOp15
 70
     1
102
RTVSPropertyOp16
 70
     1
102
RTVSPropertyOp17
 70
     1
102
RTVSPropertyOp18
 70
     1
102
RTVSPropertyOp19
 70
     1
102
RTVSPropertyOp20
 70
     1
102
RTVSPropertyOp21
 70
     1
102
RTVSPropertyOp22
 70
     1
102
RTVSPropertyOp23
 70
     1
102
RTVSPropertyOp24
 70
     1
102
RTVSPropertyOp25
 70
     1
102
RTVSPropertyOp26
 70
     1
102
RTVSPropertyOp27
 70
     1
102
RTVSPropertyOp28
 70
     1
102
RTVSPropertyOp29
 70
     1
102
RTVSPropertyOp30
 70
     1
102
RTVSPropertyOp31
 70
     1
102
RTVSPropertyOp32
 70
     1
102
RTVSPropertyOp33
 70
     1
102
RTVSPropertyOp34
 70
     1
102
RTVSPropertyOp35
 70
     1
102
RTVSPropertyOp36
 70
     1
102
RTVSPropertyOp37
 70
     1
102
RTVSPropertyOp38
 70
     1
102
RTVSPropertyOp39
 70
     1
102
RTVSPropertyOp40
 70
     1
102
RTVSPropertyOp41
 70
     1
102
RTVSPropertyOp42
 70
     1
102
RTVSPropertyOp43
 70
     1
102
RTVSPropertyOp44
 70
     1
102
RTVSPropertyOp45
 70
     1
102
RTVSPropertyOp46
 70
     1
102
RTVSPropertyOp47
 70
     1
102
RTVSPropertyOp48
 70
     1
102
RTVSPropertyOp49
 70
     1
102
RTVSPropertyOp50
 70
     1
102
RTVSPropertyOp51
 70
     0
102
RTVSPropertyOp52
 70
     0
102
RTVSPropertyOp53
 70
     1
102
RTVSPropertyOp54
 70
     1
102
RTVSPropertyOp55
 70
     1
102
RTVSPropertyOp56
 70
     1
102
RTVSPropertyOp57
 70
     1
102
RTVSPost2010Prop28
280
     0
102
RTVSPost2010PropOp28
 70
     1
102
RTVSPost2010Prop29
280
     1
102
RTVSPost2010PropOp29
 70
     1
102
RTVSPost2010Prop30
280
     1
102
RTVSPost2010PropOp30
 70
     1
102
RTVSPost2010Prop31
280
     0
102
RTVSPost2010PropOp31
 70
     1
102
RTVSPost2010Prop32
280
     0
102
RTVSPost2010PropOp32
 70
     1
102
RTVSPost2010Prop33
280
     0
102
RTVSPost2010PropOp33
 70
     1
102
RTVSPost2010Prop34
280
     0
102
RTVSPost2010PropOp34
 70
     1
102
RTVSPost2010Prop35
280
     0
102
RTVSPost2010PropOp35
 70
     1
102
RTVSPost2010Prop36
280
     0
102
RTVSPost2010PropOp36
 70
     1
102
RTVSPost2010Prop37
 90
       50
102
RTVSPost2010PropOp37
 70
     1
102
RTVSPost2010Prop38
140
0.0
102
RTVSPost2010PropOp38
 70
     1
102
RTVSPost2010Prop39
140
1.0
102
RTVSPost2010PropOp39
 70
     1
102
RTVSPost2010Prop40
 90
        0
102
RTVSPost2010PropOp40
 70
     1
102
RTVSPost2010Prop41ColorIndex
 90
       18
102
RTVSPost2010Prop41ColorRGB
 90
        0
102
RTVSPost2010PropOp41
 70
     1
102
RTVSPost2010Prop42
 90
       50
102
RTVSPost2010PropOp42
 70
     1
102
RTVSPost2010Prop43
 90
        3
102
RTVSPost2010PropOp43
 70
     1
102
RTVSPost2010Prop44ColorIndex
 90
        5
102
RTVSPost2010Prop44ColorRGB
 90
      255
102
RTVSPost2010PropOp44
 70
     1
102
RTVSPost2010Prop45
280
     0
102
RTVSPost2010PropOp45
 70
     1
102
RTVSPost2010Prop46
 90
       50
102
RTVSPost2010PropOp46
 70
     1
102
RTVSPost2010Prop47
 90
       50
102
RTVSPost2010PropOp47
 70
     1
102
RTVSPost2010Prop48
 90
       50
102
RTVSPost2010PropOp48
 70
     1
102
RTVSPost2010Prop49
280
     0
102
RTVSPost2010PropOp49
 70
     1
102
RTVSPost2010Prop50
 90
       50
102
RTVSPost2010PropOp50
 70
     1
102
RTVSPost2010Prop51ColorIndex
 90
      256
102
RTVSPost2010Prop51ColorRGB
 90
-16777216
102
RTVSPost2010PropOp51
 70
     0
102
RTVSPost2010Prop52
140
1.0
102
RTVSPost2010PropOp52
 70
     0
102
RTVSPost2010Prop53
 90
        2
102
RTVSPost2010PropOp53
 70
     1
102
RTVSPost2010Prop54
  1
strokes_ogs.tif
102
RTVSPost2010PropOp54
 70
     1
102
RTVSPost2010Prop55
280
     0
102
RTVSPost2010PropOp55
 70
     1
102
RTVSPost2010Prop56
140
1.0
102
RTVSPost2010PropOp56
 70
     1
102
RTVSPost2010Prop57
140
1.0
102
RTVSPost2010PropOp57
 70
     1
  0
XRECORD
  5
394
102
{ACAD_REACTORS
330
393
102
}
330
393
100
AcDbXrecord
280
     1
102
RTVSPropertyOp0
 70
     1
102
RTVSPropertyOp1
 70
     1
102
RTVSPropertyOp2
 70
     1
102
RTVSPropertyOp3
 70
     1
102
RTVSPropertyOp4
 70
     1
102
RTVSPropertyOp5
 70
     1
102
RTVSPropertyOp6
 70
     1
102
RTVSPropertyOp7
 70
     1
102
RTVSPropertyOp8
 70
     1
102
RTVSPropertyOp9
 70
     1
102
RTVSPropertyOp10
 70
     1
102
RTVSPropertyOp11
 70
     1
102
RTVSPropertyOp12
 70
     1
102
RTVSPropertyOp13
 70
     1
102
RTVSPropertyOp14
 70
     1
102
RTVSPropertyOp15
 70
     1
102
RTVSPropertyOp16
 70
     1
102
RTVSPropertyOp17
 70
     1
102
RTVSPropertyOp18
 70
     1
102
RTVSPropertyOp19
 70
     1
102
RTVSPropertyOp20
 70
     1
102
RTVSPropertyOp21
 70
     1
102
RTVSPropertyOp22
 70
     1
102
RTVSPropertyOp23
 70
     1
102
RTVSPropertyOp24
 70
     1
102
RTVSPropertyOp25
 70
     1
102
RTVSPropertyOp26
 70
     1
102
RTVSPropertyOp27
 70
     1
102
RTVSPropertyOp28
 70
     1
102
RTVSPropertyOp29
 70
     1
102
RTVSPropertyOp30
 70
     1
102
RTVSPropertyOp31
 70
     1
102
RTVSPropertyOp32
 70
     1
102
RTVSPropertyOp33
 70
     1
102
RTVSPropertyOp34
 70
     1
102
RTVSPropertyOp35
 70
     1
102
RTVSPropertyOp36
 70
     1
102
RTVSPropertyOp37
 70
     1
102
RTVSPropertyOp38
 70
     1
102
RTVSPropertyOp39
 70
     1
102
RTVSPropertyOp40
 70
     1
102
RTVSPropertyOp41
 70
     1
102
RTVSPropertyOp42
 70
     1
102
RTVSPropertyOp43
 70
     1
102
RTVSPropertyOp44
 70
     1
102
RTVSPropertyOp45
 70
     1
102
RTVSPropertyOp46
 70
     1
102
RTVSPropertyOp47
 70
     1
102
RTVSPropertyOp48
 70
     1
102
RTVSPropertyOp49
 70
     1
102
RTVSPropertyOp50
 70
     1
102
RTVSPropertyOp51
 70
     0
102
RTVSPropertyOp52
 70
     0
102
RTVSPropertyOp53
 70
     1
102
RTVSPropertyOp54
 70
     1
102
RTVSPropertyOp55
 70
     1
102
RTVSPropertyOp56
 70
     1
102
RTVSPropertyOp57
 70
     1
102
RTVSPost2010Prop28
280
     0
102
RTVSPost2010PropOp28
 70
     1
102
RTVSPost2010Prop29
280
     1
102
RTVSPost2010PropOp29
 70
     1
102
RTVSPost2010Prop30
280
     1
102
RTVSPost2010PropOp30
 70
     1
102
RTVSPost2010Prop31
280
     0
102
RTVSPost2010PropOp31
 70
     1
102
RTVSPost2010Prop32
280
     0
102
RTVSPost2010PropOp32
 70
     1
102
RTVSPost2010Prop33
280
     0
102
RTVSPost2010PropOp33
 70
     1
102
RTVSPost2010Prop34
280
     0
102
RTVSPost2010PropOp34
 70
     1
102
RTVSPost2010Prop35
280
     0
102
RTVSPost2010PropOp35
 70
     1
102
RTVSPost2010Prop36
280
     0
102
RTVSPost2010PropOp36
 70
     1
102
RTVSPost2010Prop37
 90
       50
102
RTVSPost2010PropOp37
 70
     1
102
RTVSPost2010Prop38
140
0.0
102
RTVSPost2010PropOp38
 70
     1
102
RTVSPost2010Prop39
140
1.0
102
RTVSPost2010PropOp39
 70
     1
102
RTVSPost2010Prop40
 90
        0
102
RTVSPost2010PropOp40
 70
     1
102
RTVSPost2010Prop41ColorIndex
 90
       18
102
RTVSPost2010Prop41ColorRGB
 90
        0
102
RTVSPost2010PropOp41
 70
     1
102
RTVSPost2010Prop42
 90
       50
102
RTVSPost2010PropOp42
 70
     1
102
RTVSPost2010Prop43
 90
        3
102
RTVSPost2010PropOp43
 70
     1
102
RTVSPost2010Prop44ColorIndex
 90
        5
102
RTVSPost2010Prop44ColorRGB
 90
      255
102
RTVSPost2010PropOp44
 70
     1
102
RTVSPost2010Prop45
280
     0
102
RTVSPost2010PropOp45
 70
     1
102
RTVSPost2010Prop46
 90
       50
102
RTVSPost2010PropOp46
 70
     1
102
RTVSPost2010Prop47
 90
       50
102
RTVSPost2010PropOp47
 70
     1
102
RTVSPost2010Prop48
 90
       50
102
RTVSPost2010PropOp48
 70
     1
102
RTVSPost2010Prop49
280
     0
102
RTVSPost2010PropOp49
 70
     1
102
RTVSPost2010Prop50
 90
       50
102
RTVSPost2010PropOp50
 70
     1
102
RTVSPost2010Prop51ColorIndex
 90
      256
102
RTVSPost2010Prop51ColorRGB
 90
-16777216
102
RTVSPost2010PropOp51
 70
     0
102
RTVSPost2010Prop52
140
1.0
102
RTVSPost2010PropOp52
 70
     0
102
RTVSPost2010Prop53
 90
        2
102
RTVSPost2010PropOp53
 70
     1
102
RTVSPost2010Prop54
  1
strokes_ogs.tif
102
RTVSPost2010PropOp54
 70
     1
102
RTVSPost2010Prop55
280
     0
102
RTVSPost2010PropOp55
 70
     1
102
RTVSPost2010Prop56
140
1.0
102
RTVSPost2010PropOp56
 70
     1
102
RTVSPost2010Prop57
140
1.0
102
RTVSPost2010PropOp57
 70
     1
  0
XRECORD
  5
38E
102
{ACAD_REACTORS
330
38D
102
}
330
38D
100
AcDbXrecord
280
     1
102
RTVSPropertyOp0
 70
     1
102
RTVSPropertyOp1
 70
     1
102
RTVSPropertyOp2
 70
     1
102
RTVSPropertyOp3
 70
     1
102
RTVSPropertyOp4
 70
     1
102
RTVSPropertyOp5
 70
     1
102
RTVSPropertyOp6
 70
     1
102
RTVSPropertyOp7
 70
     1
102
RTVSPropertyOp8
 70
     1
102
RTVSPropertyOp9
 70
     1
102
RTVSPropertyOp10
 70
     1
102
RTVSPropertyOp11
 70
     1
102
RTVSPropertyOp12
 70
     1
102
RTVSPropertyOp13
 70
     1
102
RTVSPropertyOp14
 70
     1
102
RTVSPropertyOp15
 70
     1
102
RTVSPropertyOp16
 70
     1
102
RTVSPropertyOp17
 70
     1
102
RTVSPropertyOp18
 70
     1
102
RTVSPropertyOp19
 70
     1
102
RTVSPropertyOp20
 70
     1
102
RTVSPropertyOp21
 70
     1
102
RTVSPropertyOp22
 70
     1
102
RTVSPropertyOp23
 70
     1
102
RTVSPropertyOp24
 70
     1
102
RTVSPropertyOp25
 70
     1
102
RTVSPropertyOp26
 70
     1
102
RTVSPropertyOp27
 70
     1
102
RTVSPropertyOp28
 70
     1
102
RTVSPropertyOp29
 70
     1
102
RTVSPropertyOp30
 70
     1
102
RTVSPropertyOp31
 70
     1
102
RTVSPropertyOp32
 70
     1
102
RTVSPropertyOp33
 70
     1
102
RTVSPropertyOp34
 70
     1
102
RTVSPropertyOp35
 70
     1
102
RTVSPropertyOp36
 70
     1
102
RTVSPropertyOp37
 70
     1
102
RTVSPropertyOp38
 70
     1
102
RTVSPropertyOp39
 70
     1
102
RTVSPropertyOp40
 70
     1
102
RTVSPropertyOp41
 70
     1
102
RTVSPropertyOp42
 70
     1
102
RTVSPropertyOp43
 70
     1
102
RTVSPropertyOp44
 70
     1
102
RTVSPropertyOp45
 70
     1
102
RTVSPropertyOp46
 70
     1
102
RTVSPropertyOp47
 70
     1
102
RTVSPropertyOp48
 70
     1
102
RTVSPropertyOp49
 70
     1
102
RTVSPropertyOp50
 70
     1
102
RTVSPropertyOp51
 70
     0
102
RTVSPropertyOp52
 70
     0
102
RTVSPropertyOp53
 70
     1
102
RTVSPropertyOp54
 70
     1
102
RTVSPropertyOp55
 70
     1
102
RTVSPropertyOp56
 70
     1
102
RTVSPropertyOp57
 70
     1
102
RTVSPost2010Prop28
280
     0
102
RTVSPost2010PropOp28
 70
     1
102
RTVSPost2010Prop29
280
     1
102
RTVSPost2010PropOp29
 70
     1
102
RTVSPost2010Prop30
280
     1
102
RTVSPost2010PropOp30
 70
     1
102
RTVSPost2010Prop31
280
     0
102
RTVSPost2010PropOp31
 70
     1
102
RTVSPost2010Prop32
280
     0
102
RTVSPost2010PropOp32
 70
     1
102
RTVSPost2010Prop33
280
     0
102
RTVSPost2010PropOp33
 70
     1
102
RTVSPost2010Prop34
280
     0
102
RTVSPost2010PropOp34
 70
     1
102
RTVSPost2010Prop35
280
     0
102
RTVSPost2010PropOp35
 70
     1
102
RTVSPost2010Prop36
280
     0
102
RTVSPost2010PropOp36
 70
     1
102
RTVSPost2010Prop37
 90
       50
102
RTVSPost2010PropOp37
 70
     1
102
RTVSPost2010Prop38
140
0.0
102
RTVSPost2010PropOp38
 70
     1
102
RTVSPost2010Prop39
140
1.0
102
RTVSPost2010PropOp39
 70
     1
102
RTVSPost2010Prop40
 90
        0
102
RTVSPost2010PropOp40
 70
     1
102
RTVSPost2010Prop41ColorIndex
 90
       18
102
RTVSPost2010Prop41ColorRGB
 90
        0
102
RTVSPost2010PropOp41
 70
     1
102
RTVSPost2010Prop42
 90
       50
102
RTVSPost2010PropOp42
 70
     1
102
RTVSPost2010Prop43
 90
        3
102
RTVSPost2010PropOp43
 70
     1
102
RTVSPost2010Prop44ColorIndex
 90
        5
102
RTVSPost2010Prop44ColorRGB
 90
      255
102
RTVSPost2010PropOp44
 70
     1
102
RTVSPost2010Prop45
280
     0
102
RTVSPost2010PropOp45
 70
     1
102
RTVSPost2010Prop46
 90
       50
102
RTVSPost2010PropOp46
 70
     1
102
RTVSPost2010Prop47
 90
       50
102
RTVSPost2010PropOp47
 70
     1
102
RTVSPost2010Prop48
 90
       50
102
RTVSPost2010PropOp48
 70
     1
102
RTVSPost2010Prop49
280
     0
102
RTVSPost2010PropOp49
 70
     1
102
RTVSPost2010Prop50
 90
       50
102
RTVSPost2010PropOp50
 70
     1
102
RTVSPost2010Prop51ColorIndex
 90
      256
102
RTVSPost2010Prop51ColorRGB
 90
-16777216
102
RTVSPost2010PropOp51
 70
     0
102
RTVSPost2010Prop52
140
1.0
102
RTVSPost2010PropOp52
 70
     0
102
RTVSPost2010Prop53
 90
        2
102
RTVSPost2010PropOp53
 70
     1
102
RTVSPost2010Prop54
  1
strokes_ogs.tif
102
RTVSPost2010PropOp54
 70
     1
102
RTVSPost2010Prop55
280
     0
102
RTVSPost2010PropOp55
 70
     1
102
RTVSPost2010Prop56
140
1.0
102
RTVSPost2010PropOp56
 70
     1
102
RTVSPost2010Prop57
140
1.0
102
RTVSPost2010PropOp57
 70
     1
  0
XRECORD
  5
390
102
{ACAD_REACTORS
330
38F
102
}
330
38F
100
AcDbXrecord
280
     1
102
RTVSPropertyOp0
 70
     1
102
RTVSPropertyOp1
 70
     1
102
RTVSPropertyOp2
 70
     1
102
RTVSPropertyOp3
 70
     1
102
RTVSPropertyOp4
 70
     1
102
RTVSPropertyOp5
 70
     1
102
RTVSPropertyOp6
 70
     1
102
RTVSPropertyOp7
 70
     1
102
RTVSPropertyOp8
 70
     1
102
RTVSPropertyOp9
 70
     1
102
RTVSPropertyOp10
 70
     1
102
RTVSPropertyOp11
 70
     1
102
RTVSPropertyOp12
 70
     1
102
RTVSPropertyOp13
 70
     1
102
RTVSPropertyOp14
 70
     1
102
RTVSPropertyOp15
 70
     1
102
RTVSPropertyOp16
 70
     1
102
RTVSPropertyOp17
 70
     1
102
RTVSPropertyOp18
 70
     1
102
RTVSPropertyOp19
 70
     1
102
RTVSPropertyOp20
 70
     1
102
RTVSPropertyOp21
 70
     1
102
RTVSPropertyOp22
 70
     1
102
RTVSPropertyOp23
 70
     1
102
RTVSPropertyOp24
 70
     1
102
RTVSPropertyOp25
 70
     1
102
RTVSPropertyOp26
 70
     1
102
RTVSPropertyOp27
 70
     1
102
RTVSPropertyOp28
 70
     1
102
RTVSPropertyOp29
 70
     1
102
RTVSPropertyOp30
 70
     1
102
RTVSPropertyOp31
 70
     1
102
RTVSPropertyOp32
 70
     1
102
RTVSPropertyOp33
 70
     1
102
RTVSPropertyOp34
 70
     1
102
RTVSPropertyOp35
 70
     1
102
RTVSPropertyOp36
 70
     1
102
RTVSPropertyOp37
 70
     1
102
RTVSPropertyOp38
 70
     1
102
RTVSPropertyOp39
 70
     1
102
RTVSPropertyOp40
 70
     1
102
RTVSPropertyOp41
 70
     1
102
RTVSPropertyOp42
 70
     1
102
RTVSPropertyOp43
 70
     1
102
RTVSPropertyOp44
 70
     1
102
RTVSPropertyOp45
 70
     1
102
RTVSPropertyOp46
 70
     1
102
RTVSPropertyOp47
 70
     1
102
RTVSPropertyOp48
 70
     1
102
RTVSPropertyOp49
 70
     1
102
RTVSPropertyOp50
 70
     1
102
RTVSPropertyOp51
 70
     0
102
RTVSPropertyOp52
 70
     0
102
RTVSPropertyOp53
 70
     1
102
RTVSPropertyOp54
 70
     1
102
RTVSPropertyOp55
 70
     1
102
RTVSPropertyOp56
 70
     1
102
RTVSPropertyOp57
 70
     1
102
RTVSPost2010Prop28
280
     0
102
RTVSPost2010PropOp28
 70
     1
102
RTVSPost2010Prop29
280
     1
102
RTVSPost2010PropOp29
 70
     1
102
RTVSPost2010Prop30
280
     1
102
RTVSPost2010PropOp30
 70
     1
102
RTVSPost2010Prop31
280
     0
102
RTVSPost2010PropOp31
 70
     1
102
RTVSPost2010Prop32
280
     0
102
RTVSPost2010PropOp32
 70
     1
102
RTVSPost2010Prop33
280
     0
102
RTVSPost2010PropOp33
 70
     1
102
RTVSPost2010Prop34
280
     0
102
RTVSPost2010PropOp34
 70
     1
102
RTVSPost2010Prop35
280
     0
102
RTVSPost2010PropOp35
 70
     1
102
RTVSPost2010Prop36
280
     0
102
RTVSPost2010PropOp36
 70
     1
102
RTVSPost2010Prop37
 90
       50
102
RTVSPost2010PropOp37
 70
     1
102
RTVSPost2010Prop38
140
0.0
102
RTVSPost2010PropOp38
 70
     1
102
RTVSPost2010Prop39
140
1.0
102
RTVSPost2010PropOp39
 70
     1
102
RTVSPost2010Prop40
 90
        0
102
RTVSPost2010PropOp40
 70
     1
102
RTVSPost2010Prop41ColorIndex
 90
       18
102
RTVSPost2010Prop41ColorRGB
 90
        0
102
RTVSPost2010PropOp41
 70
     1
102
RTVSPost2010Prop42
 90
       50
102
RTVSPost2010PropOp42
 70
     1
102
RTVSPost2010Prop43
 90
        3
102
RTVSPost2010PropOp43
 70
     1
102
RTVSPost2010Prop44ColorIndex
 90
        5
102
RTVSPost2010Prop44ColorRGB
 90
      255
102
RTVSPost2010PropOp44
 70
     1
102
RTVSPost2010Prop45
280
     0
102
RTVSPost2010PropOp45
 70
     1
102
RTVSPost2010Prop46
 90
       50
102
RTVSPost2010PropOp46
 70
     1
102
RTVSPost2010Prop47
 90
       50
102
RTVSPost2010PropOp47
 70
     1
102
RTVSPost2010Prop48
 90
       50
102
RTVSPost2010PropOp48
 70
     1
102
RTVSPost2010Prop49
280
     0
102
RTVSPost2010PropOp49
 70
     1
102
RTVSPost2010Prop50
 90
       50
102
RTVSPost2010PropOp50
 70
     1
102
RTVSPost2010Prop51ColorIndex
 90
      256
102
RTVSPost2010Prop51ColorRGB
 90
-16777216
102
RTVSPost2010PropOp51
 70
     0
102
RTVSPost2010Prop52
140
1.0
102
RTVSPost2010PropOp52
 70
     0
102
RTVSPost2010Prop53
 90
        2
102
RTVSPost2010PropOp53
 70
     1
102
RTVSPost2010Prop54
  1
strokes_ogs.tif
102
RTVSPost2010PropOp54
 70
     1
102
RTVSPost2010Prop55
280
     0
102
RTVSPost2010PropOp55
 70
     1
102
RTVSPost2010Prop56
140
1.0
102
RTVSPost2010PropOp56
 70
     1
102
RTVSPost2010Prop57
140
1.0
102
RTVSPost2010PropOp57
 70
     1
  0
XRECORD
  5
380
102
{ACAD_REACTORS
330
37F
102
}
330
37F
100
AcDbXrecord
280
     1
102
RTVSPropertyOp0
 70
     1
102
RTVSPropertyOp1
 70
     1
102
RTVSPropertyOp2
 70
     1
102
RTVSPropertyOp3
 70
     1
102
RTVSPropertyOp4
 70
     1
102
RTVSPropertyOp5
 70
     1
102
RTVSPropertyOp6
 70
     1
102
RTVSPropertyOp7
 70
     1
102
RTVSPropertyOp8
 70
     1
102
RTVSPropertyOp9
 70
     1
102
RTVSPropertyOp10
 70
     1
102
RTVSPropertyOp11
 70
     1
102
RTVSPropertyOp12
 70
     1
102
RTVSPropertyOp13
 70
     1
102
RTVSPropertyOp14
 70
     1
102
RTVSPropertyOp15
 70
     1
102
RTVSPropertyOp16
 70
     1
102
RTVSPropertyOp17
 70
     1
102
RTVSPropertyOp18
 70
     1
102
RTVSPropertyOp19
 70
     1
102
RTVSPropertyOp20
 70
     1
102
RTVSPropertyOp21
 70
     1
102
RTVSPropertyOp22
 70
     1
102
RTVSPropertyOp23
 70
     1
102
RTVSPropertyOp24
 70
     1
102
RTVSPropertyOp25
 70
     1
102
RTVSPropertyOp26
 70
     1
102
RTVSPropertyOp27
 70
     1
102
RTVSPropertyOp28
 70
     1
102
RTVSPropertyOp29
 70
     1
102
RTVSPropertyOp30
 70
     1
102
RTVSPropertyOp31
 70
     1
102
RTVSPropertyOp32
 70
     1
102
RTVSPropertyOp33
 70
     1
102
RTVSPropertyOp34
 70
     1
102
RTVSPropertyOp35
 70
     1
102
RTVSPropertyOp36
 70
     1
102
RTVSPropertyOp37
 70
     1
102
RTVSPropertyOp38
 70
     1
102
RTVSPropertyOp39
 70
     1
102
RTVSPropertyOp40
 70
     1
102
RTVSPropertyOp41
 70
     1
102
RTVSPropertyOp42
 70
     1
102
RTVSPropertyOp43
 70
     1
102
RTVSPropertyOp44
 70
     1
102
RTVSPropertyOp45
 70
     1
102
RTVSPropertyOp46
 70
     1
102
RTVSPropertyOp47
 70
     1
102
RTVSPropertyOp48
 70
     1
102
RTVSPropertyOp49
 70
     1
102
RTVSPropertyOp50
 70
     1
102
RTVSPropertyOp51
 70
     0
102
RTVSPropertyOp52
 70
     0
102
RTVSPropertyOp53
 70
     1
102
RTVSPropertyOp54
 70
     1
102
RTVSPropertyOp55
 70
     1
102
RTVSPropertyOp56
 70
     1
102
RTVSPropertyOp57
 70
     1
102
RTVSPost2010Prop28
280
     0
102
RTVSPost2010PropOp28
 70
     1
102
RTVSPost2010Prop29
280
     1
102
RTVSPost2010PropOp29
 70
     1
102
RTVSPost2010Prop30
280
     1
102
RTVSPost2010PropOp30
 70
     1
102
RTVSPost2010Prop31
280
     0
102
RTVSPost2010PropOp31
 70
     1
102
RTVSPost2010Prop32
280
     0
102
RTVSPost2010PropOp32
 70
     1
102
RTVSPost2010Prop33
280
     0
102
RTVSPost2010PropOp33
 70
     1
102
RTVSPost2010Prop34
280
     0
102
RTVSPost2010PropOp34
 70
     1
102
RTVSPost2010Prop35
280
     0
102
RTVSPost2010PropOp35
 70
     1
102
RTVSPost2010Prop36
280
     0
102
RTVSPost2010PropOp36
 70
     1
102
RTVSPost2010Prop37
 90
       50
102
RTVSPost2010PropOp37
 70
     1
102
RTVSPost2010Prop38
140
0.0
102
RTVSPost2010PropOp38
 70
     1
102
RTVSPost2010Prop39
140
1.0
102
RTVSPost2010PropOp39
 70
     1
102
RTVSPost2010Prop40
 90
        0
102
RTVSPost2010PropOp40
 70
     1
102
RTVSPost2010Prop41ColorIndex
 90
       18
102
RTVSPost2010Prop41ColorRGB
 90
        0
102
RTVSPost2010PropOp41
 70
     1
102
RTVSPost2010Prop42
 90
       50
102
RTVSPost2010PropOp42
 70
     1
102
RTVSPost2010Prop43
 90
        3
102
RTVSPost2010PropOp43
 70
     1
102
RTVSPost2010Prop44ColorIndex
 90
        5
102
RTVSPost2010Prop44ColorRGB
 90
      255
102
RTVSPost2010PropOp44
 70
     1
102
RTVSPost2010Prop45
280
     0
102
RTVSPost2010PropOp45
 70
     1
102
RTVSPost2010Prop46
 90
       50
102
RTVSPost2010PropOp46
 70
     1
102
RTVSPost2010Prop47
 90
       50
102
RTVSPost2010PropOp47
 70
     1
102
RTVSPost2010Prop48
 90
       50
102
RTVSPost2010PropOp48
 70
     1
102
RTVSPost2010Prop49
280
     0
102
RTVSPost2010PropOp49
 70
     1
102
RTVSPost2010Prop50
 90
       50
102
RTVSPost2010PropOp50
 70
     1
102
RTVSPost2010Prop51ColorIndex
 90
      256
102
RTVSPost2010Prop51ColorRGB
 90
-16777216
102
RTVSPost2010PropOp51
 70
     0
102
RTVSPost2010Prop52
140
1.0
102
RTVSPost2010PropOp52
 70
     0
102
RTVSPost2010Prop53
 90
        2
102
RTVSPost2010PropOp53
 70
     1
102
RTVSPost2010Prop54
  1
strokes_ogs.tif
102
RTVSPost2010PropOp54
 70
     1
102
RTVSPost2010Prop55
280
     0
102
RTVSPost2010PropOp55
 70
     1
102
RTVSPost2010Prop56
140
1.0
102
RTVSPost2010PropOp56
 70
     1
102
RTVSPost2010Prop57
140
1.0
102
RTVSPost2010PropOp57
 70
     1
  0
XRECORD
  5
372
102
{ACAD_REACTORS
330
371
102
}
330
371
100
AcDbXrecord
280
     1
102
RTVSPropertyOp0
 70
     1
102
RTVSPropertyOp1
 70
     1
102
RTVSPropertyOp2
 70
     1
102
RTVSPropertyOp3
 70
     1
102
RTVSPropertyOp4
 70
     1
102
RTVSPropertyOp5
 70
     1
102
RTVSPropertyOp6
 70
     1
102
RTVSPropertyOp7
 70
     1
102
RTVSPropertyOp8
 70
     1
102
RTVSPropertyOp9
 70
     1
102
RTVSPropertyOp10
 70
     1
102
RTVSPropertyOp11
 70
     1
102
RTVSPropertyOp12
 70
     1
102
RTVSPropertyOp13
 70
     1
102
RTVSPropertyOp14
 70
     1
102
RTVSPropertyOp15
 70
     1
102
RTVSPropertyOp16
 70
     1
102
RTVSPropertyOp17
 70
     1
102
RTVSPropertyOp18
 70
     1
102
RTVSPropertyOp19
 70
     1
102
RTVSPropertyOp20
 70
     1
102
RTVSPropertyOp21
 70
     1
102
RTVSPropertyOp22
 70
     1
102
RTVSPropertyOp23
 70
     1
102
RTVSPropertyOp24
 70
     1
102
RTVSPropertyOp25
 70
     1
102
RTVSPropertyOp26
 70
     1
102
RTVSPropertyOp27
 70
     1
102
RTVSPropertyOp28
 70
     1
102
RTVSPropertyOp29
 70
     1
102
RTVSPropertyOp30
 70
     1
102
RTVSPropertyOp31
 70
     1
102
RTVSPropertyOp32
 70
     1
102
RTVSPropertyOp33
 70
     1
102
RTVSPropertyOp34
 70
     1
102
RTVSPropertyOp35
 70
     1
102
RTVSPropertyOp36
 70
     1
102
RTVSPropertyOp37
 70
     1
102
RTVSPropertyOp38
 70
     1
102
RTVSPropertyOp39
 70
     1
102
RTVSPropertyOp40
 70
     1
102
RTVSPropertyOp41
 70
     1
102
RTVSPropertyOp42
 70
     1
102
RTVSPropertyOp43
 70
     1
102
RTVSPropertyOp44
 70
     1
102
RTVSPropertyOp45
 70
     1
102
RTVSPropertyOp46
 70
     1
102
RTVSPropertyOp47
 70
     1
102
RTVSPropertyOp48
 70
     1
102
RTVSPropertyOp49
 70
     1
102
RTVSPropertyOp50
 70
     1
102
RTVSPropertyOp51
 70
     0
102
RTVSPropertyOp52
 70
     0
102
RTVSPropertyOp53
 70
     1
102
RTVSPropertyOp54
 70
     1
102
RTVSPropertyOp55
 70
     1
102
RTVSPropertyOp56
 70
     1
102
RTVSPropertyOp57
 70
     1
102
RTVSPost2010Prop28
280
     0
102
RTVSPost2010PropOp28
 70
     1
102
RTVSPost2010Prop29
280
     1
102
RTVSPost2010PropOp29
 70
     1
102
RTVSPost2010Prop30
280
     1
102
RTVSPost2010PropOp30
 70
     1
102
RTVSPost2010Prop31
280
     0
102
RTVSPost2010PropOp31
 70
     1
102
RTVSPost2010Prop32
280
     0
102
RTVSPost2010PropOp32
 70
     1
102
RTVSPost2010Prop33
280
     0
102
RTVSPost2010PropOp33
 70
     1
102
RTVSPost2010Prop34
280
     0
102
RTVSPost2010PropOp34
 70
     1
102
RTVSPost2010Prop35
280
     0
102
RTVSPost2010PropOp35
 70
     1
102
RTVSPost2010Prop36
280
     0
102
RTVSPost2010PropOp36
 70
     1
102
RTVSPost2010Prop37
 90
       50
102
RTVSPost2010PropOp37
 70
     1
102
RTVSPost2010Prop38
140
0.0
102
RTVSPost2010PropOp38
 70
     1
102
RTVSPost2010Prop39
140
1.0
102
RTVSPost2010PropOp39
 70
     1
102
RTVSPost2010Prop40
 90
        0
102
RTVSPost2010PropOp40
 70
     1
102
RTVSPost2010Prop41ColorIndex
 90
       18
102
RTVSPost2010Prop41ColorRGB
 90
        0
102
RTVSPost2010PropOp41
 70
     1
102
RTVSPost2010Prop42
 90
       50
102
RTVSPost2010PropOp42
 70
     1
102
RTVSPost2010Prop43
 90
        3
102
RTVSPost2010PropOp43
 70
     1
102
RTVSPost2010Prop44ColorIndex
 90
        5
102
RTVSPost2010Prop44ColorRGB
 90
      255
102
RTVSPost2010PropOp44
 70
     1
102
RTVSPost2010Prop45
280
     0
102
RTVSPost2010PropOp45
 70
     1
102
RTVSPost2010Prop46
 90
       50
102
RTVSPost2010PropOp46
 70
     1
102
RTVSPost2010Prop47
 90
       50
102
RTVSPost2010PropOp47
 70
     1
102
RTVSPost2010Prop48
 90
       50
102
RTVSPost2010PropOp48
 70
     1
102
RTVSPost2010Prop49
280
     0
102
RTVSPost2010PropOp49
 70
     1
102
RTVSPost2010Prop50
 90
       50
102
RTVSPost2010PropOp50
 70
     1
102
RTVSPost2010Prop51ColorIndex
 90
      256
102
RTVSPost2010Prop51ColorRGB
 90
-16777216
102
RTVSPost2010PropOp51
 70
     0
102
RTVSPost2010Prop52
140
1.0
102
RTVSPost2010PropOp52
 70
     0
102
RTVSPost2010Prop53
 90
        2
102
RTVSPost2010PropOp53
 70
     1
102
RTVSPost2010Prop54
  1
strokes_ogs.tif
102
RTVSPost2010PropOp54
 70
     1
102
RTVSPost2010Prop55
280
     0
102
RTVSPost2010PropOp55
 70
     1
102
RTVSPost2010Prop56
140
1.0
102
RTVSPost2010PropOp56
 70
     1
102
RTVSPost2010Prop57
140
1.0
102
RTVSPost2010PropOp57
 70
     1
  0
XRECORD
  5
392
102
{ACAD_REACTORS
330
391
102
}
330
391
100
AcDbXrecord
280
     1
102
RTVSPropertyOp0
 70
     1
102
RTVSPropertyOp1
 70
     1
102
RTVSPropertyOp2
 70
     1
102
RTVSPropertyOp3
 70
     1
102
RTVSPropertyOp4
 70
     1
102
RTVSPropertyOp5
 70
     1
102
RTVSPropertyOp6
 70
     1
102
RTVSPropertyOp7
 70
     1
102
RTVSPropertyOp8
 70
     1
102
RTVSPropertyOp9
 70
     1
102
RTVSPropertyOp10
 70
     1
102
RTVSPropertyOp11
 70
     1
102
RTVSPropertyOp12
 70
     1
102
RTVSPropertyOp13
 70
     1
102
RTVSPropertyOp14
 70
     1
102
RTVSPropertyOp15
 70
     1
102
RTVSPropertyOp16
 70
     1
102
RTVSPropertyOp17
 70
     1
102
RTVSPropertyOp18
 70
     1
102
RTVSPropertyOp19
 70
     1
102
RTVSPropertyOp20
 70
     1
102
RTVSPropertyOp21
 70
     1
102
RTVSPropertyOp22
 70
     1
102
RTVSPropertyOp23
 70
     1
102
RTVSPropertyOp24
 70
     1
102
RTVSPropertyOp25
 70
     1
102
RTVSPropertyOp26
 70
     1
102
RTVSPropertyOp27
 70
     1
102
RTVSPropertyOp28
 70
     1
102
RTVSPropertyOp29
 70
     1
102
RTVSPropertyOp30
 70
     1
102
RTVSPropertyOp31
 70
     1
102
RTVSPropertyOp32
 70
     1
102
RTVSPropertyOp33
 70
     1
102
RTVSPropertyOp34
 70
     1
102
RTVSPropertyOp35
 70
     1
102
RTVSPropertyOp36
 70
     1
102
RTVSPropertyOp37
 70
     1
102
RTVSPropertyOp38
 70
     1
102
RTVSPropertyOp39
 70
     1
102
RTVSPropertyOp40
 70
     1
102
RTVSPropertyOp41
 70
     1
102
RTVSPropertyOp42
 70
     1
102
RTVSPropertyOp43
 70
     1
102
RTVSPropertyOp44
 70
     1
102
RTVSPropertyOp45
 70
     1
102
RTVSPropertyOp46
 70
     1
102
RTVSPropertyOp47
 70
     1
102
RTVSPropertyOp48
 70
     1
102
RTVSPropertyOp49
 70
     1
102
RTVSPropertyOp50
 70
     1
102
RTVSPropertyOp51
 70
     0
102
RTVSPropertyOp52
 70
     0
102
RTVSPropertyOp53
 70
     1
102
RTVSPropertyOp54
 70
     1
102
RTVSPropertyOp55
 70
     1
102
RTVSPropertyOp56
 70
     1
102
RTVSPropertyOp57
 70
     1
102
RTVSPost2010Prop28
280
     0
102
RTVSPost2010PropOp28
 70
     1
102
RTVSPost2010Prop29
280
     1
102
RTVSPost2010PropOp29
 70
     1
102
RTVSPost2010Prop30
280
     1
102
RTVSPost2010PropOp30
 70
     1
102
RTVSPost2010Prop31
280
     0
102
RTVSPost2010PropOp31
 70
     1
102
RTVSPost2010Prop32
280
     0
102
RTVSPost2010PropOp32
 70
     1
102
RTVSPost2010Prop33
280
     0
102
RTVSPost2010PropOp33
 70
     1
102
RTVSPost2010Prop34
280
     0
102
RTVSPost2010PropOp34
 70
     1
102
RTVSPost2010Prop35
280
     0
102
RTVSPost2010PropOp35
 70
     1
102
RTVSPost2010Prop36
280
     0
102
RTVSPost2010PropOp36
 70
     1
102
RTVSPost2010Prop37
 90
       50
102
RTVSPost2010PropOp37
 70
     1
102
RTVSPost2010Prop38
140
0.0
102
RTVSPost2010PropOp38
 70
     1
102
RTVSPost2010Prop39
140
1.0
102
RTVSPost2010PropOp39
 70
     1
102
RTVSPost2010Prop40
 90
        0
102
RTVSPost2010PropOp40
 70
     1
102
RTVSPost2010Prop41ColorIndex
 90
       18
102
RTVSPost2010Prop41ColorRGB
 90
        0
102
RTVSPost2010PropOp41
 70
     1
102
RTVSPost2010Prop42
 90
       50
102
RTVSPost2010PropOp42
 70
     1
102
RTVSPost2010Prop43
 90
        3
102
RTVSPost2010PropOp43
 70
     1
102
RTVSPost2010Prop44ColorIndex
 90
        5
102
RTVSPost2010Prop44ColorRGB
 90
      255
102
RTVSPost2010PropOp44
 70
     1
102
RTVSPost2010Prop45
280
     0
102
RTVSPost2010PropOp45
 70
     1
102
RTVSPost2010Prop46
 90
       50
102
RTVSPost2010PropOp46
 70
     1
102
RTVSPost2010Prop47
 90
       50
102
RTVSPost2010PropOp47
 70
     1
102
RTVSPost2010Prop48
 90
       50
102
RTVSPost2010PropOp48
 70
     1
102
RTVSPost2010Prop49
280
     0
102
RTVSPost2010PropOp49
 70
     1
102
RTVSPost2010Prop50
 90
       50
102
RTVSPost2010PropOp50
 70
     1
102
RTVSPost2010Prop51ColorIndex
 90
      256
102
RTVSPost2010Prop51ColorRGB
 90
-16777216
102
RTVSPost2010PropOp51
 70
     0
102
RTVSPost2010Prop52
140
1.0
102
RTVSPost2010PropOp52
 70
     0
102
RTVSPost2010Prop53
 90
        2
102
RTVSPost2010PropOp53
 70
     1
102
RTVSPost2010Prop54
  1
strokes_ogs.tif
102
RTVSPost2010PropOp54
 70
     1
102
RTVSPost2010Prop55
280
     0
102
RTVSPost2010PropOp55
 70
     1
102
RTVSPost2010Prop56
140
1.0
102
RTVSPost2010PropOp56
 70
     1
102
RTVSPost2010Prop57
140
1.0
102
RTVSPost2010PropOp57
 70
     1
  0
ENDSEC
  0
EOF
