  0
SECTION
  2
HEADER
  9
$ACADVER
  1
AC1015
  9
$ACADMAINTVER
 70
     6
  9
$DWGCODEPAGE
  3
ANSI_932
  9
$INSBASE
 10
0.0
 20
0.0
 30
0.0
  9
$EXTMIN
 10
-181.0
 20
-22.54048149838889
 30
0.0
  9
$EXTMAX
 10
-38.93742629353619
 20
85.44376529062072
 30
0.0
  9
$LIMMIN
 10
0.0
 20
0.0
  9
$LIMMAX
 10
12.0
 20
9.0
  9
$ORTHOMODE
 70
     0
  9
$REGENMODE
 70
     1
  9
$FILLMODE
 70
     1
  9
$QTEXTMODE
 70
     0
  9
$MIRRTEXT
 70
     1
  9
$LTSCALE
 40
1.0
  9
$ATTMODE
 70
     1
  9
$TEXTSIZE
 40
0.2
  9
$TRACEWID
 40
0.05
  9
$TEXTSTYLE
  7
Standard
  9
$CLAYER
  8
0
  9
$CELTYPE
  6
ByLayer
  9
$CECOLOR
 62
   256
  9
$CELTSCALE
 40
1.0
  9
$DISPSILH
 70
     0
  9
$DIMSCALE
 40
1.0
  9
$DIMASZ
 40
0.18
  9
$DIMEXO
 40
0.0625
  9
$DIMDLI
 40
0.38
  9
$DIMRND
 40
0.0
  9
$DIMDLE
 40
0.0
  9
$DIMEXE
 40
0.18
  9
$DIMTP
 40
0.0
  9
$DIMTM
 40
0.0
  9
$DIMTXT
 40
0.18
  9
$DIMCEN
 40
0.09
  9
$DIMTSZ
 40
0.0
  9
$DIMTOL
 70
     0
  9
$DIMLIM
 70
     0
  9
$DIMTIH
 70
     1
  9
$DIMTOH
 70
     1
  9
$DIMSE1
 70
     0
  9
$DIMSE2
 70
     0
  9
$DIMTAD
 70
     0
  9
$DIMZIN
 70
     0
  9
$DIMBLK
  1

  9
$DIMASO
 70
     1
  9
$DIMSHO
 70
     1
  9
$DIMPOST
  1

  9
$DIMAPOST
  1

  9
$DIMALT
 70
     0
  9
$DIMALTD
 70
     2
  9
$DIMALTF
 40
25.4
  9
$DIMLFAC
 40
1.0
  9
$DIMTOFL
 70
     0
  9
$DIMTVP
 40
0.0
  9
$DIMTIX
 70
     0
  9
$DIMSOXD
 70
     0
  9
$DIMSAH
 70
     0
  9
$DIMBLK1
  1

  9
$DIMBLK2
  1

  9
$DIMSTYLE
  2
Standard
  9
$DIMCLRD
 70
     0
  9
$DIMCLRE
 70
     0
  9
$DIMCLRT
 70
     0
  9
$DIMTFAC
 40
1.0
  9
$DIMGAP
 40
0.09
  9
$DIMJUST
 70
     0
  9
$DIMSD1
 70
     0
  9
$DIMSD2
 70
     0
  9
$DIMTOLJ
 70
     1
  9
$DIMTZIN
 70
     0
  9
$DIMALTZ
 70
     0
  9
$DIMALTTZ
 70
     0
  9
$DIMUPT
 70
     0
  9
$DIMDEC
 70
     4
  9
$DIMTDEC
 70
     4
  9
$DIMALTU
 70
     2
  9
$DIMALTTD
 70
     2
  9
$DIMTXSTY
  7
Standard
  9
$DIMAUNIT
 70
     0
  9
$DIMADEC
 70
     0
  9
$DIMALTRND
 40
0.0
  9
$DIMAZIN
 70
     0
  9
$DIMDSEP
 70
    46
  9
$DIMATFIT
 70
     3
  9
$DIMFRAC
 70
     0
  9
$DIMLDRBLK
  1

  9
$DIMLUNIT
 70
     2
  9
$DIMLWD
 70
    -2
  9
$DIMLWE
 70
    -2
  9
$DIMTMOVE
 70
     0
  9
$LUNITS
 70
     2
  9
$LUPREC
 70
     4
  9
$SKETCHINC
 40
0.1
  9
$FILLETRAD
 40
0.5
  9
$AUNITS
 70
     0
  9
$AUPREC
 70
     0
  9
$MENU
  1
.
  9
$ELEVATION
 40
0.0
  9
$PELEVATION
 40
0.0
  9
$THICKNESS
 40
0.0
  9
$LIMCHECK
 70
     0
  9
$CHAMFERA
 40
0.0
  9
$CHAMFERB
 40
0.0
  9
$CHAMFERC
 40
0.0
  9
$CHAMFERD
 40
0.0
  9
$SKPOLY
 70
     0
  9
$TDCREATE
 40
2458080.416185012
  9
$TDUCREATE
 40
2458080.041185012
  9
$TDUPDATE
 40
2458080.416186458
  9
$TDUUPDATE
 40
2458080.041186458
  9
$TDINDWG
 40
0.0000000116
  9
$TDUSRTIMER
 40
0.0000000116
  9
$USRTIMER
 70
     1
  9
$ANGBASE
 50
0.0
  9
$ANGDIR
 70
     0
  9
$PDMODE
 70
     0
  9
$PDSIZE
 40
0.0
  9
$PLINEWID
 40
0.0
  9
$SPLFRAME
 70
     0
  9
$SPLINETYPE
 70
     6
  9
$SPLINESEGS
 70
     8
  9
$HANDSEED
  5
3CC
  9
$SURFTAB1
 70
     6
  9
$SURFTAB2
 70
     6
  9
$SURFTYPE
 70
     6
  9
$SURFU
 70
     6
  9
$SURFV
 70
     6
  9
$UCSBASE
  2

  9
$UCSNAME
  2

  9
$UCSORG
 10
0.0
 20
0.0
 30
0.0
  9
$UCSXDIR
 10
1.0
 20
0.0
 30
0.0
  9
$UCSYDIR
 10
0.0
 20
1.0
 30
0.0
  9
$UCSORTHOREF
  2

  9
$UCSORTHOVIEW
 70
     0
  9
$UCSORGTOP
 10
0.0
 20
0.0
 30
0.0
  9
$UCSORGBOTTOM
 10
0.0
 20
0.0
 30
0.0
  9
$UCSORGLEFT
 10
0.0
 20
0.0
 30
0.0
  9
$UCSORGRIGHT
 10
0.0
 20
0.0
 30
0.0
  9
$UCSORGFRONT
 10
0.0
 20
0.0
 30
0.0
  9
$UCSORGBACK
 10
0.0
 20
0.0
 30
0.0
  9
$PUCSBASE
  2

  9
$PUCSNAME
  2

  9
$PUCSORG
 10
0.0
 20
0.0
 30
0.0
  9
$PUCSXDIR
 10
1.0
 20
0.0
 30
0.0
  9
$PUCSYDIR
 10
0.0
 20
1.0
 30
0.0
  9
$PUCSORTHOREF
  2

  9
$PUCSORTHOVIEW
 70
     0
  9
$PUCSORGTOP
 10
0.0
 20
0.0
 30
0.0
  9
$PUCSORGBOTTOM
 10
0.0
 20
0.0
 30
0.0
  9
$PUCSORGLEFT
 10
0.0
 20
0.0
 30
0.0
  9
$PUCSORGRIGHT
 10
0.0
 20
0.0
 30
0.0
  9
$PUCSORGFRONT
 10
0.0
 20
0.0
 30
0.0
  9
$PUCSORGBACK
 10
0.0
 20
0.0
 30
0.0
  9
$USERI1
 70
     0
  9
$USERI2
 70
     0
  9
$USERI3
 70
     0
  9
$USERI4
 70
     0
  9
$USERI5
 70
     0
  9
$USERR1
 40
19.0
  9
$USERR2
 40
0.0
  9
$USERR3
 40
0.0
  9
$USERR4
 40
0.0
  9
$USERR5
 40
0.0
  9
$WORLDVIEW
 70
     1
  9
$SHADEDGE
 70
     3
  9
$SHADEDIF
 70
    70
  9
$TILEMODE
 70
     1
  9
$MAXACTVP
 70
    64
  9
$PINSBASE
 10
0.0
 20
0.0
 30
0.0
  9
$PLIMCHECK
 70
     0
  9
$PEXTMIN
 10
1.00000000000000E+20
 20
1.00000000000000E+20
 30
1.00000000000000E+20
  9
$PEXTMAX
 10
-1.00000000000000E+20
 20
-1.00000000000000E+20
 30
-1.00000000000000E+20
  9
$PLIMMIN
 10
0.0
 20
0.0
  9
$PLIMMAX
 10
12.0
 20
9.0
  9
$UNITMODE
 70
     0
  9
$VISRETAIN
 70
     1
  9
$PLINEGEN
 70
     0
  9
$PSLTSCALE
 70
     1
  9
$TREEDEPTH
 70
  3020
  9
$CMLSTYLE
  2
Standard
  9
$CMLJUST
 70
     0
  9
$CMLSCALE
 40
1.0
  9
$PROXYGRAPHICS
 70
     1
  9
$MEASUREMENT
 70
     1
  9
$CELWEIGHT
370
    -1
  9
$ENDCAPS
280
     0
  9
$JOINSTYLE
280
     0
  9
$LWDISPLAY
290
     0
  9
$INSUNITS
 70
     4
  9
$HYPERLINKBASE
  1

  9
$STYLESHEET
  1

  9
$XEDIT
290
     1
  9
$CEPSNTYPE
380
     0
  9
$PSTYLEMODE
290
     1
  9
$FINGERPRINTGUID
  2
{4A3A89AD-BA1C-4273-99B6-1780F356003E}
  9
$VERSIONGUID
  2
{FAEB1C32-E019-11D5-929B-00C0DF256EC4}
  9
$EXTNAMES
290
     1
  9
$PSVPSCALE
 40
0.0
  9
$OLESTARTUP
290
     0
  0
ENDSEC
  0
SECTION
  2
CLASSES
  0
CLASS
  1
ACDBDICTIONARYWDFLT
  2
AcDbDictionaryWithDefault
  3
ObjectDBX Classes
 90
        0
280
     0
281
     0
  0
CLASS
  1
VISUALSTYLE
  2
AcDbVisualStyle
  3
ObjectDBX Classes
 90
     4095
280
     0
281
     0
  0
CLASS
  1
MATERIAL
  2
AcDbMaterial
  3
ObjectDBX Classes
 90
     1153
280
     0
281
     0
  0
CLASS
  1
SCALE
  2
AcDbScale
  3
ObjectDBX Classes
 90
     1153
280
     0
281
     0
  0
CLASS
  1
SUN
  2
AcDbSun
  3
SCENEOE
 90
     1153
280
     0
281
     0
  0
CLASS
  1
DICTIONARYVAR
  2
AcDbDictionaryVar
  3
ObjectDBX Classes
 90
        0
280
     0
281
     0
  0
CLASS
  1
ACDBPLACEHOLDER
  2
AcDbPlaceHolder
  3
ObjectDBX Classes
 90
        0
280
     0
281
     0
  0
CLASS
  1
LAYOUT
  2
AcDbLayout
  3
ObjectDBX Classes
 90
        0
280
     0
281
     0
  0
ENDSEC
  0
SECTION
  2
TABLES
  0
TABLE
  2
VPORT
  5
8
330
0
100
AcDbSymbolTable
 70
     1
  0
VPORT
  5
29
330
8
100
AcDbSymbolTableRecord
100
AcDbViewportTableRecord
  2
*Active
 70
     0
 10
0.0
 20
0.0
 11
1.0
 21
1.0
 12
-109.9687131467681
 22
31.45164189611592
 13
0.0
 23
0.0
 14
0.5
 24
0.5
 15
0.5
 25
0.5
 16
0.0
 26
0.0
 36
1.0
 17
0.0
 27
0.0
 37
0.0
 40
118.7826714679106
 41
1.60267857142857
 42
50.0
 43
0.0
 44
0.0
 50
0.0
 51
0.0
 71
     0
 72
   100
 73
     1
 74
     3
 75
     0
 76
     0
 77
     0
 78
     0
281
     0
 65
     1
110
0.0
120
0.0
130
0.0
111
1.0
121
0.0
131
0.0
112
0.0
122
1.0
132
0.0
 79
     0
146
0.0
  0
ENDTAB
  0
TABLE
  2
LTYPE
  5
5
330
0
100
AcDbSymbolTable
 70
     8
  0
LTYPE
  5
14
330
5
100
AcDbSymbolTableRecord
100
AcDbLinetypeTableRecord
  2
ByBlock
 70
     0
  3

 72
    65
 73
     0
 40
0.0
  0
LTYPE
  5
15
330
5
100
AcDbSymbolTableRecord
100
AcDbLinetypeTableRecord
  2
ByLayer
 70
     0
  3

 72
    65
 73
     0
 40
0.0
  0
LTYPE
  5
16
330
5
100
AcDbSymbolTableRecord
100
AcDbLinetypeTableRecord
  2
Continuous
 70
     0
  3
Solid line
 72
    65
 73
     0
 40
0.0
  0
LTYPE
  5
6A
330
5
100
AcDbSymbolTableRecord
100
AcDbLinetypeTableRecord
  2
DASHED
 70
     0
  3
Dashed
 72
    65
 73
     2
 40
15.0
 49
7.0
 74
     0
 49
-8.0
 74
     0
  0
LTYPE
  5
6B
330
5
100
AcDbSymbolTableRecord
100
AcDbLinetypeTableRecord
  2
DOTTED
 70
     0
  3
Dotted
 72
    65
 73
     2
 40
1.0
 49
0.0
 74
     0
 49
-1.0
 74
     0
  0
LTYPE
  5
6C
330
5
100
AcDbSymbolTableRecord
100
AcDbLinetypeTableRecord
  2
DOT_CENTER
 70
     0
  3
Dot_Center
 72
    65
 73
     4
 40
14.0
 49
12.0
 74
     0
 49
-1.0
 74
     0
 49
0.0
 74
     0
 49
-1.0
 74
     0
  0
LTYPE
  5
6D
330
5
100
AcDbSymbolTableRecord
100
AcDbLinetypeTableRecord
  2
LONG_DASHED
 70
     0
  3
Long_Dashed
 72
    65
 73
     2
 40
15.0
 49
10.0
 74
     0
 49
-5.0
 74
     0
  0
LTYPE
  5
6E
330
5
100
AcDbSymbolTableRecord
100
AcDbLinetypeTableRecord
  2
DASH_CENTER
 70
     0
  3
Dash_Center
 72
    65
 73
     4
 40
14.0
 49
11.0
 74
     0
 49
-1.0
 74
     0
 49
1.0
 74
     0
 49
-1.0
 74
     0
  0
LTYPE
  5
6F
330
5
100
AcDbSymbolTableRecord
100
AcDbLinetypeTableRecord
  2
PHANTOM
 70
     0
  3
Phantom
 72
    65
 73
     6
 40
13.0
 49
10.0
 74
     0
 49
-1.0
 74
     0
 49
0.0
 74
     0
 49
-1.0
 74
     0
 49
0.0
 74
     0
 49
-1.0
 74
     0
  0
LTYPE
  5
70
330
5
100
AcDbSymbolTableRecord
100
AcDbLinetypeTableRecord
  2
CENTER_DASH_DASH
 70
     0
  3
Center_Dash_Dash
 72
    65
 73
     6
 40
14.0
 49
9.0
 74
     0
 49
-1.0
 74
     0
 49
1.0
 74
     0
 49
-1.0
 74
     0
 49
1.0
 74
     0
 49
-1.0
 74
     0
  0
ENDTAB
  0
TABLE
  2
LAYER
  5
2
330
0
100
AcDbSymbolTable
 70
     2
  0
LAYER
  5
10
330
2
100
AcDbSymbolTableRecord
100
AcDbLayerTableRecord
  2
0
 70
     0
 62
     7
  6
Continuous
370
    -3
390
F
  0
LAYER
  5
71
330
2
100
AcDbSymbolTableRecord
100
AcDbLayerTableRecord
  2
1
 70
     0
 62
     7
  6
Continuous
370
    -3
390
F
  0
ENDTAB
  0
TABLE
  2
STYLE
  5
3
330
0
100
AcDbSymbolTable
 70
     1
  0
STYLE
  5
11
330
3
100
AcDbSymbolTableRecord
100
AcDbTextStyleTableRecord
  2
Standard
 70
     0
 40
0.0
 41
1.0
 50
0.0
 71
     0
 42
0.2
  3
txt
  4

  0
ENDTAB
  0
TABLE
  2
VIEW
  5
6
330
0
100
AcDbSymbolTable
 70
     0
  0
ENDTAB
  0
TABLE
  2
UCS
  5
7
330
0
100
AcDbSymbolTable
 70
     0
  0
ENDTAB
  0
TABLE
  2
APPID
  5
9
330
0
100
AcDbSymbolTable
 70
     1
  0
APPID
  5
12
330
9
100
AcDbSymbolTableRecord
100
AcDbRegAppTableRecord
  2
ACAD
 70
     0
  0
ENDTAB
  0
TABLE
  2
DIMSTYLE
  5
A
330
0
100
AcDbSymbolTable
 70
     1
100
AcDbDimStyleTable
  0
DIMSTYLE
105
27
330
A
100
AcDbSymbolTableRecord
100
AcDbDimStyleTableRecord
  2
Standard
 70
     0
178
     0
340
11
  0
ENDTAB
  0
TABLE
  2
BLOCK_RECORD
  5
1
330
0
100
AcDbSymbolTable
 70
     1
  0
BLOCK_RECORD
  5
1F
330
1
100
AcDbSymbolTableRecord
100
AcDbBlockTableRecord
  2
*Model_Space
340
22
  0
BLOCK_RECORD
  5
1B
330
1
100
AcDbSymbolTableRecord
100
AcDbBlockTableRecord
  2
*Paper_Space
340
1E
  0
BLOCK_RECORD
  5
23
330
1
100
AcDbSymbolTableRecord
100
AcDbBlockTableRecord
  2
*Paper_Space0
340
26
  0
ENDTAB
  0
ENDSEC
  0
SECTION
  2
BLOCKS
  0
BLOCK
  5
20
330
1F
100
AcDbEntity
  8
0
100
AcDbBlockBegin
  2
*Model_Space
 70
     0
 10
0.0
 20
0.0
 30
0.0
  3
*Model_Space
  1
*Model_Space
  0
ENDBLK
  5
21
330
1F
100
AcDbEntity
  8
0
100
AcDbBlockEnd
  0
BLOCK
  5
1C
330
1B
100
AcDbEntity
 67
     1
  8
0
100
AcDbBlockBegin
  2
*Paper_Space
 70
     0
 10
0.0
 20
0.0
 30
0.0
  3
*Paper_Space
  1
*Paper_Space
  0
ENDBLK
  5
1D
330
1B
100
AcDbEntity
 67
     1
  8
0
100
AcDbBlockEnd
  0
BLOCK
  5
24
330
23
100
AcDbEntity
  8
0
100
AcDbBlockBegin
  2
*Paper_Space0
 70
     0
 10
0.0
 20
0.0
 30
0.0
  3
*Paper_Space0
  1
*Paper_Space0
  0
ENDBLK
  5
25
330
23
100
AcDbEntity
  8
0
100
AcDbBlockEnd
  0
ENDSEC
  0
SECTION
  2
ENTITIES
  0
POINT
  5
72
330
1F
100
AcDbEntity
  8
1
 62
     3
 60
     1
100
AcDbPoint
 10
-161.1000000108033
 20
0.0
 30
0.0
  0
POINT
  5
73
330
1F
100
AcDbEntity
  8
1
 62
     3
 60
     1
100
AcDbPoint
 10
-162.3123870994896
 20
0.0
 30
0.0
  0
POINT
  5
74
330
1F
100
AcDbEntity
  8
1
 62
     3
 60
     1
100
AcDbPoint
 10
-163.25
 20
0.0
 30
0.0
  0
POINT
  5
75
330
1F
100
AcDbEntity
  8
1
 62
     3
 60
     1
100
AcDbPoint
 10
-164.25
 20
0.0
 30
0.0
  0
POINT
  5
76
330
1F
100
AcDbEntity
  8
1
 62
     3
 60
     1
100
AcDbPoint
 10
-157.75
 20
0.0
 30
0.0
  0
POINT
  5
77
330
1F
100
AcDbEntity
  8
1
 62
     3
 60
     1
100
AcDbPoint
 10
-168.0
 20
0.0
 30
0.0
  0
POINT
  5
78
330
1F
100
AcDbEntity
  8
1
 62
     3
 60
     1
100
AcDbPoint
 10
-84.34782899566241
 20
0.68279352338873
 30
0.0
  0
POINT
  5
79
330
1F
100
AcDbEntity
  8
1
 62
     3
 60
     1
100
AcDbPoint
 10
-84.34782899566241
 20
9.81720647661126
 30
0.0
  0
POINT
  5
7A
330
1F
100
AcDbEntity
  8
1
 62
     3
 60
     1
100
AcDbPoint
 10
-84.34782899566241
 20
-9.81720647661125
 30
0.0
  0
POINT
  5
7B
330
1F
100
AcDbEntity
  8
1
 62
     3
 60
     1
100
AcDbPoint
 10
-84.34782899566241
 20
-0.68279352338879
 30
0.0
  0
POINT
  5
7C
330
1F
100
AcDbEntity
  8
1
 62
     3
 60
     1
100
AcDbPoint
 10
-72.368554937884
 20
-0.68279352338864
 30
0.0
  0
POINT
  5
7D
330
1F
100
AcDbEntity
  8
1
 62
     3
 60
     1
100
AcDbPoint
 10
-72.368554937884
 20
-9.81720647661125
 30
0.0
  0
POINT
  5
7E
330
1F
100
AcDbEntity
  8
1
 62
     3
 60
     1
100
AcDbPoint
 10
-72.368554937884
 20
9.81720647661126
 30
0.0
  0
POINT
  5
7F
330
1F
100
AcDbEntity
  8
1
 62
     3
 60
     1
100
AcDbPoint
 10
-72.368554937884
 20
0.68279352338873
 30
0.0
  0
POINT
  5
80
330
1F
100
AcDbEntity
  8
1
 62
     3
 60
     1
100
AcDbPoint
 10
-72.368554937884
 20
10.5
 30
0.0
  0
POINT
  5
81
330
1F
100
AcDbEntity
  8
1
 62
     3
 60
     1
100
AcDbPoint
 10
-84.34782899566241
 20
10.5
 30
0.0
  0
POINT
  5
82
330
1F
100
AcDbEntity
  8
1
 62
     3
 60
     1
100
AcDbPoint
 10
-163.0
 20
17.69999999999995
 30
0.0
  0
POINT
  5
83
330
1F
100
AcDbEntity
  8
1
 62
     3
 60
     1
100
AcDbPoint
 10
-166.2
 20
17.69999999999995
 30
0.0
  0
POINT
  5
84
330
1F
100
AcDbEntity
  8
1
 62
     3
 60
     1
100
AcDbPoint
 10
-160.0202041028869
 20
27.69999999999998
 30
0.0
  0
POINT
  5
85
330
1F
100
AcDbEntity
  8
1
 62
     3
 60
     1
100
AcDbPoint
 10
-175.9797958971134
 20
27.69999999999998
 30
0.0
  0
POINT
  5
86
330
1F
100
AcDbEntity
  8
1
 62
     3
 60
     1
100
AcDbPoint
 10
-162.25
 20
15.69999999999999
 30
0.0
  0
POINT
  5
87
330
1F
100
AcDbEntity
  8
1
 62
     3
 60
     1
100
AcDbPoint
 10
-162.25
 20
17.19999999999997
 30
0.0
  0
POINT
  5
88
330
1F
100
AcDbEntity
  8
1
 62
     3
 60
     1
100
AcDbPoint
 10
-88.35819196680228
 20
17.69999999999995
 30
0.0
  0
POINT
  5
89
330
1F
100
AcDbEntity
  8
1
 62
     3
 60
     1
100
AcDbPoint
 10
-95.3581919668022
 20
73.69376529062072
 30
0.0
  0
POINT
  5
8A
330
1F
100
AcDbEntity
  8
1
 62
     3
 60
     1
100
AcDbPoint
 10
-95.30819196680224
 20
73.69376529062072
 30
0.0
  0
POINT
  5
8B
330
1F
100
AcDbEntity
  8
1
 62
     3
 60
     1
100
AcDbPoint
 10
-101.3581919668022
 20
73.69376529062072
 30
0.0
  0
POINT
  5
8C
330
1F
100
AcDbEntity
  8
1
 62
     3
 60
     1
100
AcDbPoint
 10
-109.1530620747643
 20
16.69999999999997
 30
0.0
  0
POINT
  5
8D
330
1F
100
AcDbEntity
  8
1
 62
     3
 60
     1
100
AcDbPoint
 10
-107.1081919668024
 20
16.69999999999997
 30
0.0
  0
LINE
  5
8E
330
1F
100
AcDbEntity
  8
1
  6
DOT_CENTER
 62
     4
100
AcDbLine
 10
-155.0
 20
0.0
 30
0.0
 11
-181.0
 21
0.0
 31
0.0
  0
LINE
  5
8F
330
1F
100
AcDbEntity
  8
1
  6
Continuous
 62
     3
100
AcDbLine
 10
-163.1
 20
18.14999999999989
 30
0.0
 11
-163.1
 21
21.20000000000003
 31
0.0
  0
LINE
  5
90
330
1F
100
AcDbEntity
  8
1
  6
Continuous
 62
     3
100
AcDbLine
 10
-164.0
 20
21.20000000000003
 30
0.0
 11
-164.0
 21
18.14999999999989
 31
0.0
  0
LINE
  5
91
330
1F
100
AcDbEntity
  8
1
  6
DOT_CENTER
 62
     4
100
AcDbLine
 10
-163.55
 20
21.64195624646452
 30
0.0
 11
-163.55
 21
17.32853571740248
 31
0.0
  0
LINE
  5
92
330
1F
100
AcDbEntity
  8
1
  6
Continuous
 62
     3
100
AcDbLine
 10
-82.8581919666228
 20
23.20000000039448
 30
0.0
 11
-82.8581919666228
 21
18.36678161095684
 31
0.0
  0
LINE
  5
93
330
1F
100
AcDbEntity
  8
1
  6
Continuous
 62
     3
100
AcDbLine
 10
-82.8581919666228
 20
18.25847701359739
 30
0.0
 11
-82.8581919666228
 21
18.36678161095684
 31
0.0
  0
LINE
  5
94
330
1F
100
AcDbEntity
  8
1
  6
Continuous
 62
     3
100
AcDbLine
 10
-78.69290536295784
 20
25.1138029443005
 30
0.0
 11
-81.90300872789152
 21
18.0515755414468
 31
0.0
  0
LINE
  5
95
330
1F
100
AcDbEntity
  8
1
  6
Continuous
 62
     3
100
AcDbLine
 10
-41.35819196680239
 20
25.6999999999986
 30
0.0
 11
-77.78253888549523
 21
25.69999999999929
 31
0.0
  0
LINE
  5
96
330
1F
100
AcDbEntity
  8
1
  6
Continuous
 62
     3
100
AcDbLine
 10
-40.35819196680197
 20
28.69999999999863
 30
0.0
 11
-40.35819196680197
 21
26.69999999999861
 31
0.0
  0
LINE
  5
97
330
1F
100
AcDbEntity
  8
1
  6
Continuous
 62
     3
100
AcDbLine
 10
-79.0703654261491
 20
29.6999999999986
 30
0.0
 11
-41.35819196680231
 21
29.6999999999986
 31
0.0
  0
LINE
  5
98
330
1F
100
AcDbEntity
  8
1
  6
Continuous
 62
     3
100
AcDbLine
 10
-82.76855844408539
 20
25.81380294469558
 30
0.0
 11
-81.80146485853689
 21
27.94140883290219
 31
0.0
  0
LINE
  5
99
330
1F
100
AcDbEntity
  8
1
  6
Continuous
 62
     3
100
AcDbLine
 10
-82.8581919666228
 20
23.20000000039448
 30
0.0
 11
-85.09173875966638
 21
18.28619705569884
 31
0.0
  0
LINE
  5
9A
330
1F
100
AcDbEntity
  8
1
  6
Continuous
 62
     3
100
AcDbLine
 10
-82.8581919666228
 20
23.20000000039448
 30
0.0
 11
-82.8581919666228
 21
25.40000000039437
 31
0.0
  0
LINE
  5
9B
330
1F
100
AcDbEntity
  8
1
  6
Continuous
 62
     3
100
AcDbLine
 10
-86.002105237129
 20
15.7
 30
0.0
 11
-99.35819196680222
 21
15.70000000000001
 31
0.0
  0
LINE
  5
9C
330
1F
100
AcDbEntity
  8
1
  6
Continuous
 62
     3
100
AcDbLine
 10
-103.3581919668023
 20
15.70000000000001
 30
0.0
 11
-106.3581919668023
 21
15.69999999999988
 31
0.0
  0
LINE
  5
9D
330
1F
100
AcDbEntity
  8
1
  6
Continuous
 62
     3
100
AcDbLine
 10
-86.35819196680171
 20
17.69999999999993
 30
0.0
 11
-86.35819196680171
 21
15.69999999999993
 31
0.0
  0
LINE
  5
9E
330
1F
100
AcDbEntity
  8
1
  6
Continuous
 62
     3
100
AcDbLine
 10
-99.35819196680171
 20
17.69999999999993
 30
0.0
 11
-99.35819196680222
 21
15.70000000000001
 31
0.0
  0
LINE
  5
9F
330
1F
100
AcDbEntity
  8
1
  6
Continuous
 62
     3
100
AcDbLine
 10
-88.35819196680228
 20
17.69999999999995
 30
0.0
 11
-88.35819196680228
 21
15.69999999999995
 31
0.0
  0
LINE
  5
A0
330
1F
100
AcDbEntity
  8
1
  6
Continuous
 62
     3
100
AcDbLine
 10
-86.002105237129
 20
17.7
 30
0.0
 11
-106.8581919668022
 21
17.69999999999988
 31
0.0
  0
LINE
  5
A1
330
1F
100
AcDbEntity
  8
1
  6
Continuous
 62
     3
100
AcDbLine
 10
-106.8581919668022
 20
17.69999999999988
 30
0.0
 11
-106.8581919668023
 21
16.19999999999995
 31
0.0
  0
LINE
  5
A2
330
1F
100
AcDbEntity
  8
1
  6
Continuous
 62
     3
100
AcDbLine
 10
-83.27100580474121
 20
17.4585911670964
 30
0.0
 11
-82.8581919666228
 21
18.36678161095684
 31
0.0
  0
LINE
  5
A3
330
1F
100
AcDbEntity
  8
1
  6
DOT_CENTER
 62
     4
100
AcDbLine
 10
-96.9081919668022
 20
21.64195624646452
 30
0.0
 11
-96.9081919668022
 21
17.32853571740248
 31
0.0
  0
LINE
  5
A4
330
1F
100
AcDbEntity
  8
1
  6
DOT_CENTER
 62
     4
100
AcDbLine
 10
-105.8081919668022
 20
21.64195624646452
 30
0.0
 11
-105.8081919668022
 21
17.32853571740248
 31
0.0
  0
LINE
  5
A5
330
1F
100
AcDbEntity
  8
1
  6
Continuous
 62
     3
100
AcDbLine
 10
-106.2581919668022
 20
21.20000000000003
 30
0.0
 11
-106.2581919668022
 21
17.69999999999988
 31
0.0
  0
LINE
  5
A6
330
1F
100
AcDbEntity
  8
1
  6
Continuous
 62
     3
100
AcDbLine
 10
-97.35819196680222
 20
21.20000000000003
 30
0.0
 11
-97.35819196680222
 21
18.14999999999989
 31
0.0
  0
LINE
  5
A7
330
1F
100
AcDbEntity
  8
1
  6
Continuous
 62
     3
100
AcDbLine
 10
-106.2581919668022
 20
17.69999999999988
 30
0.0
 11
-105.3581919668022
 21
17.69999999999988
 31
0.0
  0
LINE
  5
A8
330
1F
100
AcDbEntity
  8
1
  6
Continuous
 62
     3
100
AcDbLine
 10
-105.3581919668022
 20
17.69999999999988
 30
0.0
 11
-105.3581919668022
 21
21.20000000000003
 31
0.0
  0
LINE
  5
A9
330
1F
100
AcDbEntity
  8
1
  6
Continuous
 62
     3
100
AcDbLine
 10
-96.45819196680219
 20
18.14999999999989
 30
0.0
 11
-96.45819196680219
 21
21.20000000000003
 31
0.0
  0
LINE
  5
AA
330
1F
100
AcDbEntity
  8
1
  6
Continuous
 62
     3
100
AcDbLine
 10
-84.34782899566241
 20
-9.81720647661125
 30
0.0
 11
-84.34782899566241
 21
-10.50000000000001
 31
0.0
  0
LINE
  5
AB
330
1F
100
AcDbEntity
  8
1
  6
Continuous
 62
     3
100
AcDbLine
 10
-72.368554937884
 20
-9.81720647661125
 30
0.0
 11
-84.34782899566241
 21
-9.81720647661125
 31
0.0
  0
LINE
  5
AC
330
1F
100
AcDbEntity
  8
1
  6
Continuous
 62
     3
100
AcDbLine
 10
-72.368554937884
 20
-10.50000000000001
 30
0.0
 11
-72.368554937884
 21
-9.81720647661125
 31
0.0
  0
LINE
  5
AD
330
1F
100
AcDbEntity
  8
1
  6
Continuous
 62
     3
100
AcDbLine
 10
-72.368554937884
 20
9.81720647661126
 30
0.0
 11
-72.368554937884
 21
10.5
 31
0.0
  0
LINE
  5
AE
330
1F
100
AcDbEntity
  8
1
  6
Continuous
 62
     3
100
AcDbLine
 10
-84.34782899566241
 20
9.81720647661126
 30
0.0
 11
-72.368554937884
 21
9.81720647661126
 31
0.0
  0
LINE
  5
AF
330
1F
100
AcDbEntity
  8
1
  6
Continuous
 62
     3
100
AcDbLine
 10
-84.34782899566241
 20
10.5
 30
0.0
 11
-84.34782899566241
 21
9.81720647661126
 31
0.0
  0
LINE
  5
B0
330
1F
100
AcDbEntity
  8
1
  6
Continuous
 62
     3
100
AcDbLine
 10
-84.34782899566241
 20
-0.68279352338879
 30
0.0
 11
-84.34782899566241
 21
0.68279352338873
 31
0.0
  0
LINE
  5
B1
330
1F
100
AcDbEntity
  8
1
  6
Continuous
 62
     3
100
AcDbLine
 10
-72.368554937884
 20
-0.68279352338864
 30
0.0
 11
-84.34782899566241
 21
-0.68279352338879
 31
0.0
  0
LINE
  5
B2
330
1F
100
AcDbEntity
  8
1
  6
Continuous
 62
     3
100
AcDbLine
 10
-72.368554937884
 20
0.68279352338873
 30
0.0
 11
-72.368554937884
 21
-0.68279352338864
 31
0.0
  0
LINE
  5
B3
330
1F
100
AcDbEntity
  8
1
  6
Continuous
 62
     3
100
AcDbLine
 10
-84.34782899566241
 20
0.68279352338873
 30
0.0
 11
-72.368554937884
 21
0.68279352338873
 31
0.0
  0
LINE
  5
B4
330
1F
100
AcDbEntity
  8
1
  6
Continuous
 62
     3
100
AcDbLine
 10
-85.21385439950481
 20
10.5
 30
0.0
 11
-71.50252953409962
 21
10.5
 31
0.0
  0
LINE
  5
B5
330
1F
100
AcDbEntity
  8
1
  6
Continuous
 62
     3
100
AcDbLine
 10
-71.35819196680222
 20
10.25
 30
0.0
 11
-71.35819196680222
 21
-10.25
 31
0.0
  0
LINE
  5
B6
330
1F
100
AcDbEntity
  8
1
  6
Continuous
 62
     3
100
AcDbLine
 10
-71.50252953409962
 20
10.5
 30
0.0
 11
-71.35819196680222
 21
10.25
 31
0.0
  0
LINE
  5
B7
330
1F
100
AcDbEntity
  8
1
  6
Continuous
 62
     3
100
AcDbLine
 10
-71.50252953409962
 20
-10.5
 30
0.0
 11
-71.35819196680222
 21
-10.25
 31
0.0
  0
LINE
  5
B8
330
1F
100
AcDbEntity
  8
1
  6
Continuous
 62
     3
100
AcDbLine
 10
-71.50252953409962
 20
-10.5
 30
0.0
 11
-85.21385439950481
 21
-10.5
 31
0.0
  0
LINE
  5
B9
330
1F
100
AcDbEntity
  8
1
  6
Continuous
 62
     3
100
AcDbLine
 10
-85.35819196680222
 20
10.25
 30
0.0
 11
-85.21385439950481
 21
10.5
 31
0.0
  0
LINE
  5
BA
330
1F
100
AcDbEntity
  8
1
  6
Continuous
 62
     3
100
AcDbLine
 10
-85.35819196680222
 20
-10.25
 30
0.0
 11
-85.21385439950481
 21
-10.5
 31
0.0
  0
LINE
  5
BB
330
1F
100
AcDbEntity
  8
1
  6
Continuous
 62
     3
100
AcDbLine
 10
-85.35819196680222
 20
-10.25
 30
0.0
 11
-85.35819196680222
 21
10.25
 31
0.0
  0
LINE
  5
BC
330
1F
100
AcDbEntity
  8
1
  6
Continuous
 62
     3
100
AcDbLine
 10
-93.61222527438733
 20
71.69376529062072
 30
0.0
 11
-92.35819196680222
 21
71.69376529062072
 31
0.0
  0
LINE
  5
BD
330
1F
100
AcDbEntity
  8
1
  6
Continuous
 62
     3
100
AcDbLine
 10
-85.35819196662302
 20
68.69376529062072
 30
0.0
 11
-84.35819196662283
 21
68.29353894360446
 31
0.0
  0
LINE
  5
BE
330
1F
100
AcDbEntity
  8
1
  6
Continuous
 62
     3
100
AcDbLine
 10
-85.35819196662302
 20
77.69376529062072
 30
0.0
 11
-85.35819196662302
 21
69.69376529062083
 31
0.0
  0
LINE
  5
BF
330
1F
100
AcDbEntity
  8
1
  6
Continuous
 62
     3
100
AcDbLine
 10
-98.35819196680214
 20
65.69376529062077
 30
0.0
 11
-88.35819196680222
 21
65.69376529062077
 31
0.0
  0
LINE
  5
C0
330
1F
100
AcDbEntity
  8
1
  6
Continuous
 62
     3
100
AcDbLine
 10
-91.35819196680222
 20
72.69376529062072
 30
0.0
 11
-91.35819196680222
 21
76.693765290621
 31
0.0
  0
LINE
  5
C1
330
1F
100
AcDbEntity
  8
1
  6
Continuous
 62
     3
100
AcDbLine
 10
-89.35819196680214
 20
78.693765290621
 30
0.0
 11
-85.35819196662302
 21
78.69376529062085
 31
0.0
  0
LINE
  5
C2
330
1F
100
AcDbEntity
  8
1
  6
Continuous
 62
     3
100
AcDbLine
 10
-85.35819196680221
 20
68.69376529062072
 30
0.0
 11
-85.35819196662302
 21
68.69376529062072
 31
0.0
  0
LINE
  5
C3
330
1F
100
AcDbEntity
  8
1
  6
Continuous
 62
     3
100
AcDbLine
 10
-84.35819196662283
 20
79.09399163763703
 30
0.0
 11
-85.35819196662302
 21
78.69376529062085
 31
0.0
  0
LINE
  5
C4
102
{ACAD_REACTORS
330
37A
102
}
330
1F
100
AcDbEntity
  8
1
  6
Continuous
 62
     3
100
AcDbLine
 10
-61.33166299204451
 20
71.0845620221496
 30
0.0
 11
-60.7281149920445
 21
71.0845620221496
 31
0.0
  0
LINE
  5
C5
102
{ACAD_REACTORS
330
37A
102
}
330
1F
100
AcDbEntity
  8
1
  6
Continuous
 62
     3
100
AcDbLine
 10
-60.7281149920445
 20
72.24456202214961
 30
0.0
 11
-61.33166299204451
 21
71.0845620221496
 31
0.0
  0
LINE
  5
C6
102
{ACAD_REACTORS
330
37A
102
}
330
1F
100
AcDbEntity
  8
1
  6
Continuous
 62
     3
100
AcDbLine
 10
-60.7281149920445
 20
71.0845620221496
 30
0.0
 11
-60.7281149920445
 21
72.24456202214961
 31
0.0
  0
LINE
  5
C7
102
{ACAD_REACTORS
330
37A
102
}
330
1F
100
AcDbEntity
  8
1
  6
Continuous
 62
     3
100
AcDbLine
 10
-60.40528699204451
 20
70.20781783610309
 30
0.0
 11
-60.7281149920445
 21
70.20781783610309
 31
0.0
  0
LINE
  5
C8
102
{ACAD_REACTORS
330
37A
102
}
330
1F
100
AcDbEntity
  8
1
  6
Continuous
 62
     3
100
AcDbLine
 10
-60.40528699204451
 20
70.81479458028915
 30
0.0
 11
-60.40528699204451
 21
70.20781783610309
 31
0.0
  0
LINE
  5
C9
102
{ACAD_REACTORS
330
37A
102
}
330
1F
100
AcDbEntity
  8
1
  6
Continuous
 62
     3
100
AcDbLine
 10
-60.11053099204451
 20
70.81479458028915
 30
0.0
 11
-60.40528699204451
 21
70.81479458028915
 31
0.0
  0
LINE
  5
CA
102
{ACAD_REACTORS
330
37A
102
}
330
1F
100
AcDbEntity
  8
1
  6
Continuous
 62
     3
100
AcDbLine
 10
-60.11053099204451
 20
71.0845620221496
 30
0.0
 11
-60.11053099204451
 21
70.81479458028915
 31
0.0
  0
LINE
  5
CB
102
{ACAD_REACTORS
330
37A
102
}
330
1F
100
AcDbEntity
  8
1
  6
Continuous
 62
     3
100
AcDbLine
 10
-60.40528699204451
 20
71.0845620221496
 30
0.0
 11
-60.11053099204451
 21
71.0845620221496
 31
0.0
  0
LINE
  5
CC
102
{ACAD_REACTORS
330
37A
102
}
330
1F
100
AcDbEntity
  8
1
  6
Continuous
 62
     3
100
AcDbLine
 10
-60.40528699204451
 20
72.79758527796355
 30
0.0
 11
-60.40528699204451
 21
71.0845620221496
 31
0.0
  0
LINE
  5
CD
102
{ACAD_REACTORS
330
37A
102
}
330
1F
100
AcDbEntity
  8
1
  6
Continuous
 62
     3
100
AcDbLine
 10
-60.71407899204451
 20
72.79758527796355
 30
0.0
 11
-60.40528699204451
 21
72.79758527796355
 31
0.0
  0
LINE
  5
CE
102
{ACAD_REACTORS
330
37A
102
}
330
1F
100
AcDbEntity
  8
1
  6
Continuous
 62
     3
100
AcDbLine
 10
-61.6404549920445
 20
71.0845620221496
 30
0.0
 11
-60.71407899204451
 21
72.79758527796355
 31
0.0
  0
LINE
  5
CF
102
{ACAD_REACTORS
330
37A
102
}
330
1F
100
AcDbEntity
  8
1
  6
Continuous
 62
     3
100
AcDbLine
 10
-61.6404549920445
 20
70.81479458028915
 30
0.0
 11
-61.6404549920445
 21
71.0845620221496
 31
0.0
  0
LINE
  5
D0
102
{ACAD_REACTORS
330
37A
102
}
330
1F
100
AcDbEntity
  8
1
  6
Continuous
 62
     3
100
AcDbLine
 10
-60.7281149920445
 20
70.81479458028915
 30
0.0
 11
-61.6404549920445
 21
70.81479458028915
 31
0.0
  0
LINE
  5
D1
102
{ACAD_REACTORS
330
37A
102
}
330
1F
100
AcDbEntity
  8
1
  6
Continuous
 62
     3
100
AcDbLine
 10
-60.7281149920445
 20
70.53153876633564
 30
0.0
 11
-60.7281149920445
 21
70.81479458028915
 31
0.0
  0
LINE
  5
D2
102
{ACAD_REACTORS
330
37A
102
}
330
1F
100
AcDbEntity
  8
1
  6
Continuous
 62
     3
100
AcDbLine
 10
-60.7281149920445
 20
70.20781783610309
 30
0.0
 11
-60.7281149920445
 21
70.53153876633564
 31
0.0
  0
LINE
  5
D3
102
{ACAD_REACTORS
330
37B
102
}
330
1F
100
AcDbEntity
  8
1
  6
Continuous
 62
     3
100
AcDbLine
 10
-64.87936746396684
 20
70.20781783610309
 30
0.0
 11
-65.20219546396685
 21
70.20781783610309
 31
0.0
  0
LINE
  5
D4
102
{ACAD_REACTORS
330
37B
102
}
330
1F
100
AcDbEntity
  8
1
  6
Continuous
 62
     3
100
AcDbLine
 10
-64.87936746396684
 20
72.79758527796355
 30
0.0
 11
-64.87936746396684
 21
70.20781783610309
 31
0.0
  0
LINE
  5
D5
102
{ACAD_REACTORS
330
37B
102
}
330
1F
100
AcDbEntity
  8
1
  6
Continuous
 62
     3
100
AcDbLine
 10
-65.04779946396684
 20
72.79758527796355
 30
0.0
 11
-64.87936746396684
 21
72.79758527796355
 31
0.0
  0
LINE
  5
D6
102
{ACAD_REACTORS
330
37B
102
}
330
1F
100
AcDbEntity
  8
1
  6
Continuous
 62
     3
100
AcDbLine
 10
-65.23026746396684
 20
72.51432946401006
 30
0.0
 11
-65.04779946396684
 21
72.79758527796355
 31
0.0
  0
LINE
  5
D7
102
{ACAD_REACTORS
330
37B
102
}
330
1F
100
AcDbEntity
  8
1
  6
Continuous
 62
     3
100
AcDbLine
 10
-65.60923946396684
 20
72.43339923145193
 30
0.0
 11
-65.23026746396684
 21
72.51432946401006
 31
0.0
  0
LINE
  5
D8
102
{ACAD_REACTORS
330
37B
102
}
330
1F
100
AcDbEntity
  8
1
  6
Continuous
 62
     3
100
AcDbLine
 10
-65.60923946396684
 20
72.25805039424263
 30
0.0
 11
-65.60923946396684
 21
72.43339923145193
 31
0.0
  0
LINE
  5
D9
102
{ACAD_REACTORS
330
37B
102
}
330
1F
100
AcDbEntity
  8
1
  6
Continuous
 62
     3
100
AcDbLine
 10
-65.20219546396685
 20
72.25805039424263
 30
0.0
 11
-65.60923946396684
 21
72.25805039424263
 31
0.0
  0
LINE
  5
DA
102
{ACAD_REACTORS
330
37B
102
}
330
1F
100
AcDbEntity
  8
1
  6
Continuous
 62
     3
100
AcDbLine
 10
-65.20219546396685
 20
71.2599108593589
 30
0.0
 11
-65.20219546396685
 21
72.25805039424263
 31
0.0
  0
LINE
  5
DB
102
{ACAD_REACTORS
330
37B
102
}
330
1F
100
AcDbEntity
  8
1
  6
Continuous
 62
     3
100
AcDbLine
 10
-65.20219546396685
 20
70.20781783610309
 30
0.0
 11
-65.20219546396685
 21
71.2599108593589
 31
0.0
  0
LINE
  5
DC
102
{ACAD_REACTORS
330
37C
102
}
330
1F
100
AcDbEntity
  8
1
  6
Continuous
 62
     3
100
AcDbLine
 10
-63.66504613926463
 20
70.1929612992264
 30
0.0
 11
-63.81700613926464
 21
70.27389153178453
 31
0.0
  0
LINE
  5
DD
102
{ACAD_REACTORS
330
37C
102
}
330
1F
100
AcDbEntity
  8
1
  6
Continuous
 62
     3
100
AcDbLine
 10
-62.36482439477125
 20
72.71203106666825
 30
0.0
 11
-63.66504613926463
 21
70.1929612992264
 31
0.0
  0
LINE
  5
DE
102
{ACAD_REACTORS
330
37C
102
}
330
1F
100
AcDbEntity
  8
1
  6
Continuous
 62
     3
100
AcDbLine
 10
-62.51678439477124
 20
72.79296129922639
 30
0.0
 11
-62.36482439477125
 21
72.71203106666825
 31
0.0
  0
LINE
  5
DF
102
{ACAD_REACTORS
330
37C
102
}
330
1F
100
AcDbEntity
  8
1
  6
Continuous
 62
     3
100
AcDbLine
 10
-63.81700613926464
 20
70.27389153178453
 30
0.0
 11
-62.51678439477124
 21
72.79296129922639
 31
0.0
  0
LINE
  5
E0
330
1F
100
AcDbEntity
  8
1
  6
Continuous
 62
     3
100
AcDbLine
 10
-80.36196441656654
 20
79.69489702562998
 30
0.0
 11
-80.36196441656654
 21
67.69263355561145
 31
0.0
  0
LINE
  5
E1
102
{ACAD_REACTORS
330
386
102
}
330
1F
100
AcDbEntity
  8
1
  6
Continuous
 62
     3
100
AcDbLine
 10
-69.54964539843093
 20
71.2033890657438
 30
0.0
 11
-69.99230961368173
 21
71.3220005847383
 31
0.0
  0
LINE
  5
E2
102
{ACAD_REACTORS
330
386
102
}
330
1F
100
AcDbEntity
  8
1
  6
Continuous
 62
     3
100
AcDbLine
 10
-69.99230961368173
 20
76.06552999650307
 30
0.0
 11
-69.54964539843093
 21
76.18414151549757
 31
0.0
  0
LINE
  5
E3
102
{ACAD_REACTORS
330
386
102
}
330
1F
100
AcDbEntity
  8
1
  6
Continuous
 62
     3
100
AcDbLine
 10
-69.99230961368173
 20
71.3220005847383
 30
0.0
 11
-69.99230961368173
 21
69.88905940826771
 31
0.0
  0
LINE
  5
E4
102
{ACAD_REACTORS
330
386
102
}
330
1F
100
AcDbEntity
  8
1
  6
Continuous
 62
     3
100
AcDbLine
 10
-69.99230961368173
 20
76.06552999650307
 30
0.0
 11
-69.99230961368173
 21
77.49847117297367
 31
0.0
  0
LINE
  5
E5
102
{ACAD_REACTORS
330
388
102
}
330
1F
100
AcDbEntity
  8
1
  6
Continuous
 62
     3
100
AcDbLine
 10
-71.91936843721092
 20
71.05023587885597
 30
0.0
 11
-72.56172137838755
 21
71.05023587885597
 31
0.0
  0
LINE
  5
E6
102
{ACAD_REACTORS
330
388
102
}
330
1F
100
AcDbEntity
  8
1
  6
Continuous
 62
     3
100
AcDbLine
 10
-71.22760373132854
 20
70.06200058473831
 30
0.0
 11
-70.58525079015223
 21
70.06200058473831
 31
0.0
  0
LINE
  5
E7
102
{ACAD_REACTORS
330
388
102
}
330
1F
100
AcDbEntity
  8
1
  6
Continuous
 62
     3
100
AcDbLine
 10
-71.22760373132854
 20
70.35847117297362
 30
0.0
 11
-70.70878020191682
 21
70.35847117297362
 31
0.0
  0
LINE
  5
E8
102
{ACAD_REACTORS
330
388
102
}
330
1F
100
AcDbEntity
  8
1
  6
Continuous
 62
     3
100
AcDbLine
 10
-71.22760373132854
 20
70.35847117297362
 30
0.0
 11
-71.22760373132854
 21
70.06200058473831
 31
0.0
  0
LINE
  5
E9
102
{ACAD_REACTORS
330
388
102
}
330
1F
100
AcDbEntity
  8
1
  6
Continuous
 62
     3
100
AcDbLine
 10
-71.91936843721092
 20
70.75376529062066
 30
0.0
 11
-72.43819196662272
 21
70.75376529062066
 31
0.0
  0
LINE
  5
EA
102
{ACAD_REACTORS
330
388
102
}
330
1F
100
AcDbEntity
  8
1
  6
Continuous
 62
     3
100
AcDbLine
 10
-71.91936843721092
 20
70.75376529062066
 30
0.0
 11
-71.91936843721092
 21
71.05023587885597
 31
0.0
  0
LINE
  5
EB
102
{ACAD_REACTORS
330
388
102
}
330
1F
100
AcDbEntity
  8
1
  6
Continuous
 62
     3
100
AcDbLine
 10
-71.61627792775104
 20
70.18552999650296
 30
0.0
 11
-71.32386699729673
 21
70.69200058473825
 31
0.0
  0
LINE
  5
EC
102
{ACAD_REACTORS
330
388
102
}
330
1F
100
AcDbEntity
  8
1
  6
Continuous
 62
     3
100
AcDbLine
 10
-71.82310517124304
 20
70.42023587885598
 30
0.0
 11
-71.53069424078873
 21
70.92670646709126
 31
0.0
  0
LINE
  5
ED
102
{ACAD_REACTORS
330
387
102
}
330
1F
100
AcDbEntity
  8
1
  6
Continuous
 62
     3
100
AcDbLine
 10
-70.70878020191682
 20
77.02905940826776
 30
0.0
 11
-72.43819196662272
 21
77.02905940826776
 31
0.0
  0
LINE
  5
EE
102
{ACAD_REACTORS
330
387
102
}
330
1F
100
AcDbEntity
  8
1
  6
Continuous
 62
     3
100
AcDbLine
 10
-72.56172137838755
 20
76.90552999650305
 30
0.0
 11
-72.56172137838755
 21
76.75729470238542
 31
0.0
  0
LINE
  5
EF
102
{ACAD_REACTORS
330
387
102
}
330
1F
100
AcDbEntity
  8
1
  6
Continuous
 62
     3
100
AcDbLine
 10
-72.43819196662272
 20
76.63376529062072
 30
0.0
 11
-70.70878020191682
 21
76.63376529062072
 31
0.0
  0
LINE
  5
F0
102
{ACAD_REACTORS
330
387
102
}
330
1F
100
AcDbEntity
  8
1
  6
Continuous
 62
     3
100
AcDbLine
 10
-70.58525079015223
 20
76.75729470238542
 30
0.0
 11
-70.58525079015223
 21
76.90552999650305
 31
0.0
  0
LINE
  5
F1
102
{ACAD_REACTORS
330
387
102
}
330
1F
100
AcDbEntity
  8
1
  6
Continuous
 62
     3
100
AcDbLine
 10
-72.56172137838755
 20
76.33729470238546
 30
0.0
 11
-70.58525079015223
 21
76.33729470238546
 31
0.0
  0
LINE
  5
F2
102
{ACAD_REACTORS
330
387
102
}
330
1F
100
AcDbEntity
  8
1
  6
Continuous
 62
     3
100
AcDbLine
 10
-72.85819196662274
 20
77.02905940826776
 30
0.0
 11
-72.85819196662274
 21
76.63376529062072
 31
0.0
  0
LINE
  5
F3
102
{ACAD_REACTORS
330
387
102
}
330
1F
100
AcDbEntity
  8
1
  6
Continuous
 62
     3
100
AcDbLine
 10
-70.58525079015223
 20
77.32552999650312
 30
0.0
 11
-72.56172137838755
 21
77.32552999650312
 31
0.0
  0
LINE
  5
F4
102
{ACAD_REACTORS
330
387
102
}
330
1F
100
AcDbEntity
  8
1
  6
Continuous
 62
     3
100
AcDbLine
 10
-70.28878020191692
 20
76.63376529062072
 30
0.0
 11
-70.28878020191692
 21
77.02905940826776
 31
0.0
  0
LINE
  5
F5
102
{ACAD_REACTORS
330
388
102
}
330
1F
100
AcDbEntity
  8
1
  6
Continuous
 62
     3
100
AcDbLine
 10
-70.70878020191682
 20
70.75376529062066
 30
0.0
 11
-71.21688738859385
 21
70.75376529062066
 31
0.0
  0
LINE
  5
F6
102
{ACAD_REACTORS
330
388
102
}
330
1F
100
AcDbEntity
  8
1
  6
Continuous
 62
     3
100
AcDbLine
 10
-72.56172137838755
 20
70.63023587885601
 30
0.0
 11
-72.56172137838755
 21
70.48200058473839
 31
0.0
  0
LINE
  5
F7
102
{ACAD_REACTORS
330
388
102
}
330
1F
100
AcDbEntity
  8
1
  6
Continuous
 62
     3
100
AcDbLine
 10
-72.43819196662272
 20
70.35847117297362
 30
0.0
 11
-71.93008477994584
 21
70.35847117297362
 31
0.0
  0
LINE
  5
F8
102
{ACAD_REACTORS
330
388
102
}
330
1F
100
AcDbEntity
  8
1
  6
Continuous
 62
     3
100
AcDbLine
 10
-70.58525079015223
 20
70.48200058473839
 30
0.0
 11
-70.58525079015223
 21
70.63023587885601
 31
0.0
  0
LINE
  5
F9
102
{ACAD_REACTORS
330
388
102
}
330
1F
100
AcDbEntity
  8
1
  6
Continuous
 62
     3
100
AcDbLine
 10
-72.56172137838755
 20
70.06200058473831
 30
0.0
 11
-71.83023714515653
 21
70.06200058473831
 31
0.0
  0
LINE
  5
FA
102
{ACAD_REACTORS
330
388
102
}
330
1F
100
AcDbEntity
  8
1
  6
Continuous
 62
     3
100
AcDbLine
 10
-72.85819196662274
 20
70.75376529062066
 30
0.0
 11
-72.85819196662274
 21
70.35847117297362
 31
0.0
  0
LINE
  5
FB
102
{ACAD_REACTORS
330
388
102
}
330
1F
100
AcDbEntity
  8
1
  6
Continuous
 62
     3
100
AcDbLine
 10
-70.58525079015223
 20
71.05023587885597
 30
0.0
 11
-71.31673502338313
 21
71.05023587885597
 31
0.0
  0
LINE
  5
FC
102
{ACAD_REACTORS
330
388
102
}
330
1F
100
AcDbEntity
  8
1
  6
Continuous
 62
     3
100
AcDbLine
 10
-70.28878020191692
 20
70.35847117297362
 30
0.0
 11
-70.28878020191692
 21
70.75376529062066
 31
0.0
  0
LINE
  5
FD
102
{ACAD_REACTORS
330
37D
102
}
330
1F
100
AcDbEntity
  8
1
  6
Continuous
 62
     3
100
AcDbLine
 10
-50.11647125589124
 20
70.29064029062073
 30
0.0
 11
-50.03897125589123
 21
70.35522362395403
 31
0.0
  0
LINE
  5
FE
102
{ACAD_REACTORS
330
37D
102
}
330
1F
100
AcDbEntity
  8
1
  6
Continuous
 62
     3
100
AcDbLine
 10
-50.24563792255793
 20
70.22605695728737
 30
0.0
 11
-50.11647125589124
 21
70.29064029062073
 31
0.0
  0
LINE
  5
FF
102
{ACAD_REACTORS
330
37D
102
}
330
1F
100
AcDbEntity
  8
1
  6
Continuous
 62
     3
100
AcDbLine
 10
-50.34897125589123
 20
70.19376529062072
 30
0.0
 11
-50.24563792255793
 21
70.22605695728737
 31
0.0
  0
LINE
  5
100
102
{ACAD_REACTORS
330
37D
102
}
330
1F
100
AcDbEntity
  8
1
  6
Continuous
 62
     3
100
AcDbLine
 10
-50.52980458922463
 20
70.19376529062072
 30
0.0
 11
-50.34897125589123
 21
70.19376529062072
 31
0.0
  0
LINE
  5
101
102
{ACAD_REACTORS
330
37D
102
}
330
1F
100
AcDbEntity
  8
1
  6
Continuous
 62
     3
100
AcDbLine
 10
-50.63313792255792
 20
70.22605695728737
 30
0.0
 11
-50.52980458922463
 21
70.19376529062072
 31
0.0
  0
LINE
  5
102
102
{ACAD_REACTORS
330
37D
102
}
330
1F
100
AcDbEntity
  8
1
  6
Continuous
 62
     3
100
AcDbLine
 10
-50.76230458922453
 20
70.29064029062073
 30
0.0
 11
-50.63313792255792
 21
70.22605695728737
 31
0.0
  0
LINE
  5
103
102
{ACAD_REACTORS
330
37D
102
}
330
1F
100
AcDbEntity
  8
1
  6
Continuous
 62
     3
100
AcDbLine
 10
-50.83980458922454
 20
70.35522362395403
 30
0.0
 11
-50.76230458922453
 21
70.29064029062073
 31
0.0
  0
LINE
  5
104
102
{ACAD_REACTORS
330
37D
102
}
330
1F
100
AcDbEntity
  8
1
  6
Continuous
 62
     3
100
AcDbLine
 10
-50.91730458922453
 20
70.45209862395404
 30
0.0
 11
-50.83980458922454
 21
70.35522362395403
 31
0.0
  0
LINE
  5
105
102
{ACAD_REACTORS
330
37D
102
}
330
1F
100
AcDbEntity
  8
1
  6
Continuous
 62
     3
100
AcDbLine
 10
-50.99480458922463
 20
70.5812652906207
 30
0.0
 11
-50.91730458922453
 21
70.45209862395404
 31
0.0
  0
LINE
  5
106
102
{ACAD_REACTORS
330
37D
102
}
330
1F
100
AcDbEntity
  8
1
  6
Continuous
 62
     3
100
AcDbLine
 10
-51.04647125589125
 20
70.71043195728737
 30
0.0
 11
-50.99480458922463
 21
70.5812652906207
 31
0.0
  0
LINE
  5
107
102
{ACAD_REACTORS
330
37D
102
}
330
1F
100
AcDbEntity
  8
1
  6
Continuous
 62
     3
100
AcDbLine
 10
-51.09813792255793
 20
70.87189029062074
 30
0.0
 11
-51.04647125589125
 21
70.71043195728737
 31
0.0
  0
LINE
  5
108
102
{ACAD_REACTORS
330
37D
102
}
330
1F
100
AcDbEntity
  8
1
  6
Continuous
 62
     3
100
AcDbLine
 10
-51.12397125589123
 20
71.0656402906207
 30
0.0
 11
-51.09813792255793
 21
70.87189029062074
 31
0.0
  0
LINE
  5
109
102
{ACAD_REACTORS
330
37D
102
}
330
1F
100
AcDbEntity
  8
1
  6
Continuous
 62
     3
100
AcDbLine
 10
-51.14980458922463
 20
71.35626529062074
 30
0.0
 11
-51.12397125589123
 21
71.0656402906207
 31
0.0
  0
LINE
  5
10A
102
{ACAD_REACTORS
330
37D
102
}
330
1F
100
AcDbEntity
  8
1
  6
Continuous
 62
     3
100
AcDbLine
 10
-51.14980458922463
 20
71.61459862395407
 30
0.0
 11
-51.14980458922463
 21
71.35626529062074
 31
0.0
  0
LINE
  5
10B
102
{ACAD_REACTORS
330
37D
102
}
330
1F
100
AcDbEntity
  8
1
  6
Continuous
 62
     3
100
AcDbLine
 10
-51.12397125589123
 20
71.90522362395404
 30
0.0
 11
-51.14980458922463
 21
71.61459862395407
 31
0.0
  0
LINE
  5
10C
102
{ACAD_REACTORS
330
37D
102
}
330
1F
100
AcDbEntity
  8
1
  6
Continuous
 62
     3
100
AcDbLine
 10
-51.09813792255793
 20
72.09897362395407
 30
0.0
 11
-51.12397125589123
 21
71.90522362395404
 31
0.0
  0
LINE
  5
10D
102
{ACAD_REACTORS
330
37D
102
}
330
1F
100
AcDbEntity
  8
1
  6
Continuous
 62
     3
100
AcDbLine
 10
-51.04647125589125
 20
72.26043195728738
 30
0.0
 11
-51.09813792255793
 21
72.09897362395407
 31
0.0
  0
LINE
  5
10E
102
{ACAD_REACTORS
330
37D
102
}
330
1F
100
AcDbEntity
  8
1
  6
Continuous
 62
     3
100
AcDbLine
 10
-50.99480458922463
 20
72.38959862395404
 30
0.0
 11
-51.04647125589125
 21
72.26043195728738
 31
0.0
  0
LINE
  5
10F
102
{ACAD_REACTORS
330
37D
102
}
330
1F
100
AcDbEntity
  8
1
  6
Continuous
 62
     3
100
AcDbLine
 10
-50.91730458922453
 20
72.5187652906207
 30
0.0
 11
-50.99480458922463
 21
72.38959862395404
 31
0.0
  0
LINE
  5
110
102
{ACAD_REACTORS
330
37D
102
}
330
1F
100
AcDbEntity
  8
1
  6
Continuous
 62
     3
100
AcDbLine
 10
-50.83980458922454
 20
72.61564029062072
 30
0.0
 11
-50.91730458922453
 21
72.5187652906207
 31
0.0
  0
LINE
  5
111
102
{ACAD_REACTORS
330
37D
102
}
330
1F
100
AcDbEntity
  8
1
  6
Continuous
 62
     3
100
AcDbLine
 10
-50.76230458922453
 20
72.68022362395408
 30
0.0
 11
-50.83980458922454
 21
72.61564029062072
 31
0.0
  0
LINE
  5
112
102
{ACAD_REACTORS
330
37D
102
}
330
1F
100
AcDbEntity
  8
1
  6
Continuous
 62
     3
100
AcDbLine
 10
-50.63313792255792
 20
72.74480695728738
 30
0.0
 11
-50.76230458922453
 21
72.68022362395408
 31
0.0
  0
LINE
  5
113
102
{ACAD_REACTORS
330
37D
102
}
330
1F
100
AcDbEntity
  8
1
  6
Continuous
 62
     3
100
AcDbLine
 10
-50.52980458922463
 20
72.77709862395403
 30
0.0
 11
-50.63313792255792
 21
72.74480695728738
 31
0.0
  0
LINE
  5
114
102
{ACAD_REACTORS
330
37D
102
}
330
1F
100
AcDbEntity
  8
1
  6
Continuous
 62
     3
100
AcDbLine
 10
-50.34897125589123
 20
72.77709862395403
 30
0.0
 11
-50.52980458922463
 21
72.77709862395403
 31
0.0
  0
LINE
  5
115
102
{ACAD_REACTORS
330
37D
102
}
330
1F
100
AcDbEntity
  8
1
  6
Continuous
 62
     3
100
AcDbLine
 10
-50.24563792255793
 20
72.74480695728738
 30
0.0
 11
-50.34897125589123
 21
72.77709862395403
 31
0.0
  0
LINE
  5
116
102
{ACAD_REACTORS
330
37D
102
}
330
1F
100
AcDbEntity
  8
1
  6
Continuous
 62
     3
100
AcDbLine
 10
-50.11647125589124
 20
72.68022362395408
 30
0.0
 11
-50.24563792255793
 21
72.74480695728738
 31
0.0
  0
LINE
  5
117
102
{ACAD_REACTORS
330
37D
102
}
330
1F
100
AcDbEntity
  8
1
  6
Continuous
 62
     3
100
AcDbLine
 10
-50.03897125589123
 20
72.61564029062072
 30
0.0
 11
-50.11647125589124
 21
72.68022362395408
 31
0.0
  0
LINE
  5
118
102
{ACAD_REACTORS
330
37D
102
}
330
1F
100
AcDbEntity
  8
1
  6
Continuous
 62
     3
100
AcDbLine
 10
-49.96147125589124
 20
72.5187652906207
 30
0.0
 11
-50.03897125589123
 21
72.61564029062072
 31
0.0
  0
LINE
  5
119
102
{ACAD_REACTORS
330
37D
102
}
330
1F
100
AcDbEntity
  8
1
  6
Continuous
 62
     3
100
AcDbLine
 10
-49.88397125589123
 20
72.38959862395404
 30
0.0
 11
-49.96147125589124
 21
72.5187652906207
 31
0.0
  0
LINE
  5
11A
102
{ACAD_REACTORS
330
37D
102
}
330
1F
100
AcDbEntity
  8
1
  6
Continuous
 62
     3
100
AcDbLine
 10
-49.83230458922463
 20
72.26043195728738
 30
0.0
 11
-49.88397125589123
 21
72.38959862395404
 31
0.0
  0
LINE
  5
11B
102
{ACAD_REACTORS
330
37D
102
}
330
1F
100
AcDbEntity
  8
1
  6
Continuous
 62
     3
100
AcDbLine
 10
-49.78063792255793
 20
72.09897362395407
 30
0.0
 11
-49.83230458922463
 21
72.26043195728738
 31
0.0
  0
LINE
  5
11C
102
{ACAD_REACTORS
330
37D
102
}
330
1F
100
AcDbEntity
  8
1
  6
Continuous
 62
     3
100
AcDbLine
 10
-49.75480458922465
 20
71.90522362395404
 30
0.0
 11
-49.78063792255793
 21
72.09897362395407
 31
0.0
  0
LINE
  5
11D
102
{ACAD_REACTORS
330
37D
102
}
330
1F
100
AcDbEntity
  8
1
  6
Continuous
 62
     3
100
AcDbLine
 10
-49.72897125589122
 20
71.61459862395407
 30
0.0
 11
-49.75480458922465
 21
71.90522362395404
 31
0.0
  0
LINE
  5
11E
102
{ACAD_REACTORS
330
37D
102
}
330
1F
100
AcDbEntity
  8
1
  6
Continuous
 62
     3
100
AcDbLine
 10
-49.72897125589122
 20
71.35626529062074
 30
0.0
 11
-49.72897125589122
 21
71.61459862395407
 31
0.0
  0
LINE
  5
11F
102
{ACAD_REACTORS
330
37D
102
}
330
1F
100
AcDbEntity
  8
1
  6
Continuous
 62
     3
100
AcDbLine
 10
-49.75480458922465
 20
71.0656402906207
 30
0.0
 11
-49.72897125589122
 21
71.35626529062074
 31
0.0
  0
LINE
  5
120
102
{ACAD_REACTORS
330
37D
102
}
330
1F
100
AcDbEntity
  8
1
  6
Continuous
 62
     3
100
AcDbLine
 10
-49.78063792255793
 20
70.87189029062074
 30
0.0
 11
-49.75480458922465
 21
71.0656402906207
 31
0.0
  0
LINE
  5
121
102
{ACAD_REACTORS
330
37D
102
}
330
1F
100
AcDbEntity
  8
1
  6
Continuous
 62
     3
100
AcDbLine
 10
-49.83230458922463
 20
70.71043195728737
 30
0.0
 11
-49.78063792255793
 21
70.87189029062074
 31
0.0
  0
LINE
  5
122
102
{ACAD_REACTORS
330
37D
102
}
330
1F
100
AcDbEntity
  8
1
  6
Continuous
 62
     3
100
AcDbLine
 10
-49.88397125589123
 20
70.5812652906207
 30
0.0
 11
-49.83230458922463
 21
70.71043195728737
 31
0.0
  0
LINE
  5
123
102
{ACAD_REACTORS
330
37D
102
}
330
1F
100
AcDbEntity
  8
1
  6
Continuous
 62
     3
100
AcDbLine
 10
-49.96147125589124
 20
70.45209862395404
 30
0.0
 11
-49.88397125589123
 21
70.5812652906207
 31
0.0
  0
LINE
  5
124
102
{ACAD_REACTORS
330
37D
102
}
330
1F
100
AcDbEntity
  8
1
  6
Continuous
 62
     3
100
AcDbLine
 10
-50.03897125589123
 20
70.35522362395403
 30
0.0
 11
-49.96147125589124
 21
70.45209862395404
 31
0.0
  0
LINE
  5
125
102
{ACAD_REACTORS
330
37D
102
}
330
1F
100
AcDbEntity
  8
1
  6
Continuous
 62
     3
100
AcDbLine
 10
-50.63313792255792
 20
70.5812652906207
 30
0.0
 11
-50.52980458922463
 21
70.5166819572874
 31
0.0
  0
LINE
  5
126
102
{ACAD_REACTORS
330
37D
102
}
330
1F
100
AcDbEntity
  8
1
  6
Continuous
 62
     3
100
AcDbLine
 10
-50.73647125589125
 20
70.67814029062072
 30
0.0
 11
-50.63313792255792
 21
70.5812652906207
 31
0.0
  0
LINE
  5
127
102
{ACAD_REACTORS
330
37D
102
}
330
1F
100
AcDbEntity
  8
1
  6
Continuous
 62
     3
100
AcDbLine
 10
-50.78813792255792
 20
70.77501529062073
 30
0.0
 11
-50.73647125589125
 21
70.67814029062072
 31
0.0
  0
LINE
  5
128
102
{ACAD_REACTORS
330
37D
102
}
330
1F
100
AcDbEntity
  8
1
  6
Continuous
 62
     3
100
AcDbLine
 10
-50.83980458922454
 20
70.93647362395404
 30
0.0
 11
-50.78813792255792
 21
70.77501529062073
 31
0.0
  0
LINE
  5
129
102
{ACAD_REACTORS
330
37D
102
}
330
1F
100
AcDbEntity
  8
1
  6
Continuous
 62
     3
100
AcDbLine
 10
-50.86563792255794
 20
71.29168195728738
 30
0.0
 11
-50.83980458922454
 21
70.93647362395404
 31
0.0
  0
LINE
  5
12A
102
{ACAD_REACTORS
330
37D
102
}
330
1F
100
AcDbEntity
  8
1
  6
Continuous
 62
     3
100
AcDbLine
 10
-50.86563792255794
 20
71.67918195728737
 30
0.0
 11
-50.86563792255794
 21
71.29168195728738
 31
0.0
  0
LINE
  5
12B
102
{ACAD_REACTORS
330
37D
102
}
330
1F
100
AcDbEntity
  8
1
  6
Continuous
 62
     3
100
AcDbLine
 10
-50.83980458922454
 20
72.0343902906207
 30
0.0
 11
-50.86563792255794
 21
71.67918195728737
 31
0.0
  0
LINE
  5
12C
102
{ACAD_REACTORS
330
37D
102
}
330
1F
100
AcDbEntity
  8
1
  6
Continuous
 62
     3
100
AcDbLine
 10
-50.78813792255792
 20
72.19584862395408
 30
0.0
 11
-50.83980458922454
 21
72.0343902906207
 31
0.0
  0
LINE
  5
12D
102
{ACAD_REACTORS
330
37D
102
}
330
1F
100
AcDbEntity
  8
1
  6
Continuous
 62
     3
100
AcDbLine
 10
-50.73647125589125
 20
72.29272362395403
 30
0.0
 11
-50.78813792255792
 21
72.19584862395408
 31
0.0
  0
LINE
  5
12E
102
{ACAD_REACTORS
330
37D
102
}
330
1F
100
AcDbEntity
  8
1
  6
Continuous
 62
     3
100
AcDbLine
 10
-50.63313792255792
 20
72.38959862395404
 30
0.0
 11
-50.73647125589125
 21
72.29272362395403
 31
0.0
  0
LINE
  5
12F
102
{ACAD_REACTORS
330
37D
102
}
330
1F
100
AcDbEntity
  8
1
  6
Continuous
 62
     3
100
AcDbLine
 10
-50.52980458922463
 20
72.4541819572874
 30
0.0
 11
-50.63313792255792
 21
72.38959862395404
 31
0.0
  0
LINE
  5
130
102
{ACAD_REACTORS
330
37D
102
}
330
1F
100
AcDbEntity
  8
1
  6
Continuous
 62
     3
100
AcDbLine
 10
-50.34897125589123
 20
72.4541819572874
 30
0.0
 11
-50.52980458922463
 21
72.4541819572874
 31
0.0
  0
LINE
  5
131
102
{ACAD_REACTORS
330
37D
102
}
330
1F
100
AcDbEntity
  8
1
  6
Continuous
 62
     3
100
AcDbLine
 10
-50.24563792255793
 20
72.38959862395404
 30
0.0
 11
-50.34897125589123
 21
72.4541819572874
 31
0.0
  0
LINE
  5
132
102
{ACAD_REACTORS
330
37D
102
}
330
1F
100
AcDbEntity
  8
1
  6
Continuous
 62
     3
100
AcDbLine
 10
-50.14230458922452
 20
72.29272362395403
 30
0.0
 11
-50.24563792255793
 21
72.38959862395404
 31
0.0
  0
LINE
  5
133
102
{ACAD_REACTORS
330
37D
102
}
330
1F
100
AcDbEntity
  8
1
  6
Continuous
 62
     3
100
AcDbLine
 10
-50.09063792255793
 20
72.19584862395408
 30
0.0
 11
-50.14230458922452
 21
72.29272362395403
 31
0.0
  0
LINE
  5
134
102
{ACAD_REACTORS
330
37D
102
}
330
1F
100
AcDbEntity
  8
1
  6
Continuous
 62
     3
100
AcDbLine
 10
-50.03897125589123
 20
72.0343902906207
 30
0.0
 11
-50.09063792255793
 21
72.19584862395408
 31
0.0
  0
LINE
  5
135
102
{ACAD_REACTORS
330
37D
102
}
330
1F
100
AcDbEntity
  8
1
  6
Continuous
 62
     3
100
AcDbLine
 10
-50.01313792255795
 20
71.67918195728737
 30
0.0
 11
-50.03897125589123
 21
72.0343902906207
 31
0.0
  0
LINE
  5
136
102
{ACAD_REACTORS
330
37D
102
}
330
1F
100
AcDbEntity
  8
1
  6
Continuous
 62
     3
100
AcDbLine
 10
-50.01313792255795
 20
71.29168195728738
 30
0.0
 11
-50.01313792255795
 21
71.67918195728737
 31
0.0
  0
LINE
  5
137
102
{ACAD_REACTORS
330
37D
102
}
330
1F
100
AcDbEntity
  8
1
  6
Continuous
 62
     3
100
AcDbLine
 10
-50.03897125589123
 20
70.93647362395404
 30
0.0
 11
-50.01313792255795
 21
71.29168195728738
 31
0.0
  0
LINE
  5
138
102
{ACAD_REACTORS
330
37D
102
}
330
1F
100
AcDbEntity
  8
1
  6
Continuous
 62
     3
100
AcDbLine
 10
-50.09063792255793
 20
70.77501529062073
 30
0.0
 11
-50.03897125589123
 21
70.93647362395404
 31
0.0
  0
LINE
  5
139
102
{ACAD_REACTORS
330
37D
102
}
330
1F
100
AcDbEntity
  8
1
  6
Continuous
 62
     3
100
AcDbLine
 10
-50.14230458922452
 20
70.67814029062072
 30
0.0
 11
-50.09063792255793
 21
70.77501529062073
 31
0.0
  0
LINE
  5
13A
102
{ACAD_REACTORS
330
37D
102
}
330
1F
100
AcDbEntity
  8
1
  6
Continuous
 62
     3
100
AcDbLine
 10
-50.24563792255793
 20
70.5812652906207
 30
0.0
 11
-50.14230458922452
 21
70.67814029062072
 31
0.0
  0
LINE
  5
13B
102
{ACAD_REACTORS
330
37D
102
}
330
1F
100
AcDbEntity
  8
1
  6
Continuous
 62
     3
100
AcDbLine
 10
-50.34897125589123
 20
70.5166819572874
 30
0.0
 11
-50.24563792255793
 21
70.5812652906207
 31
0.0
  0
LINE
  5
13C
102
{ACAD_REACTORS
330
37D
102
}
330
1F
100
AcDbEntity
  8
1
  6
Continuous
 62
     3
100
AcDbLine
 10
-50.52980458922463
 20
70.5166819572874
 30
0.0
 11
-50.34897125589123
 21
70.5166819572874
 31
0.0
  0
LINE
  5
13D
102
{ACAD_REACTORS
330
37E
102
}
330
1F
100
AcDbEntity
  8
1
  6
Continuous
 62
     3
100
AcDbLine
 10
-51.99369347811344
 20
70.29064029062073
 30
0.0
 11
-51.91619347811343
 21
70.35522362395403
 31
0.0
  0
LINE
  5
13E
102
{ACAD_REACTORS
330
37E
102
}
330
1F
100
AcDbEntity
  8
1
  6
Continuous
 62
     3
100
AcDbLine
 10
-52.12286014478013
 20
70.22605695728737
 30
0.0
 11
-51.99369347811344
 21
70.29064029062073
 31
0.0
  0
LINE
  5
13F
102
{ACAD_REACTORS
330
37E
102
}
330
1F
100
AcDbEntity
  8
1
  6
Continuous
 62
     3
100
AcDbLine
 10
-52.22619347811354
 20
70.19376529062072
 30
0.0
 11
-52.12286014478013
 21
70.22605695728737
 31
0.0
  0
LINE
  5
140
102
{ACAD_REACTORS
330
37E
102
}
330
1F
100
AcDbEntity
  8
1
  6
Continuous
 62
     3
100
AcDbLine
 10
-52.40702681144683
 20
70.19376529062072
 30
0.0
 11
-52.22619347811354
 21
70.19376529062072
 31
0.0
  0
LINE
  5
141
102
{ACAD_REACTORS
330
37E
102
}
330
1F
100
AcDbEntity
  8
1
  6
Continuous
 62
     3
100
AcDbLine
 10
-52.51036014478012
 20
70.22605695728737
 30
0.0
 11
-52.40702681144683
 21
70.19376529062072
 31
0.0
  0
LINE
  5
142
102
{ACAD_REACTORS
330
37E
102
}
330
1F
100
AcDbEntity
  8
1
  6
Continuous
 62
     3
100
AcDbLine
 10
-52.63952681144684
 20
70.29064029062073
 30
0.0
 11
-52.51036014478012
 21
70.22605695728737
 31
0.0
  0
LINE
  5
143
102
{ACAD_REACTORS
330
37E
102
}
330
1F
100
AcDbEntity
  8
1
  6
Continuous
 62
     3
100
AcDbLine
 10
-52.71702681144683
 20
70.35522362395403
 30
0.0
 11
-52.63952681144684
 21
70.29064029062073
 31
0.0
  0
LINE
  5
144
102
{ACAD_REACTORS
330
37E
102
}
330
1F
100
AcDbEntity
  8
1
  6
Continuous
 62
     3
100
AcDbLine
 10
-52.79452681144684
 20
70.45209862395404
 30
0.0
 11
-52.71702681144683
 21
70.35522362395403
 31
0.0
  0
LINE
  5
145
102
{ACAD_REACTORS
330
37E
102
}
330
1F
100
AcDbEntity
  8
1
  6
Continuous
 62
     3
100
AcDbLine
 10
-52.87202681144683
 20
70.5812652906207
 30
0.0
 11
-52.79452681144684
 21
70.45209862395404
 31
0.0
  0
LINE
  5
146
102
{ACAD_REACTORS
330
37E
102
}
330
1F
100
AcDbEntity
  8
1
  6
Continuous
 62
     3
100
AcDbLine
 10
-52.92369347811354
 20
70.71043195728737
 30
0.0
 11
-52.87202681144683
 21
70.5812652906207
 31
0.0
  0
LINE
  5
147
102
{ACAD_REACTORS
330
37E
102
}
330
1F
100
AcDbEntity
  8
1
  6
Continuous
 62
     3
100
AcDbLine
 10
-52.97536014478013
 20
70.87189029062074
 30
0.0
 11
-52.92369347811354
 21
70.71043195728737
 31
0.0
  0
LINE
  5
148
102
{ACAD_REACTORS
330
37E
102
}
330
1F
100
AcDbEntity
  8
1
  6
Continuous
 62
     3
100
AcDbLine
 10
-53.00119347811344
 20
71.0656402906207
 30
0.0
 11
-52.97536014478013
 21
70.87189029062074
 31
0.0
  0
LINE
  5
149
102
{ACAD_REACTORS
330
37E
102
}
330
1F
100
AcDbEntity
  8
1
  6
Continuous
 62
     3
100
AcDbLine
 10
-53.02702681144683
 20
71.35626529062074
 30
0.0
 11
-53.00119347811344
 21
71.0656402906207
 31
0.0
  0
LINE
  5
14A
102
{ACAD_REACTORS
330
37E
102
}
330
1F
100
AcDbEntity
  8
1
  6
Continuous
 62
     3
100
AcDbLine
 10
-53.02702681144683
 20
71.61459862395407
 30
0.0
 11
-53.02702681144683
 21
71.35626529062074
 31
0.0
  0
LINE
  5
14B
102
{ACAD_REACTORS
330
37E
102
}
330
1F
100
AcDbEntity
  8
1
  6
Continuous
 62
     3
100
AcDbLine
 10
-53.00119347811344
 20
71.90522362395404
 30
0.0
 11
-53.02702681144683
 21
71.61459862395407
 31
0.0
  0
LINE
  5
14C
102
{ACAD_REACTORS
330
37E
102
}
330
1F
100
AcDbEntity
  8
1
  6
Continuous
 62
     3
100
AcDbLine
 10
-52.97536014478013
 20
72.09897362395407
 30
0.0
 11
-53.00119347811344
 21
71.90522362395404
 31
0.0
  0
LINE
  5
14D
102
{ACAD_REACTORS
330
37E
102
}
330
1F
100
AcDbEntity
  8
1
  6
Continuous
 62
     3
100
AcDbLine
 10
-52.92369347811354
 20
72.26043195728738
 30
0.0
 11
-52.97536014478013
 21
72.09897362395407
 31
0.0
  0
LINE
  5
14E
102
{ACAD_REACTORS
330
37E
102
}
330
1F
100
AcDbEntity
  8
1
  6
Continuous
 62
     3
100
AcDbLine
 10
-52.87202681144683
 20
72.38959862395404
 30
0.0
 11
-52.92369347811354
 21
72.26043195728738
 31
0.0
  0
LINE
  5
14F
102
{ACAD_REACTORS
330
37E
102
}
330
1F
100
AcDbEntity
  8
1
  6
Continuous
 62
     3
100
AcDbLine
 10
-52.79452681144684
 20
72.5187652906207
 30
0.0
 11
-52.87202681144683
 21
72.38959862395404
 31
0.0
  0
LINE
  5
150
102
{ACAD_REACTORS
330
37E
102
}
330
1F
100
AcDbEntity
  8
1
  6
Continuous
 62
     3
100
AcDbLine
 10
-52.71702681144683
 20
72.61564029062072
 30
0.0
 11
-52.79452681144684
 21
72.5187652906207
 31
0.0
  0
LINE
  5
151
102
{ACAD_REACTORS
330
37E
102
}
330
1F
100
AcDbEntity
  8
1
  6
Continuous
 62
     3
100
AcDbLine
 10
-52.63952681144684
 20
72.68022362395408
 30
0.0
 11
-52.71702681144683
 21
72.61564029062072
 31
0.0
  0
LINE
  5
152
102
{ACAD_REACTORS
330
37E
102
}
330
1F
100
AcDbEntity
  8
1
  6
Continuous
 62
     3
100
AcDbLine
 10
-52.51036014478012
 20
72.74480695728738
 30
0.0
 11
-52.63952681144684
 21
72.68022362395408
 31
0.0
  0
LINE
  5
153
102
{ACAD_REACTORS
330
37E
102
}
330
1F
100
AcDbEntity
  8
1
  6
Continuous
 62
     3
100
AcDbLine
 10
-52.40702681144683
 20
72.77709862395403
 30
0.0
 11
-52.51036014478012
 21
72.74480695728738
 31
0.0
  0
LINE
  5
154
102
{ACAD_REACTORS
330
37E
102
}
330
1F
100
AcDbEntity
  8
1
  6
Continuous
 62
     3
100
AcDbLine
 10
-52.22619347811354
 20
72.77709862395403
 30
0.0
 11
-52.40702681144683
 21
72.77709862395403
 31
0.0
  0
LINE
  5
155
102
{ACAD_REACTORS
330
37E
102
}
330
1F
100
AcDbEntity
  8
1
  6
Continuous
 62
     3
100
AcDbLine
 10
-52.12286014478013
 20
72.74480695728738
 30
0.0
 11
-52.22619347811354
 21
72.77709862395403
 31
0.0
  0
LINE
  5
156
102
{ACAD_REACTORS
330
37E
102
}
330
1F
100
AcDbEntity
  8
1
  6
Continuous
 62
     3
100
AcDbLine
 10
-51.99369347811344
 20
72.68022362395408
 30
0.0
 11
-52.12286014478013
 21
72.74480695728738
 31
0.0
  0
LINE
  5
157
102
{ACAD_REACTORS
330
37E
102
}
330
1F
100
AcDbEntity
  8
1
  6
Continuous
 62
     3
100
AcDbLine
 10
-51.91619347811343
 20
72.61564029062072
 30
0.0
 11
-51.99369347811344
 21
72.68022362395408
 31
0.0
  0
LINE
  5
158
102
{ACAD_REACTORS
330
37E
102
}
330
1F
100
AcDbEntity
  8
1
  6
Continuous
 62
     3
100
AcDbLine
 10
-51.83869347811353
 20
72.5187652906207
 30
0.0
 11
-51.91619347811343
 21
72.61564029062072
 31
0.0
  0
LINE
  5
159
102
{ACAD_REACTORS
330
37E
102
}
330
1F
100
AcDbEntity
  8
1
  6
Continuous
 62
     3
100
AcDbLine
 10
-51.76119347811354
 20
72.38959862395404
 30
0.0
 11
-51.83869347811353
 21
72.5187652906207
 31
0.0
  0
LINE
  5
15A
102
{ACAD_REACTORS
330
37E
102
}
330
1F
100
AcDbEntity
  8
1
  6
Continuous
 62
     3
100
AcDbLine
 10
-51.70952681144692
 20
72.26043195728738
 30
0.0
 11
-51.76119347811354
 21
72.38959862395404
 31
0.0
  0
LINE
  5
15B
102
{ACAD_REACTORS
330
37E
102
}
330
1F
100
AcDbEntity
  8
1
  6
Continuous
 62
     3
100
AcDbLine
 10
-51.65786014478013
 20
72.09897362395407
 30
0.0
 11
-51.70952681144692
 21
72.26043195728738
 31
0.0
  0
LINE
  5
15C
102
{ACAD_REACTORS
330
37E
102
}
330
1F
100
AcDbEntity
  8
1
  6
Continuous
 62
     3
100
AcDbLine
 10
-51.63202681144682
 20
71.90522362395404
 30
0.0
 11
-51.65786014478013
 21
72.09897362395407
 31
0.0
  0
LINE
  5
15D
102
{ACAD_REACTORS
330
37E
102
}
330
1F
100
AcDbEntity
  8
1
  6
Continuous
 62
     3
100
AcDbLine
 10
-51.60619347811354
 20
71.61459862395407
 30
0.0
 11
-51.63202681144682
 21
71.90522362395404
 31
0.0
  0
LINE
  5
15E
102
{ACAD_REACTORS
330
37E
102
}
330
1F
100
AcDbEntity
  8
1
  6
Continuous
 62
     3
100
AcDbLine
 10
-51.60619347811354
 20
71.35626529062074
 30
0.0
 11
-51.60619347811354
 21
71.61459862395407
 31
0.0
  0
LINE
  5
15F
102
{ACAD_REACTORS
330
37E
102
}
330
1F
100
AcDbEntity
  8
1
  6
Continuous
 62
     3
100
AcDbLine
 10
-51.63202681144682
 20
71.0656402906207
 30
0.0
 11
-51.60619347811354
 21
71.35626529062074
 31
0.0
  0
LINE
  5
160
102
{ACAD_REACTORS
330
37E
102
}
330
1F
100
AcDbEntity
  8
1
  6
Continuous
 62
     3
100
AcDbLine
 10
-51.65786014478013
 20
70.87189029062074
 30
0.0
 11
-51.63202681144682
 21
71.0656402906207
 31
0.0
  0
LINE
  5
161
102
{ACAD_REACTORS
330
37E
102
}
330
1F
100
AcDbEntity
  8
1
  6
Continuous
 62
     3
100
AcDbLine
 10
-51.70952681144692
 20
70.71043195728737
 30
0.0
 11
-51.65786014478013
 21
70.87189029062074
 31
0.0
  0
LINE
  5
162
102
{ACAD_REACTORS
330
37E
102
}
330
1F
100
AcDbEntity
  8
1
  6
Continuous
 62
     3
100
AcDbLine
 10
-51.76119347811354
 20
70.5812652906207
 30
0.0
 11
-51.70952681144692
 21
70.71043195728737
 31
0.0
  0
LINE
  5
163
102
{ACAD_REACTORS
330
37E
102
}
330
1F
100
AcDbEntity
  8
1
  6
Continuous
 62
     3
100
AcDbLine
 10
-51.83869347811353
 20
70.45209862395404
 30
0.0
 11
-51.76119347811354
 21
70.5812652906207
 31
0.0
  0
LINE
  5
164
102
{ACAD_REACTORS
330
37E
102
}
330
1F
100
AcDbEntity
  8
1
  6
Continuous
 62
     3
100
AcDbLine
 10
-51.91619347811343
 20
70.35522362395403
 30
0.0
 11
-51.83869347811353
 21
70.45209862395404
 31
0.0
  0
LINE
  5
165
102
{ACAD_REACTORS
330
37E
102
}
330
1F
100
AcDbEntity
  8
1
  6
Continuous
 62
     3
100
AcDbLine
 10
-52.51036014478012
 20
70.5812652906207
 30
0.0
 11
-52.40702681144683
 21
70.5166819572874
 31
0.0
  0
LINE
  5
166
102
{ACAD_REACTORS
330
37E
102
}
330
1F
100
AcDbEntity
  8
1
  6
Continuous
 62
     3
100
AcDbLine
 10
-52.61369347811353
 20
70.67814029062072
 30
0.0
 11
-52.51036014478012
 21
70.5812652906207
 31
0.0
  0
LINE
  5
167
102
{ACAD_REACTORS
330
37E
102
}
330
1F
100
AcDbEntity
  8
1
  6
Continuous
 62
     3
100
AcDbLine
 10
-52.66536014478024
 20
70.77501529062073
 30
0.0
 11
-52.61369347811353
 21
70.67814029062072
 31
0.0
  0
LINE
  5
168
102
{ACAD_REACTORS
330
37E
102
}
330
1F
100
AcDbEntity
  8
1
  6
Continuous
 62
     3
100
AcDbLine
 10
-52.71702681144683
 20
70.93647362395404
 30
0.0
 11
-52.66536014478024
 21
70.77501529062073
 31
0.0
  0
LINE
  5
169
102
{ACAD_REACTORS
330
37E
102
}
330
1F
100
AcDbEntity
  8
1
  6
Continuous
 62
     3
100
AcDbLine
 10
-52.74286014478022
 20
71.29168195728738
 30
0.0
 11
-52.71702681144683
 21
70.93647362395404
 31
0.0
  0
LINE
  5
16A
102
{ACAD_REACTORS
330
37E
102
}
330
1F
100
AcDbEntity
  8
1
  6
Continuous
 62
     3
100
AcDbLine
 10
-52.74286014478022
 20
71.67918195728737
 30
0.0
 11
-52.74286014478022
 21
71.29168195728738
 31
0.0
  0
LINE
  5
16B
102
{ACAD_REACTORS
330
37E
102
}
330
1F
100
AcDbEntity
  8
1
  6
Continuous
 62
     3
100
AcDbLine
 10
-52.71702681144683
 20
72.0343902906207
 30
0.0
 11
-52.74286014478022
 21
71.67918195728737
 31
0.0
  0
LINE
  5
16C
102
{ACAD_REACTORS
330
37E
102
}
330
1F
100
AcDbEntity
  8
1
  6
Continuous
 62
     3
100
AcDbLine
 10
-52.66536014478024
 20
72.19584862395408
 30
0.0
 11
-52.71702681144683
 21
72.0343902906207
 31
0.0
  0
LINE
  5
16D
102
{ACAD_REACTORS
330
37E
102
}
330
1F
100
AcDbEntity
  8
1
  6
Continuous
 62
     3
100
AcDbLine
 10
-52.61369347811353
 20
72.29272362395403
 30
0.0
 11
-52.66536014478024
 21
72.19584862395408
 31
0.0
  0
LINE
  5
16E
102
{ACAD_REACTORS
330
37E
102
}
330
1F
100
AcDbEntity
  8
1
  6
Continuous
 62
     3
100
AcDbLine
 10
-52.51036014478012
 20
72.38959862395404
 30
0.0
 11
-52.61369347811353
 21
72.29272362395403
 31
0.0
  0
LINE
  5
16F
102
{ACAD_REACTORS
330
37E
102
}
330
1F
100
AcDbEntity
  8
1
  6
Continuous
 62
     3
100
AcDbLine
 10
-52.40702681144683
 20
72.4541819572874
 30
0.0
 11
-52.51036014478012
 21
72.38959862395404
 31
0.0
  0
LINE
  5
170
102
{ACAD_REACTORS
330
37E
102
}
330
1F
100
AcDbEntity
  8
1
  6
Continuous
 62
     3
100
AcDbLine
 10
-52.22619347811354
 20
72.4541819572874
 30
0.0
 11
-52.40702681144683
 21
72.4541819572874
 31
0.0
  0
LINE
  5
171
102
{ACAD_REACTORS
330
37E
102
}
330
1F
100
AcDbEntity
  8
1
  6
Continuous
 62
     3
100
AcDbLine
 10
-52.12286014478013
 20
72.38959862395404
 30
0.0
 11
-52.22619347811354
 21
72.4541819572874
 31
0.0
  0
LINE
  5
172
102
{ACAD_REACTORS
330
37E
102
}
330
1F
100
AcDbEntity
  8
1
  6
Continuous
 62
     3
100
AcDbLine
 10
-52.01952681144684
 20
72.29272362395403
 30
0.0
 11
-52.12286014478013
 21
72.38959862395404
 31
0.0
  0
LINE
  5
173
102
{ACAD_REACTORS
330
37E
102
}
330
1F
100
AcDbEntity
  8
1
  6
Continuous
 62
     3
100
AcDbLine
 10
-51.96786014478013
 20
72.19584862395408
 30
0.0
 11
-52.01952681144684
 21
72.29272362395403
 31
0.0
  0
LINE
  5
174
102
{ACAD_REACTORS
330
37E
102
}
330
1F
100
AcDbEntity
  8
1
  6
Continuous
 62
     3
100
AcDbLine
 10
-51.91619347811343
 20
72.0343902906207
 30
0.0
 11
-51.96786014478013
 21
72.19584862395408
 31
0.0
  0
LINE
  5
175
102
{ACAD_REACTORS
330
37E
102
}
330
1F
100
AcDbEntity
  8
1
  6
Continuous
 62
     3
100
AcDbLine
 10
-51.89036014478015
 20
71.67918195728737
 30
0.0
 11
-51.91619347811343
 21
72.0343902906207
 31
0.0
  0
LINE
  5
176
102
{ACAD_REACTORS
330
37E
102
}
330
1F
100
AcDbEntity
  8
1
  6
Continuous
 62
     3
100
AcDbLine
 10
-51.89036014478015
 20
71.29168195728738
 30
0.0
 11
-51.89036014478015
 21
71.67918195728737
 31
0.0
  0
LINE
  5
177
102
{ACAD_REACTORS
330
37E
102
}
330
1F
100
AcDbEntity
  8
1
  6
Continuous
 62
     3
100
AcDbLine
 10
-51.91619347811343
 20
70.93647362395404
 30
0.0
 11
-51.89036014478015
 21
71.29168195728738
 31
0.0
  0
LINE
  5
178
102
{ACAD_REACTORS
330
37E
102
}
330
1F
100
AcDbEntity
  8
1
  6
Continuous
 62
     3
100
AcDbLine
 10
-51.96786014478013
 20
70.77501529062073
 30
0.0
 11
-51.91619347811343
 21
70.93647362395404
 31
0.0
  0
LINE
  5
179
102
{ACAD_REACTORS
330
37E
102
}
330
1F
100
AcDbEntity
  8
1
  6
Continuous
 62
     3
100
AcDbLine
 10
-52.01952681144684
 20
70.67814029062072
 30
0.0
 11
-51.96786014478013
 21
70.77501529062073
 31
0.0
  0
LINE
  5
17A
102
{ACAD_REACTORS
330
37E
102
}
330
1F
100
AcDbEntity
  8
1
  6
Continuous
 62
     3
100
AcDbLine
 10
-52.12286014478013
 20
70.5812652906207
 30
0.0
 11
-52.01952681144684
 21
70.67814029062072
 31
0.0
  0
LINE
  5
17B
102
{ACAD_REACTORS
330
37E
102
}
330
1F
100
AcDbEntity
  8
1
  6
Continuous
 62
     3
100
AcDbLine
 10
-52.22619347811354
 20
70.5166819572874
 30
0.0
 11
-52.12286014478013
 21
70.5812652906207
 31
0.0
  0
LINE
  5
17C
102
{ACAD_REACTORS
330
37E
102
}
330
1F
100
AcDbEntity
  8
1
  6
Continuous
 62
     3
100
AcDbLine
 10
-52.40702681144683
 20
70.5166819572874
 30
0.0
 11
-52.22619347811354
 21
70.5166819572874
 31
0.0
  0
LINE
  5
17D
102
{ACAD_REACTORS
330
37F
102
}
330
1F
100
AcDbEntity
  8
1
  6
Continuous
 62
     3
100
AcDbLine
 10
-54.23258236700244
 20
71.74376529062073
 30
0.0
 11
-54.23258236700244
 21
71.45314029062075
 31
0.0
  0
LINE
  5
17E
102
{ACAD_REACTORS
330
37F
102
}
330
1F
100
AcDbEntity
  8
1
  6
Continuous
 62
     3
100
AcDbLine
 10
-54.12924903366903
 20
71.74376529062073
 30
0.0
 11
-54.23258236700244
 21
71.74376529062073
 31
0.0
  0
LINE
  5
17F
102
{ACAD_REACTORS
330
37F
102
}
330
1F
100
AcDbEntity
  8
1
  6
Continuous
 62
     3
100
AcDbLine
 10
-54.02591570033573
 20
71.77605695728738
 30
0.0
 11
-54.12924903366903
 21
71.74376529062073
 31
0.0
  0
LINE
  5
180
102
{ACAD_REACTORS
330
37F
102
}
330
1F
100
AcDbEntity
  8
1
  6
Continuous
 62
     3
100
AcDbLine
 10
-53.94841570033574
 20
71.84064029062074
 30
0.0
 11
-54.02591570033573
 21
71.77605695728738
 31
0.0
  0
LINE
  5
181
102
{ACAD_REACTORS
330
37F
102
}
330
1F
100
AcDbEntity
  8
1
  6
Continuous
 62
     3
100
AcDbLine
 10
-53.89674903366912
 20
71.93751529062075
 30
0.0
 11
-53.94841570033574
 21
71.84064029062074
 31
0.0
  0
LINE
  5
182
102
{ACAD_REACTORS
330
37F
102
}
330
1F
100
AcDbEntity
  8
1
  6
Continuous
 62
     3
100
AcDbLine
 10
-53.87091570033573
 20
72.0343902906207
 30
0.0
 11
-53.89674903366912
 21
71.93751529062075
 31
0.0
  0
LINE
  5
183
102
{ACAD_REACTORS
330
37F
102
}
330
1F
100
AcDbEntity
  8
1
  6
Continuous
 62
     3
100
AcDbLine
 10
-53.87091570033573
 20
72.16355695728737
 30
0.0
 11
-53.87091570033573
 21
72.0343902906207
 31
0.0
  0
LINE
  5
184
102
{ACAD_REACTORS
330
37F
102
}
330
1F
100
AcDbEntity
  8
1
  6
Continuous
 62
     3
100
AcDbLine
 10
-53.89674903366912
 20
72.26043195728738
 30
0.0
 11
-53.87091570033573
 21
72.16355695728737
 31
0.0
  0
LINE
  5
185
102
{ACAD_REACTORS
330
37F
102
}
330
1F
100
AcDbEntity
  8
1
  6
Continuous
 62
     3
100
AcDbLine
 10
-53.94841570033574
 20
72.35730695728739
 30
0.0
 11
-53.89674903366912
 21
72.26043195728738
 31
0.0
  0
LINE
  5
186
102
{ACAD_REACTORS
330
37F
102
}
330
1F
100
AcDbEntity
  8
1
  6
Continuous
 62
     3
100
AcDbLine
 10
-54.02591570033573
 20
72.42189029062075
 30
0.0
 11
-53.94841570033574
 21
72.35730695728739
 31
0.0
  0
LINE
  5
187
102
{ACAD_REACTORS
330
37F
102
}
330
1F
100
AcDbEntity
  8
1
  6
Continuous
 62
     3
100
AcDbLine
 10
-54.12924903366903
 20
72.4541819572874
 30
0.0
 11
-54.02591570033573
 21
72.42189029062075
 31
0.0
  0
LINE
  5
188
102
{ACAD_REACTORS
330
37F
102
}
330
1F
100
AcDbEntity
  8
1
  6
Continuous
 62
     3
100
AcDbLine
 10
-54.23258236700244
 20
72.4541819572874
 30
0.0
 11
-54.12924903366903
 21
72.4541819572874
 31
0.0
  0
LINE
  5
189
102
{ACAD_REACTORS
330
37F
102
}
330
1F
100
AcDbEntity
  8
1
  6
Continuous
 62
     3
100
AcDbLine
 10
-54.33591570033573
 20
72.42189029062075
 30
0.0
 11
-54.23258236700244
 21
72.4541819572874
 31
0.0
  0
LINE
  5
18A
102
{ACAD_REACTORS
330
37F
102
}
330
1F
100
AcDbEntity
  8
1
  6
Continuous
 62
     3
100
AcDbLine
 10
-54.41341570033575
 20
72.35730695728739
 30
0.0
 11
-54.33591570033573
 21
72.42189029062075
 31
0.0
  0
LINE
  5
18B
102
{ACAD_REACTORS
330
37F
102
}
330
1F
100
AcDbEntity
  8
1
  6
Continuous
 62
     3
100
AcDbLine
 10
-54.46508236700234
 20
72.26043195728738
 30
0.0
 11
-54.41341570033575
 21
72.35730695728739
 31
0.0
  0
LINE
  5
18C
102
{ACAD_REACTORS
330
37F
102
}
330
1F
100
AcDbEntity
  8
1
  6
Continuous
 62
     3
100
AcDbLine
 10
-54.49091570033573
 20
72.16355695728737
 30
0.0
 11
-54.46508236700234
 21
72.26043195728738
 31
0.0
  0
LINE
  5
18D
102
{ACAD_REACTORS
330
37F
102
}
330
1F
100
AcDbEntity
  8
1
  6
Continuous
 62
     3
100
AcDbLine
 10
-54.49091570033573
 20
72.0343902906207
 30
0.0
 11
-54.49091570033573
 21
72.16355695728737
 31
0.0
  0
LINE
  5
18E
102
{ACAD_REACTORS
330
37F
102
}
330
1F
100
AcDbEntity
  8
1
  6
Continuous
 62
     3
100
AcDbLine
 10
-54.77508236700243
 20
72.0343902906207
 30
0.0
 11
-54.49091570033573
 21
72.0343902906207
 31
0.0
  0
LINE
  5
18F
102
{ACAD_REACTORS
330
37F
102
}
330
1F
100
AcDbEntity
  8
1
  6
Continuous
 62
     3
100
AcDbLine
 10
-54.77508236700243
 20
72.16355695728737
 30
0.0
 11
-54.77508236700243
 21
72.0343902906207
 31
0.0
  0
LINE
  5
190
102
{ACAD_REACTORS
330
37F
102
}
330
1F
100
AcDbEntity
  8
1
  6
Continuous
 62
     3
100
AcDbLine
 10
-54.74924903366903
 20
72.32501529062074
 30
0.0
 11
-54.77508236700243
 21
72.16355695728737
 31
0.0
  0
LINE
  5
191
102
{ACAD_REACTORS
330
37F
102
}
330
1F
100
AcDbEntity
  8
1
  6
Continuous
 62
     3
100
AcDbLine
 10
-54.64591570033574
 20
72.5187652906207
 30
0.0
 11
-54.74924903366903
 21
72.32501529062074
 31
0.0
  0
LINE
  5
192
102
{ACAD_REACTORS
330
37F
102
}
330
1F
100
AcDbEntity
  8
1
  6
Continuous
 62
     3
100
AcDbLine
 10
-54.54258236700233
 20
72.64793195728737
 30
0.0
 11
-54.64591570033574
 21
72.5187652906207
 31
0.0
  0
LINE
  5
193
102
{ACAD_REACTORS
330
37F
102
}
330
1F
100
AcDbEntity
  8
1
  6
Continuous
 62
     3
100
AcDbLine
 10
-54.38758236700232
 20
72.74480695728738
 30
0.0
 11
-54.54258236700233
 21
72.64793195728737
 31
0.0
  0
LINE
  5
194
102
{ACAD_REACTORS
330
37F
102
}
330
1F
100
AcDbEntity
  8
1
  6
Continuous
 62
     3
100
AcDbLine
 10
-54.25841570033575
 20
72.77709862395403
 30
0.0
 11
-54.38758236700232
 21
72.74480695728738
 31
0.0
  0
LINE
  5
195
102
{ACAD_REACTORS
330
37F
102
}
330
1F
100
AcDbEntity
  8
1
  6
Continuous
 62
     3
100
AcDbLine
 10
-54.10341570033563
 20
72.77709862395403
 30
0.0
 11
-54.25841570033575
 21
72.77709862395403
 31
0.0
  0
LINE
  5
196
102
{ACAD_REACTORS
330
37F
102
}
330
1F
100
AcDbEntity
  8
1
  6
Continuous
 62
     3
100
AcDbLine
 10
-53.97424903366903
 20
72.74480695728738
 30
0.0
 11
-54.10341570033563
 21
72.77709862395403
 31
0.0
  0
LINE
  5
197
102
{ACAD_REACTORS
330
37F
102
}
330
1F
100
AcDbEntity
  8
1
  6
Continuous
 62
     3
100
AcDbLine
 10
-53.81924903366914
 20
72.64793195728737
 30
0.0
 11
-53.97424903366903
 21
72.74480695728738
 31
0.0
  0
LINE
  5
198
102
{ACAD_REACTORS
330
37F
102
}
330
1F
100
AcDbEntity
  8
1
  6
Continuous
 62
     3
100
AcDbLine
 10
-53.71591570033573
 20
72.5187652906207
 30
0.0
 11
-53.81924903366914
 21
72.64793195728737
 31
0.0
  0
LINE
  5
199
102
{ACAD_REACTORS
330
37F
102
}
330
1F
100
AcDbEntity
  8
1
  6
Continuous
 62
     3
100
AcDbLine
 10
-53.61258236700243
 20
72.32501529062074
 30
0.0
 11
-53.71591570033573
 21
72.5187652906207
 31
0.0
  0
LINE
  5
19A
102
{ACAD_REACTORS
330
37F
102
}
330
1F
100
AcDbEntity
  8
1
  6
Continuous
 62
     3
100
AcDbLine
 10
-53.58674903366904
 20
72.16355695728737
 30
0.0
 11
-53.61258236700243
 21
72.32501529062074
 31
0.0
  0
LINE
  5
19B
102
{ACAD_REACTORS
330
37F
102
}
330
1F
100
AcDbEntity
  8
1
  6
Continuous
 62
     3
100
AcDbLine
 10
-53.58674903366904
 20
72.0343902906207
 30
0.0
 11
-53.58674903366904
 21
72.16355695728737
 31
0.0
  0
LINE
  5
19C
102
{ACAD_REACTORS
330
37F
102
}
330
1F
100
AcDbEntity
  8
1
  6
Continuous
 62
     3
100
AcDbLine
 10
-53.61258236700243
 20
71.87293195728739
 30
0.0
 11
-53.58674903366904
 21
72.0343902906207
 31
0.0
  0
LINE
  5
19D
102
{ACAD_REACTORS
330
37F
102
}
330
1F
100
AcDbEntity
  8
1
  6
Continuous
 62
     3
100
AcDbLine
 10
-53.71591570033573
 20
71.67918195728737
 30
0.0
 11
-53.61258236700243
 21
71.87293195728739
 31
0.0
  0
LINE
  5
19E
102
{ACAD_REACTORS
330
37F
102
}
330
1F
100
AcDbEntity
  8
1
  6
Continuous
 62
     3
100
AcDbLine
 10
-53.76758236700235
 20
71.61459862395407
 30
0.0
 11
-53.71591570033573
 21
71.67918195728737
 31
0.0
  0
LINE
  5
19F
102
{ACAD_REACTORS
330
37F
102
}
330
1F
100
AcDbEntity
  8
1
  6
Continuous
 62
     3
100
AcDbLine
 10
-53.63841570033574
 20
71.4854319572874
 30
0.0
 11
-53.76758236700235
 21
71.61459862395407
 31
0.0
  0
LINE
  5
1A0
102
{ACAD_REACTORS
330
37F
102
}
330
1F
100
AcDbEntity
  8
1
  6
Continuous
 62
     3
100
AcDbLine
 10
-53.53508236700245
 20
71.29168195728738
 30
0.0
 11
-53.63841570033574
 21
71.4854319572874
 31
0.0
  0
LINE
  5
1A1
102
{ACAD_REACTORS
330
37F
102
}
330
1F
100
AcDbEntity
  8
1
  6
Continuous
 62
     3
100
AcDbLine
 10
-53.48341570033563
 20
71.0656402906207
 30
0.0
 11
-53.53508236700245
 21
71.29168195728738
 31
0.0
  0
LINE
  5
1A2
102
{ACAD_REACTORS
330
37F
102
}
330
1F
100
AcDbEntity
  8
1
  6
Continuous
 62
     3
100
AcDbLine
 10
-53.48341570033563
 20
70.90418195728739
 30
0.0
 11
-53.48341570033563
 21
71.0656402906207
 31
0.0
  0
LINE
  5
1A3
102
{ACAD_REACTORS
330
37F
102
}
330
1F
100
AcDbEntity
  8
1
  6
Continuous
 62
     3
100
AcDbLine
 10
-53.53508236700245
 20
70.67814029062072
 30
0.0
 11
-53.48341570033563
 21
70.90418195728739
 31
0.0
  0
LINE
  5
1A4
102
{ACAD_REACTORS
330
37F
102
}
330
1F
100
AcDbEntity
  8
1
  6
Continuous
 62
     3
100
AcDbLine
 10
-53.61258236700243
 20
70.5166819572874
 30
0.0
 11
-53.53508236700245
 21
70.67814029062072
 31
0.0
  0
LINE
  5
1A5
102
{ACAD_REACTORS
330
37F
102
}
330
1F
100
AcDbEntity
  8
1
  6
Continuous
 62
     3
100
AcDbLine
 10
-53.74174903366912
 20
70.35522362395403
 30
0.0
 11
-53.61258236700243
 21
70.5166819572874
 31
0.0
  0
LINE
  5
1A6
102
{ACAD_REACTORS
330
37F
102
}
330
1F
100
AcDbEntity
  8
1
  6
Continuous
 62
     3
100
AcDbLine
 10
-53.89674903366912
 20
70.25834862395408
 30
0.0
 11
-53.74174903366912
 21
70.35522362395403
 31
0.0
  0
LINE
  5
1A7
102
{ACAD_REACTORS
330
37F
102
}
330
1F
100
AcDbEntity
  8
1
  6
Continuous
 62
     3
100
AcDbLine
 10
-54.10341570033563
 20
70.19376529062072
 30
0.0
 11
-53.89674903366912
 21
70.25834862395408
 31
0.0
  0
LINE
  5
1A8
102
{ACAD_REACTORS
330
37F
102
}
330
1F
100
AcDbEntity
  8
1
  6
Continuous
 62
     3
100
AcDbLine
 10
-54.25841570033575
 20
70.19376529062072
 30
0.0
 11
-54.10341570033563
 21
70.19376529062072
 31
0.0
  0
LINE
  5
1A9
102
{ACAD_REACTORS
330
37F
102
}
330
1F
100
AcDbEntity
  8
1
  6
Continuous
 62
     3
100
AcDbLine
 10
-54.46508236700234
 20
70.25834862395408
 30
0.0
 11
-54.25841570033575
 21
70.19376529062072
 31
0.0
  0
LINE
  5
1AA
102
{ACAD_REACTORS
330
37F
102
}
330
1F
100
AcDbEntity
  8
1
  6
Continuous
 62
     3
100
AcDbLine
 10
-54.62008236700234
 20
70.35522362395403
 30
0.0
 11
-54.46508236700234
 21
70.25834862395408
 31
0.0
  0
LINE
  5
1AB
102
{ACAD_REACTORS
330
37F
102
}
330
1F
100
AcDbEntity
  8
1
  6
Continuous
 62
     3
100
AcDbLine
 10
-54.74924903366903
 20
70.5166819572874
 30
0.0
 11
-54.62008236700234
 21
70.35522362395403
 31
0.0
  0
LINE
  5
1AC
102
{ACAD_REACTORS
330
37F
102
}
330
1F
100
AcDbEntity
  8
1
  6
Continuous
 62
     3
100
AcDbLine
 10
-54.82674903366913
 20
70.67814029062072
 30
0.0
 11
-54.74924903366903
 21
70.5166819572874
 31
0.0
  0
LINE
  5
1AD
102
{ACAD_REACTORS
330
37F
102
}
330
1F
100
AcDbEntity
  8
1
  6
Continuous
 62
     3
100
AcDbLine
 10
-54.87841570033572
 20
70.90418195728739
 30
0.0
 11
-54.82674903366913
 21
70.67814029062072
 31
0.0
  0
LINE
  5
1AE
102
{ACAD_REACTORS
330
37F
102
}
330
1F
100
AcDbEntity
  8
1
  6
Continuous
 62
     3
100
AcDbLine
 10
-54.87841570033572
 20
71.0656402906207
 30
0.0
 11
-54.87841570033572
 21
70.90418195728739
 31
0.0
  0
LINE
  5
1AF
102
{ACAD_REACTORS
330
37F
102
}
330
1F
100
AcDbEntity
  8
1
  6
Continuous
 62
     3
100
AcDbLine
 10
-54.56841570033572
 20
71.0656402906207
 30
0.0
 11
-54.87841570033572
 21
71.0656402906207
 31
0.0
  0
LINE
  5
1B0
102
{ACAD_REACTORS
330
37F
102
}
330
1F
100
AcDbEntity
  8
1
  6
Continuous
 62
     3
100
AcDbLine
 10
-54.56841570033572
 20
70.93647362395404
 30
0.0
 11
-54.56841570033572
 21
71.0656402906207
 31
0.0
  0
LINE
  5
1B1
102
{ACAD_REACTORS
330
37F
102
}
330
1F
100
AcDbEntity
  8
1
  6
Continuous
 62
     3
100
AcDbLine
 10
-54.54258236700233
 20
70.80730695728738
 30
0.0
 11
-54.56841570033572
 21
70.93647362395404
 31
0.0
  0
LINE
  5
1B2
102
{ACAD_REACTORS
330
37F
102
}
330
1F
100
AcDbEntity
  8
1
  6
Continuous
 62
     3
100
AcDbLine
 10
-54.46508236700234
 20
70.67814029062072
 30
0.0
 11
-54.54258236700233
 21
70.80730695728738
 31
0.0
  0
LINE
  5
1B3
102
{ACAD_REACTORS
330
37F
102
}
330
1F
100
AcDbEntity
  8
1
  6
Continuous
 62
     3
100
AcDbLine
 10
-54.36174903366913
 20
70.5812652906207
 30
0.0
 11
-54.46508236700234
 21
70.67814029062072
 31
0.0
  0
LINE
  5
1B4
102
{ACAD_REACTORS
330
37F
102
}
330
1F
100
AcDbEntity
  8
1
  6
Continuous
 62
     3
100
AcDbLine
 10
-54.23258236700244
 20
70.54897362395405
 30
0.0
 11
-54.36174903366913
 21
70.5812652906207
 31
0.0
  0
LINE
  5
1B5
102
{ACAD_REACTORS
330
37F
102
}
330
1F
100
AcDbEntity
  8
1
  6
Continuous
 62
     3
100
AcDbLine
 10
-54.12924903366903
 20
70.54897362395405
 30
0.0
 11
-54.23258236700244
 21
70.54897362395405
 31
0.0
  0
LINE
  5
1B6
102
{ACAD_REACTORS
330
37F
102
}
330
1F
100
AcDbEntity
  8
1
  6
Continuous
 62
     3
100
AcDbLine
 10
-54.00008236700242
 20
70.5812652906207
 30
0.0
 11
-54.12924903366903
 21
70.54897362395405
 31
0.0
  0
LINE
  5
1B7
102
{ACAD_REACTORS
330
37F
102
}
330
1F
100
AcDbEntity
  8
1
  6
Continuous
 62
     3
100
AcDbLine
 10
-53.89674903366912
 20
70.67814029062072
 30
0.0
 11
-54.00008236700242
 21
70.5812652906207
 31
0.0
  0
LINE
  5
1B8
102
{ACAD_REACTORS
330
37F
102
}
330
1F
100
AcDbEntity
  8
1
  6
Continuous
 62
     3
100
AcDbLine
 10
-53.81924903366914
 20
70.80730695728738
 30
0.0
 11
-53.89674903366912
 21
70.67814029062072
 31
0.0
  0
LINE
  5
1B9
102
{ACAD_REACTORS
330
37F
102
}
330
1F
100
AcDbEntity
  8
1
  6
Continuous
 62
     3
100
AcDbLine
 10
-53.79341570033574
 20
70.93647362395404
 30
0.0
 11
-53.81924903366914
 21
70.80730695728738
 31
0.0
  0
LINE
  5
1BA
102
{ACAD_REACTORS
330
37F
102
}
330
1F
100
AcDbEntity
  8
1
  6
Continuous
 62
     3
100
AcDbLine
 10
-53.79341570033574
 20
71.0656402906207
 30
0.0
 11
-53.79341570033574
 21
70.93647362395404
 31
0.0
  0
LINE
  5
1BB
102
{ACAD_REACTORS
330
37F
102
}
330
1F
100
AcDbEntity
  8
1
  6
Continuous
 62
     3
100
AcDbLine
 10
-53.81924903366914
 20
71.19480695728737
 30
0.0
 11
-53.79341570033574
 21
71.0656402906207
 31
0.0
  0
LINE
  5
1BC
102
{ACAD_REACTORS
330
37F
102
}
330
1F
100
AcDbEntity
  8
1
  6
Continuous
 62
     3
100
AcDbLine
 10
-53.89674903366912
 20
71.32397362395403
 30
0.0
 11
-53.81924903366914
 21
71.19480695728737
 31
0.0
  0
LINE
  5
1BD
102
{ACAD_REACTORS
330
37F
102
}
330
1F
100
AcDbEntity
  8
1
  6
Continuous
 62
     3
100
AcDbLine
 10
-54.00008236700242
 20
71.42084862395404
 30
0.0
 11
-53.89674903366912
 21
71.32397362395403
 31
0.0
  0
LINE
  5
1BE
102
{ACAD_REACTORS
330
37F
102
}
330
1F
100
AcDbEntity
  8
1
  6
Continuous
 62
     3
100
AcDbLine
 10
-54.12924903366903
 20
71.45314029062075
 30
0.0
 11
-54.00008236700242
 21
71.42084862395404
 31
0.0
  0
LINE
  5
1BF
102
{ACAD_REACTORS
330
37F
102
}
330
1F
100
AcDbEntity
  8
1
  6
Continuous
 62
     3
100
AcDbLine
 10
-54.23258236700244
 20
71.45314029062075
 30
0.0
 11
-54.12924903366903
 21
71.45314029062075
 31
0.0
  0
LINE
  5
1C0
102
{ACAD_REACTORS
330
380
102
}
330
1F
100
AcDbEntity
  8
1
  6
Continuous
 62
     3
100
AcDbLine
 10
-56.92786014478014
 20
71.13022362395407
 30
0.0
 11
-56.92786014478014
 21
71.42084862395404
 31
0.0
  0
LINE
  5
1C1
102
{ACAD_REACTORS
330
380
102
}
330
1F
100
AcDbEntity
  8
1
  6
Continuous
 62
     3
100
AcDbLine
 10
-58.65869347811352
 20
71.13022362395407
 30
0.0
 11
-56.92786014478014
 21
71.13022362395407
 31
0.0
  0
LINE
  5
1C2
102
{ACAD_REACTORS
330
380
102
}
330
1F
100
AcDbEntity
  8
1
  6
Continuous
 62
     3
100
AcDbLine
 10
-58.65869347811352
 20
71.42084862395404
 30
0.0
 11
-58.65869347811352
 21
71.13022362395407
 31
0.0
  0
LINE
  5
1C3
102
{ACAD_REACTORS
330
380
102
}
330
1F
100
AcDbEntity
  8
1
  6
Continuous
 62
     3
100
AcDbLine
 10
-56.92786014478014
 20
71.42084862395404
 30
0.0
 11
-58.65869347811352
 21
71.42084862395404
 31
0.0
  0
LINE
  5
1C4
102
{ACAD_REACTORS
330
381
102
}
330
1F
100
AcDbEntity
  8
1
  6
Continuous
 62
     3
100
AcDbLine
 10
-65.60923946396684
 20
75.40978117286073
 30
0.0
 11
-64.87366416284684
 21
75.40978117286073
 31
0.0
  0
LINE
  5
1C5
102
{ACAD_REACTORS
330
381
102
}
330
1F
100
AcDbEntity
  8
1
  6
Continuous
 62
     3
100
AcDbLine
 10
-64.87366416284684
 20
74.67445073702078
 30
0.0
 11
-64.87366416284684
 21
75.40978117286073
 31
0.0
  0
LINE
  5
1C6
102
{ACAD_REACTORS
330
381
102
}
330
1F
100
AcDbEntity
  8
1
  6
Continuous
 62
     3
100
AcDbLine
 10
-64.87366416284684
 20
74.67445073702078
 30
0.0
 11
-63.55031424361474
 21
74.67445073702078
 31
0.0
  0
LINE
  5
1C7
102
{ACAD_REACTORS
330
381
102
}
330
1F
100
AcDbEntity
  8
1
  6
Continuous
 62
     3
100
AcDbLine
 10
-63.55031424361474
 20
75.40978117286073
 30
0.0
 11
-63.55031424361474
 21
74.67445073702078
 31
0.0
  0
LINE
  5
1C8
102
{ACAD_REACTORS
330
381
102
}
330
1F
100
AcDbEntity
  8
1
  6
Continuous
 62
     3
100
AcDbLine
 10
-63.55031424361474
 20
75.40978117286073
 30
0.0
 11
-62.81473894249473
 21
75.40978117286073
 31
0.0
  0
LINE
  5
1C9
102
{ACAD_REACTORS
330
381
102
}
330
1F
100
AcDbEntity
  8
1
  6
Continuous
 62
     3
100
AcDbLine
 10
-62.81473894249473
 20
75.40978117286073
 30
0.0
 11
-62.81473894249473
 21
73.69376529062077
 31
0.0
  0
LINE
  5
1CA
102
{ACAD_REACTORS
330
381
102
}
330
1F
100
AcDbEntity
  8
1
  6
Continuous
 62
     3
100
AcDbLine
 10
-63.55031424361474
 20
73.69376529062077
 30
0.0
 11
-62.81473894249473
 21
73.69376529062077
 31
0.0
  0
LINE
  5
1CB
102
{ACAD_REACTORS
330
381
102
}
330
1F
100
AcDbEntity
  8
1
  6
Continuous
 62
     3
100
AcDbLine
 10
-63.55031424361474
 20
74.42909572646073
 30
0.0
 11
-63.55031424361474
 21
73.69376529062077
 31
0.0
  0
LINE
  5
1CC
102
{ACAD_REACTORS
330
381
102
}
330
1F
100
AcDbEntity
  8
1
  6
Continuous
 62
     3
100
AcDbLine
 10
-64.87366416284684
 20
74.42909572646073
 30
0.0
 11
-63.55031424361474
 21
74.42909572646073
 31
0.0
  0
LINE
  5
1CD
102
{ACAD_REACTORS
330
381
102
}
330
1F
100
AcDbEntity
  8
1
  6
Continuous
 62
     3
100
AcDbLine
 10
-64.87366416284684
 20
73.69376529062077
 30
0.0
 11
-64.87366416284684
 21
74.42909572646073
 31
0.0
  0
LINE
  5
1CE
102
{ACAD_REACTORS
330
381
102
}
330
1F
100
AcDbEntity
  8
1
  6
Continuous
 62
     3
100
AcDbLine
 10
-65.60923946396684
 20
73.69376529062077
 30
0.0
 11
-64.87366416284684
 21
73.69376529062077
 31
0.0
  0
LINE
  5
1CF
102
{ACAD_REACTORS
330
381
102
}
330
1F
100
AcDbEntity
  8
1
  6
Continuous
 62
     3
100
AcDbLine
 10
-65.60923946396684
 20
75.40978117286073
 30
0.0
 11
-65.60923946396684
 21
73.69376529062077
 31
0.0
  0
LINE
  5
1D0
102
{ACAD_REACTORS
330
382
102
}
330
1F
100
AcDbEntity
  8
1
  6
Continuous
 62
     3
100
AcDbLine
 10
-61.00813685856585
 20
75.40978117286073
 30
0.0
 11
-59.96737082914254
 21
75.40978117286073
 31
0.0
  0
LINE
  5
1D1
102
{ACAD_REACTORS
330
382
102
}
330
1F
100
AcDbEntity
  8
1
  6
Continuous
 62
     3
100
AcDbLine
 10
-59.96737082914254
 20
75.40978117286073
 30
0.0
 11
-58.93776129979864
 21
73.69376529062077
 31
0.0
  0
LINE
  5
1D2
102
{ACAD_REACTORS
330
382
102
}
330
1F
100
AcDbEntity
  8
1
  6
Continuous
 62
     3
100
AcDbLine
 10
-59.82873046346313
 20
73.69376529062077
 30
0.0
 11
-58.93776129979864
 21
73.69376529062077
 31
0.0
  0
LINE
  5
1D3
102
{ACAD_REACTORS
330
382
102
}
330
1F
100
AcDbEntity
  8
1
  6
Continuous
 62
     3
100
AcDbLine
 10
-60.06403620293193
 20
74.0859415230687
 30
0.0
 11
-59.82873046346313
 21
73.69376529062077
 31
0.0
  0
LINE
  5
1D4
102
{ACAD_REACTORS
330
382
102
}
330
1F
100
AcDbEntity
  8
1
  6
Continuous
 62
     3
100
AcDbLine
 10
-61.37632756819673
 20
74.0859415230687
 30
0.0
 11
-60.06403620293193
 21
74.0859415230687
 31
0.0
  0
LINE
  5
1D5
102
{ACAD_REACTORS
330
382
102
}
330
1F
100
AcDbEntity
  8
1
  6
Continuous
 62
     3
100
AcDbLine
 10
-61.63124211928795
 20
73.69376529062077
 30
0.0
 11
-61.37632756819673
 21
74.0859415230687
 31
0.0
  0
LINE
  5
1D6
102
{ACAD_REACTORS
330
382
102
}
330
1F
100
AcDbEntity
  8
1
  6
Continuous
 62
     3
100
AcDbLine
 10
-62.12354718202184
 20
73.69376529062077
 30
0.0
 11
-61.63124211928795
 21
73.69376529062077
 31
0.0
  0
LINE
  5
1D7
102
{ACAD_REACTORS
330
382
102
}
330
1F
100
AcDbEntity
  8
1
  6
Continuous
 62
     3
100
AcDbLine
 10
-62.12354718202184
 20
73.69376529062077
 30
0.0
 11
-61.00813685856585
 21
75.40978117286073
 31
0.0
  0
LINE
  5
1D8
102
{ACAD_REACTORS
330
382
102
}
330
1F
100
AcDbEntity
  8
1
  6
Continuous
 62
     3
100
AcDbLine
 10
-60.69393605825903
 20
75.13577461528058
 30
0.0
 11
-60.18183599183425
 21
74.28227450457274
 31
0.0
  0
LINE
  5
1D9
102
{ACAD_REACTORS
330
382
102
}
330
1F
100
AcDbEntity
  8
1
  6
Continuous
 62
     3
100
AcDbLine
 10
-60.18183599183425
 20
74.28227450457274
 30
0.0
 11
-61.24871113021894
 21
74.28227450457274
 31
0.0
  0
LINE
  5
1DA
102
{ACAD_REACTORS
330
382
102
}
330
1F
100
AcDbEntity
  8
1
  6
Continuous
 62
     3
100
AcDbLine
 10
-61.24871113021894
 20
74.28227450457274
 30
0.0
 11
-60.69393605825903
 21
75.13577461528058
 31
0.0
  0
LINE
  5
1DB
102
{ACAD_REACTORS
330
385
102
}
330
1F
100
AcDbEntity
  8
1
  6
Continuous
 62
     3
100
AcDbLine
 10
-58.30495713462284
 20
75.40978117286073
 30
0.0
 11
-56.99771823831702
 21
75.40978117286073
 31
0.0
  0
LINE
  5
1DC
102
{ACAD_REACTORS
330
385
102
}
330
1F
100
AcDbEntity
  8
1
  6
Continuous
 62
     3
100
AcDbLine
 10
-56.54004165596683
 20
73.94521610933958
 30
0.0
 11
-56.99771823831702
 21
75.40978117286073
 31
0.0
  0
LINE
  5
1DD
102
{ACAD_REACTORS
330
385
102
}
330
1F
100
AcDbEntity
  8
1
  6
Continuous
 62
     3
100
AcDbLine
 10
-56.08236507361644
 20
75.40978117286073
 30
0.0
 11
-56.54004165596683
 21
73.94521610933958
 31
0.0
  0
LINE
  5
1DE
102
{ACAD_REACTORS
330
385
102
}
330
1F
100
AcDbEntity
  8
1
  6
Continuous
 62
     3
100
AcDbLine
 10
-56.08236507361644
 20
75.40978117286073
 30
0.0
 11
-54.77512617731094
 21
75.40978117286073
 31
0.0
  0
LINE
  5
1DF
102
{ACAD_REACTORS
330
385
102
}
330
1F
100
AcDbEntity
  8
1
  6
Continuous
 62
     3
100
AcDbLine
 10
-54.77512617731094
 20
75.40978117286073
 30
0.0
 11
-54.77512617731094
 21
73.69376529062077
 31
0.0
  0
LINE
  5
1E0
102
{ACAD_REACTORS
330
385
102
}
330
1F
100
AcDbEntity
  8
1
  6
Continuous
 62
     3
100
AcDbLine
 10
-55.51070147843083
 20
73.69376529062077
 30
0.0
 11
-54.77512617731094
 21
73.69376529062077
 31
0.0
  0
LINE
  5
1E1
102
{ACAD_REACTORS
330
385
102
}
330
1F
100
AcDbEntity
  8
1
  6
Continuous
 62
     3
100
AcDbLine
 10
-56.21064349132092
 20
73.69376529062077
 30
0.0
 11
-55.70686835951383
 21
75.15471317286074
 31
0.0
  0
LINE
  5
1E2
102
{ACAD_REACTORS
330
385
102
}
330
1F
100
AcDbEntity
  8
1
  6
Continuous
 62
     3
100
AcDbLine
 10
-57.11733466868643
 20
73.69376529062077
 30
0.0
 11
-56.21064349132092
 21
73.69376529062077
 31
0.0
  0
LINE
  5
1E3
102
{ACAD_REACTORS
330
385
102
}
330
1F
100
AcDbEntity
  8
1
  6
Continuous
 62
     3
100
AcDbLine
 10
-57.86351400783875
 20
73.69376529062077
 30
0.0
 11
-57.86351400783875
 21
75.15471317286074
 31
0.0
  0
LINE
  5
1E4
102
{ACAD_REACTORS
330
385
102
}
330
1F
100
AcDbEntity
  8
1
  6
Continuous
 62
     3
100
AcDbLine
 10
-58.30495713462284
 20
73.69376529062077
 30
0.0
 11
-57.86351400783875
 21
73.69376529062077
 31
0.0
  0
LINE
  5
1E5
102
{ACAD_REACTORS
330
385
102
}
330
1F
100
AcDbEntity
  8
1
  6
Continuous
 62
     3
100
AcDbLine
 10
-58.30495713462284
 20
75.40978117286073
 30
0.0
 11
-58.30495713462284
 21
73.69376529062077
 31
0.0
  0
LINE
  5
1E6
102
{ACAD_REACTORS
330
383
102
}
330
1F
100
AcDbEntity
  8
1
  6
Continuous
 62
     3
100
AcDbLine
 10
-54.08393441683782
 20
73.69376529062077
 30
0.0
 11
-52.96852409338183
 21
75.40978117286073
 31
0.0
  0
LINE
  5
1E7
102
{ACAD_REACTORS
330
383
102
}
330
1F
100
AcDbEntity
  8
1
  6
Continuous
 62
     3
100
AcDbLine
 10
-52.96852409338183
 20
75.40978117286073
 30
0.0
 11
-51.92775806395864
 21
75.40978117286073
 31
0.0
  0
LINE
  5
1E8
102
{ACAD_REACTORS
330
383
102
}
330
1F
100
AcDbEntity
  8
1
  6
Continuous
 62
     3
100
AcDbLine
 10
-51.92775806395864
 20
75.40978117286073
 30
0.0
 11
-50.89814853461462
 21
73.69376529062077
 31
0.0
  0
LINE
  5
1E9
102
{ACAD_REACTORS
330
383
102
}
330
1F
100
AcDbEntity
  8
1
  6
Continuous
 62
     3
100
AcDbLine
 10
-51.78911769827894
 20
73.69376529062077
 30
0.0
 11
-50.89814853461462
 21
73.69376529062077
 31
0.0
  0
LINE
  5
1EA
102
{ACAD_REACTORS
330
383
102
}
330
1F
100
AcDbEntity
  8
1
  6
Continuous
 62
     3
100
AcDbLine
 10
-52.02442343774783
 20
74.0859415230687
 30
0.0
 11
-51.78911769827894
 21
73.69376529062077
 31
0.0
  0
LINE
  5
1EB
102
{ACAD_REACTORS
330
383
102
}
330
1F
100
AcDbEntity
  8
1
  6
Continuous
 62
     3
100
AcDbLine
 10
-53.33671480301263
 20
74.0859415230687
 30
0.0
 11
-52.02442343774783
 21
74.0859415230687
 31
0.0
  0
LINE
  5
1EC
102
{ACAD_REACTORS
330
383
102
}
330
1F
100
AcDbEntity
  8
1
  6
Continuous
 62
     3
100
AcDbLine
 10
-53.59162935410384
 20
73.69376529062077
 30
0.0
 11
-53.33671480301263
 21
74.0859415230687
 31
0.0
  0
LINE
  5
1ED
102
{ACAD_REACTORS
330
383
102
}
330
1F
100
AcDbEntity
  8
1
  6
Continuous
 62
     3
100
AcDbLine
 10
-54.08393441683782
 20
73.69376529062077
 30
0.0
 11
-53.59162935410384
 21
73.69376529062077
 31
0.0
  0
LINE
  5
1EE
102
{ACAD_REACTORS
330
383
102
}
330
1F
100
AcDbEntity
  8
1
  6
Continuous
 62
     3
100
AcDbLine
 10
-53.20909836503515
 20
74.28227450457274
 30
0.0
 11
-52.65432329307484
 21
75.13577461528058
 31
0.0
  0
LINE
  5
1EF
102
{ACAD_REACTORS
330
383
102
}
330
1F
100
AcDbEntity
  8
1
  6
Continuous
 62
     3
100
AcDbLine
 10
-52.65432329307484
 20
75.13577461528058
 30
0.0
 11
-52.14222322665015
 21
74.28227450457274
 31
0.0
  0
LINE
  5
1F0
102
{ACAD_REACTORS
330
383
102
}
330
1F
100
AcDbEntity
  8
1
  6
Continuous
 62
     3
100
AcDbLine
 10
-52.14222322665015
 20
74.28227450457274
 30
0.0
 11
-53.20909836503515
 21
74.28227450457274
 31
0.0
  0
LINE
  5
1F1
102
{ACAD_REACTORS
330
384
102
}
330
1F
100
AcDbEntity
  8
1
  6
Continuous
 62
     3
100
AcDbLine
 10
-50.26534436943882
 20
75.0666269694687
 30
0.0
 11
-49.52976906831884
 21
75.0666269694687
 31
0.0
  0
LINE
  5
1F2
102
{ACAD_REACTORS
330
384
102
}
330
1F
100
AcDbEntity
  8
1
  6
Continuous
 62
     3
100
AcDbLine
 10
-49.52976906831884
 20
75.0666269694687
 30
0.0
 11
-49.52976906831884
 21
73.69376529062077
 31
0.0
  0
LINE
  5
1F3
102
{ACAD_REACTORS
330
384
102
}
330
1F
100
AcDbEntity
  8
1
  6
Continuous
 62
     3
100
AcDbLine
 10
-50.26534436943882
 20
73.69376529062077
 30
0.0
 11
-49.52976906831884
 21
73.69376529062077
 31
0.0
  0
LINE
  5
1F4
102
{ACAD_REACTORS
330
384
102
}
330
1F
100
AcDbEntity
  8
1
  6
Continuous
 62
     3
100
AcDbLine
 10
-50.26534436943882
 20
75.0666269694687
 30
0.0
 11
-50.26534436943882
 21
73.69376529062077
 31
0.0
  0
LINE
  5
1F5
102
{ACAD_REACTORS
330
385
102
}
330
1F
100
AcDbEntity
  8
1
  6
Continuous
 62
     3
100
AcDbLine
 10
-57.86351400783875
 20
75.15471317286074
 30
0.0
 11
-57.67148731367402
 21
75.15471317286074
 31
0.0
  0
LINE
  5
1F6
102
{ACAD_REACTORS
330
385
102
}
330
1F
100
AcDbEntity
  8
1
  6
Continuous
 62
     3
100
AcDbLine
 10
-55.70686835951383
 20
75.15471317286074
 30
0.0
 11
-55.51070147843083
 21
75.15471317286074
 31
0.0
  0
LINE
  5
1F7
102
{ACAD_REACTORS
330
385
102
}
330
1F
100
AcDbEntity
  8
1
  6
Continuous
 62
     3
100
AcDbLine
 10
-55.51070147843083
 20
75.15471317286074
 30
0.0
 11
-55.51070147843083
 21
73.69376529062077
 31
0.0
  0
LINE
  5
1F8
102
{ACAD_REACTORS
330
385
102
}
330
1F
100
AcDbEntity
  8
1
  6
Continuous
 62
     3
100
AcDbLine
 10
-57.67148731367402
 20
75.15471317286074
 30
0.0
 11
-57.11733466868643
 21
73.69376529062077
 31
0.0
  0
LINE
  5
1F9
330
1F
100
AcDbEntity
  8
1
  6
Continuous
 62
     3
100
AcDbLine
 10
-82.85819196662274
 20
77.59399163763703
 30
0.0
 11
-82.85819196662274
 21
69.79353894360452
 31
0.0
  0
LINE
  5
1FA
330
1F
100
AcDbEntity
  8
1
  6
Continuous
 62
     3
100
AcDbLine
 10
-84.35819196662283
 20
79.09399163763703
 30
0.0
 11
-84.35819196662283
 21
79.50979784081386
 31
0.0
  0
LINE
  5
1FB
330
1F
100
AcDbEntity
  8
1
  6
Continuous
 62
     3
100
AcDbLine
 10
-43.23448979176283
 20
81.69489702562998
 30
0.0
 11
-48.20893188056883
 21
81.69489702563004
 31
0.0
  0
LINE
  5
1FC
330
1F
100
AcDbEntity
  8
1
  6
Continuous
 62
     3
100
AcDbLine
 10
-43.23318297673083
 20
65.69489702562998
 30
0.0
 11
-48.20893188056883
 21
65.69489702562998
 31
0.0
  0
LINE
  5
1FD
330
1F
100
AcDbEntity
  8
1
  6
Continuous
 62
     3
100
AcDbLine
 10
-76.50745205303554
 20
81.69489702562998
 30
0.0
 11
-80.36038673769383
 21
81.69489702562998
 31
0.0
  0
LINE
  5
1FE
330
1F
100
AcDbEntity
  8
1
  6
Continuous
 62
     3
100
AcDbLine
 10
-83.72582949336945
 20
80.43976700639286
 30
0.0
 11
-80.72802426444053
 21
81.62486619120892
 31
0.0
  0
LINE
  5
1FF
330
1F
100
AcDbEntity
  8
1
  6
Continuous
 62
     3
100
AcDbLine
 10
-80.36038673769383
 20
65.69263355561145
 30
0.0
 11
-76.50745205303554
 21
65.69263355561145
 31
0.0
  0
LINE
  5
200
330
1F
100
AcDbEntity
  8
1
  6
Continuous
 62
     3
100
AcDbLine
 10
-80.72802426444053
 20
65.76266439003251
 30
0.0
 11
-83.72582949336945
 21
66.94776357484858
 31
0.0
  0
LINE
  5
201
330
1F
100
AcDbEntity
  8
1
  6
Continuous
 62
     3
100
AcDbLine
 10
-84.35819196662283
 20
67.87773274042758
 30
0.0
 11
-84.35819196662283
 21
68.29353894360446
 31
0.0
  0
LINE
  5
202
330
1F
100
AcDbEntity
  8
1
  6
Continuous
 62
     3
100
AcDbLine
 10
-101.8425790570542
 20
17.69999999999991
 30
0.0
 11
-99.28104516151751
 21
20.6085078254484
 31
0.0
  0
LINE
  5
203
330
1F
100
AcDbEntity
  8
1
  6
Continuous
 62
     3
100
AcDbLine
 10
-103.9562681781553
 20
17.6999999999999
 30
0.0
 11
-103.9562681781553
 21
20.20000000000107
 31
0.0
  0
LINE
  5
204
330
1F
100
AcDbEntity
  8
1
  6
Continuous
 62
     3
100
AcDbLine
 10
-104.358191966802
 20
17.69999999999989
 30
0.0
 11
-104.358191966802
 21
20.20000000000107
 31
0.0
  0
LINE
  5
205
330
1F
100
AcDbEntity
  8
1
  6
Continuous
 62
     3
100
AcDbLine
 10
-104.358191966802
 20
20.20000000000107
 30
0.0
 11
-103.9562681781553
 21
20.20000000000107
 31
0.0
  0
LINE
  5
206
330
1F
100
AcDbEntity
  8
1
  6
Continuous
 62
     3
100
AcDbLine
 10
-101.3581919668017
 20
21.1999999999989
 30
0.0
 11
-99.35819196680191
 21
21.20000000000034
 31
0.0
  0
LINE
  5
207
330
1F
100
AcDbEntity
  8
1
  6
Continuous
 62
     3
100
AcDbLine
 10
-99.35819196680191
 20
21.20000000000034
 30
0.0
 11
-98.35819196680214
 21
20.20000000000106
 31
0.0
  0
LINE
  5
208
330
1F
100
AcDbEntity
  8
1
  6
Continuous
 62
     3
100
AcDbLine
 10
-103.3581919668019
 20
21.20000000000034
 30
0.0
 11
-101.3581919668017
 21
21.1999999999989
 31
0.0
  0
LINE
  5
209
330
1F
100
AcDbEntity
  8
1
  6
Continuous
 62
     3
100
AcDbLine
 10
-98.35819196680214
 20
20.20000000000106
 30
0.0
 11
-98.35819196680214
 21
17.69999999999993
 31
0.0
  0
LINE
  5
20A
330
1F
100
AcDbEntity
  8
1
  6
Continuous
 62
     3
100
AcDbLine
 10
-104.358191966802
 20
20.20000000000107
 30
0.0
 11
-103.3581919668019
 21
21.20000000000034
 31
0.0
  0
LINE
  5
20B
330
1F
100
AcDbEntity
  8
1
  6
Continuous
 62
     3
100
AcDbLine
 10
-98.76011575544914
 20
20.20000000000107
 30
0.0
 11
-98.76011575544914
 21
17.69999999999993
 31
0.0
  0
LINE
  5
20C
330
1F
100
AcDbEntity
  8
1
  6
Continuous
 62
     3
100
AcDbLine
 10
-98.76011575544914
 20
20.20000000000107
 30
0.0
 11
-98.35819196680214
 21
20.20000000000106
 31
0.0
  0
LINE
  5
20D
330
1F
100
AcDbEntity
  8
1
  6
Continuous
 62
     3
100
AcDbLine
 10
-103.9562681781553
 20
20.20000000000107
 30
0.0
 11
-102.6810676223341
 21
21.19999999999985
 31
0.0
  0
LINE
  5
20E
330
1F
100
AcDbEntity
  8
1
  6
Continuous
 62
     3
100
AcDbLine
 10
-100.0353163112703
 20
21.19999999999985
 30
0.0
 11
-98.76011575544914
 21
20.20000000000107
 31
0.0
  0
LINE
  5
20F
330
1F
100
AcDbEntity
  8
1
  6
Continuous
 62
     3
100
AcDbLine
 10
-103.4353387720869
 20
20.6085078254484
 30
0.0
 11
-100.8738048765502
 21
17.69999999999991
 31
0.0
  0
LINE
  5
210
330
1F
100
AcDbEntity
  8
1
  6
Continuous
 62
     3
100
AcDbLine
 10
-163.0
 20
17.69999999999995
 30
0.0
 11
-166.2
 21
17.69999999999995
 31
0.0
  0
LINE
  5
211
330
1F
100
AcDbEntity
  8
1
  6
Continuous
 62
     3
100
AcDbLine
 10
-163.0
 20
17.69999999999995
 30
0.0
 11
-162.1245048659334
 21
21.2
 31
0.0
  0
LINE
  5
212
330
1F
100
AcDbEntity
  8
1
  6
Continuous
 62
     3
100
AcDbLine
 10
-176.0006170453721
 20
28.69948557506251
 30
0.0
 11
-176.0000000000001
 21
27.5
 31
0.0
  0
LINE
  5
213
330
1F
100
AcDbEntity
  8
1
  6
Continuous
 62
     3
100
AcDbLine
 10
-160.0000000000001
 20
28.69999999999857
 30
0.0
 11
-160.0000000000001
 21
27.5
 31
0.0
  0
LINE
  5
214
330
1F
100
AcDbEntity
  8
1
  6
Continuous
 62
     3
100
AcDbLine
 10
-175.0006171776886
 20
29.6999999999986
 30
0.0
 11
-161.0000000000001
 21
29.6999999999986
 31
0.0
  0
LINE
  5
215
330
1F
100
AcDbEntity
  8
1
  6
Continuous
 62
     3
100
AcDbLine
 10
-160.0000000000001
 20
16.19999999999995
 30
0.0
 11
-160.0000000000001
 21
17.19999999999993
 31
0.0
  0
LINE
  5
216
330
1F
100
AcDbEntity
  8
1
  6
Continuous
 62
     3
100
AcDbLine
 10
-160.5000000000001
 20
17.69999999999995
 30
0.0
 11
-163.0
 21
17.69999999999995
 31
0.0
  0
LINE
  5
217
330
1F
100
AcDbEntity
  8
1
  6
Continuous
 62
     3
100
AcDbLine
 10
-175.9797958971134
 20
27.69999999999998
 30
0.0
 11
-160.0202041028869
 21
27.69999999999998
 31
0.0
  0
LINE
  5
218
330
1F
100
AcDbEntity
  8
1
  6
Continuous
 62
     3
100
AcDbLine
 10
-162.25
 20
17.19999999999997
 30
0.0
 11
-162.25
 21
15.69999999999999
 31
0.0
  0
LINE
  5
219
330
1F
100
AcDbEntity
  8
1
  6
Continuous
 62
     3
100
AcDbLine
 10
-160.0000000000001
 20
16.19999999999995
 30
0.0
 11
-160.0000000000001
 21
15.2
 31
0.0
  0
LINE
  5
21A
330
1F
100
AcDbEntity
  8
1
  6
Continuous
 62
     3
100
AcDbLine
 10
-160.0000000000001
 20
21.7
 30
0.0
 11
-160.0000000000001
 21
27.5
 31
0.0
  0
LINE
  5
21B
330
1F
100
AcDbEntity
  8
1
  6
Continuous
 62
     3
100
AcDbLine
 10
-165.7
 20
21.20000000000002
 30
0.0
 11
-160.5000000000001
 21
21.2
 31
0.0
  0
LINE
  5
21C
330
1F
100
AcDbEntity
  8
1
  6
Continuous
 62
     3
100
AcDbLine
 10
-160.5000000000001
 20
15.7
 30
0.0
 11
-166.2
 21
15.69999999999998
 31
0.0
  0
LINE
  5
21D
330
1F
100
AcDbEntity
  8
1
  6
DOT_CENTER
 62
     4
100
AcDbLine
 10
-168.0
 20
30.6766376744859
 30
0.0
 11
-168.0
 21
-13.00000000000001
 31
0.0
  0
LINE
  5
21E
330
1F
100
AcDbEntity
  8
1
  6
Continuous
 62
     3
100
AcDbLine
 10
-160.0000000000001
 20
7.14359353944927
 30
0.0
 11
-160.0000000000001
 21
15.2
 31
0.0
  0
LINE
  5
21F
330
1F
100
AcDbEntity
  8
1
  6
Continuous
 62
     3
100
AcDbLine
 10
-176.0000000000001
 20
27.5
 30
0.0
 11
-176.0000000000001
 21
7.14359353944888
 31
0.0
  0
LINE
  5
220
330
1F
100
AcDbEntity
  8
1
  6
Continuous
 62
     3
100
AcDbLine
 10
-166.2
 20
18.19999999999995
 30
0.0
 11
-166.1999999999999
 21
20.70000000000002
 31
0.0
  0
LINE
  5
221
330
1F
100
AcDbEntity
  8
1
  6
Continuous
 62
     3
100
AcDbLine
 10
-179.7301446284527
 20
-0.68279352338879
 30
0.0
 11
-174.4563888510205
 21
-9.81720647661129
 31
0.0
  0
LINE
  5
222
330
1F
100
AcDbEntity
  8
1
  6
Continuous
 62
     3
100
AcDbLine
 10
-174.4563888510206
 20
9.81720647661126
 30
0.0
 11
-179.7301446284527
 21
0.68279352338873
 31
0.0
  0
LINE
  5
223
330
1F
100
AcDbEntity
  8
1
  6
Continuous
 62
     3
100
AcDbLine
 10
-162.7262442225677
 20
10.50000000000006
 30
0.0
 11
-173.2737557774323
 21
10.50000000000003
 31
0.0
  0
LINE
  5
224
330
1F
100
AcDbEntity
  8
1
  6
Continuous
 62
     3
100
AcDbLine
 10
-156.2698553715472
 20
0.6827935233888
 30
0.0
 11
-161.5436111489795
 21
9.81720647661129
 31
0.0
  0
LINE
  5
225
330
1F
100
AcDbEntity
  8
1
  6
Continuous
 62
     3
100
AcDbLine
 10
-161.5436111489794
 20
-9.81720647661126
 30
0.0
 11
-156.2698553715472
 21
-0.68279352338874
 31
0.0
  0
LINE
  5
226
330
1F
100
AcDbEntity
  8
1
  6
Continuous
 62
     3
100
AcDbLine
 10
-173.2737557774321
 20
-10.50000000000006
 30
0.0
 11
-162.7262442225677
 21
-10.50000000000006
 31
0.0
  0
LINE
  5
227
330
1F
100
AcDbEntity
  8
1
  6
Continuous
 62
     3
100
AcDbLine
 10
-162.25
 20
17.19999999999997
 30
0.0
 11
-161.0000000000001
 21
17.19999999999999
 31
0.0
  0
LINE
  5
228
330
1F
100
AcDbEntity
  8
1
  6
Continuous
 62
     3
100
AcDbLine
 10
-166.2
 20
17.06602540378446
 30
0.0
 11
-166.2
 21
18.19999999999995
 31
0.0
  0
LINE
  5
229
330
1F
100
AcDbEntity
  8
1
  6
DOT_CENTER
 62
     4
100
AcDbLine
 10
-38.93742629353619
 20
73.69376529062072
 30
0.0
 11
-124.7947568679476
 21
73.69376529062072
 31
0.0
  0
LINE
  5
22A
330
1F
100
AcDbEntity
  8
1
  6
Continuous
 62
     3
100
AcDbLine
 10
-71.35819196680222
 20
65.99116267106703
 30
0.0
 11
-71.35819196680222
 21
63.44376529062072
 31
0.0
  0
LINE
  5
22B
330
1F
100
AcDbEntity
  8
1
  6
Continuous
 62
     3
100
AcDbLine
 10
-84.12626996265622
 20
67.23737643960015
 30
0.0
 11
-84.49216656288615
 21
67.23737643960015
 31
0.0
  0
LINE
  5
22C
330
1F
100
AcDbEntity
  8
1
  6
Continuous
 62
     3
100
AcDbLine
 10
-84.49216656288615
 20
79.0403714743816
 30
0.0
 11
-84.49216656288615
 21
80.15015414164124
 31
0.0
  0
LINE
  5
22D
330
1F
100
AcDbEntity
  8
1
  6
Continuous
 62
     3
100
AcDbLine
 10
-72.22421737058663
 20
61.94376529062072
 30
0.0
 11
-84.49216656288615
 21
61.94376529062072
 31
0.0
  0
LINE
  5
22E
330
1F
100
AcDbEntity
  8
1
  6
Continuous
 62
     3
100
AcDbLine
 10
-84.49216656288615
 20
85.44376529062072
 30
0.0
 11
-72.22421737058663
 21
85.44376529062072
 31
0.0
  0
LINE
  5
22F
330
1F
100
AcDbEntity
  8
1
  6
Continuous
 62
     3
100
AcDbLine
 10
-85.35819196686015
 20
83.94376529062072
 30
0.0
 11
-85.35819196662302
 21
78.69376529062085
 31
0.0
  0
LINE
  5
230
330
1F
100
AcDbEntity
  8
1
  6
Continuous
 62
     3
100
AcDbLine
 10
-72.22421737058663
 20
61.94376529062072
 30
0.0
 11
-71.35819196680222
 21
63.44376529062072
 31
0.0
  0
LINE
  5
231
330
1F
100
AcDbEntity
  8
1
  6
Continuous
 62
     3
100
AcDbLine
 10
-71.35819196680222
 20
83.94376529062072
 30
0.0
 11
-71.35819196680222
 21
81.39636791017446
 31
0.0
  0
LINE
  5
232
330
1F
100
AcDbEntity
  8
1
  6
Continuous
 62
     3
100
AcDbLine
 10
-72.22421737058663
 20
85.44376529062072
 30
0.0
 11
-71.35819196680222
 21
83.94376529062072
 31
0.0
  0
LINE
  5
233
330
1F
100
AcDbEntity
  8
1
  6
Continuous
 62
     3
100
AcDbLine
 10
-84.49216656288615
 20
80.15015414164124
 30
0.0
 11
-84.12626996265622
 21
80.15015414164124
 31
0.0
  0
LINE
  5
234
330
1F
100
AcDbEntity
  8
1
  6
Continuous
 62
     3
100
AcDbLine
 10
-85.35819196667056
 20
83.94376529062072
 30
0.0
 11
-84.49216656288615
 21
85.44376529062072
 31
0.0
  0
LINE
  5
235
330
1F
100
AcDbEntity
  8
1
  6
Continuous
 62
     3
100
AcDbLine
 10
-85.35819196667056
 20
63.44376529062072
 30
0.0
 11
-84.49216656288615
 21
61.94376529062072
 31
0.0
  0
LINE
  5
236
330
1F
100
AcDbEntity
  8
1
  6
Continuous
 62
     3
100
AcDbLine
 10
-84.49216656288615
 20
67.23737643960015
 30
0.0
 11
-84.49216656288615
 21
68.3471591068599
 31
0.0
  0
LINE
  5
237
330
1F
100
AcDbEntity
  8
1
  6
Continuous
 62
     3
100
AcDbLine
 10
-122.1921665630179
 20
67.23737643960015
 30
0.0
 11
-122.1921665630179
 21
68.42000951318853
 31
0.0
  0
LINE
  5
238
330
1F
100
AcDbEntity
  8
1
  6
Continuous
 62
     3
100
AcDbLine
 10
-112.6081919668023
 20
67.23737643960015
 30
0.0
 11
-122.1921665630179
 21
67.23737643960015
 31
0.0
  0
LINE
  5
239
330
1F
100
AcDbEntity
  8
1
  6
Continuous
 62
     3
100
AcDbLine
 10
-112.6081919668023
 20
68.42000951318853
 30
0.0
 11
-112.6081919668023
 21
67.23737643960015
 31
0.0
  0
LINE
  5
23A
330
1F
100
AcDbEntity
  8
1
  6
Continuous
 62
     3
100
AcDbLine
 10
-122.1921665630179
 20
68.42000951318853
 30
0.0
 11
-112.6081919668023
 21
68.42000951318853
 31
0.0
  0
LINE
  5
23B
330
1F
100
AcDbEntity
  8
1
  6
Continuous
 62
     3
100
AcDbLine
 10
-122.1921665630179
 20
78.9675210680529
 30
0.0
 11
-122.1921665630179
 21
80.15015414164124
 31
0.0
  0
LINE
  5
23C
330
1F
100
AcDbEntity
  8
1
  6
Continuous
 62
     3
100
AcDbLine
 10
-112.6081919668023
 20
78.9675210680529
 30
0.0
 11
-122.1921665630179
 21
78.9675210680529
 31
0.0
  0
LINE
  5
23D
330
1F
100
AcDbEntity
  8
1
  6
Continuous
 62
     3
100
AcDbLine
 10
-112.6081919668023
 20
80.15015414164124
 30
0.0
 11
-112.6081919668023
 21
78.9675210680529
 31
0.0
  0
LINE
  5
23E
330
1F
100
AcDbEntity
  8
1
  6
Continuous
 62
     3
100
AcDbLine
 10
-122.1921665630179
 20
80.15015414164124
 30
0.0
 11
-112.6081919668023
 21
80.15015414164124
 31
0.0
  0
LINE
  5
23F
330
1F
100
AcDbEntity
  8
1
  6
Continuous
 62
     3
100
AcDbLine
 10
-122.1921665630179
 20
85.44376529062072
 30
0.0
 11
-113.0224055291753
 21
85.44376529062068
 31
0.0
  0
LINE
  5
240
330
1F
100
AcDbEntity
  8
1
  6
Continuous
 62
     3
100
AcDbLine
 10
-112.3152987479888
 20
85.15087207180724
 30
0.0
 11
-111.6510851856157
 21
84.48665850943416
 31
0.0
  0
LINE
  5
241
330
1F
100
AcDbEntity
  8
1
  6
Continuous
 62
     3
100
AcDbLine
 10
-113.0224055291753
 20
61.94376529062073
 30
0.0
 11
-122.1921665630179
 21
61.94376529062072
 31
0.0
  0
LINE
  5
242
330
1F
100
AcDbEntity
  8
1
  6
Continuous
 62
     3
100
AcDbLine
 10
-122.0478289957205
 20
-9.81720647661125
 30
0.0
 11
-112.8581919668022
 21
-9.81720647661125
 31
0.0
  0
LINE
  5
243
330
1F
100
AcDbEntity
  8
1
  6
Continuous
 62
     3
100
AcDbLine
 10
-122.0478289957205
 20
-9.81720647661125
 30
0.0
 11
-122.0478289957205
 21
-10.5
 31
0.0
  0
LINE
  5
244
330
1F
100
AcDbEntity
  8
1
  6
Continuous
 62
     3
100
AcDbLine
 10
-85.60819196686015
 20
63.19376529062073
 30
0.0
 11
-85.35819196686015
 21
63.44376529062072
 31
0.0
  0
LINE
  5
245
330
1F
100
AcDbEntity
  8
1
  6
Continuous
 62
     3
100
AcDbLine
 10
-85.60819196686015
 20
84.19376529062072
 30
0.0
 11
-85.35819196686015
 21
83.94376529062072
 31
0.0
  0
LINE
  5
246
330
1F
100
AcDbEntity
  8
1
  6
Continuous
 62
     3
100
AcDbLine
 10
-85.60819196686015
 20
84.19376529062072
 30
0.0
 11
-85.60819196686015
 21
78.69376529062085
 31
0.0
  0
LINE
  5
247
330
1F
100
AcDbEntity
  8
1
  6
Continuous
 62
     3
100
AcDbLine
 10
-111.3581919668022
 20
63.19376529062072
 30
0.0
 11
-111.3581919668022
 21
84.19376529062072
 31
0.0
  0
LINE
  5
248
330
1F
100
AcDbEntity
  8
1
  6
Continuous
 62
     3
100
AcDbLine
 10
-85.60819196686015
 20
10.5
 30
0.0
 11
-85.60819196686015
 21
-10.49999999999999
 31
0.0
  0
LINE
  5
249
330
1F
100
AcDbEntity
  8
1
  6
Continuous
 62
     3
100
AcDbLine
 10
-112.8581919668022
 20
10.49999999999999
 30
0.0
 11
-112.8581919668022
 21
9.81720647661129
 31
0.0
  0
LINE
  5
24A
330
1F
100
AcDbEntity
  8
1
  6
Continuous
 62
     3
100
AcDbLine
 10
-102.8581919668023
 20
17.19999999999997
 30
0.0
 11
-99.85819196680222
 21
17.19999999999997
 31
0.0
  0
LINE
  5
24B
330
1F
100
AcDbEntity
  8
1
  6
Continuous
 62
     3
100
AcDbLine
 10
-99.35819196680222
 20
16.70000000000016
 30
0.0
 11
-99.35819196680222
 21
15.70000000000001
 31
0.0
  0
LINE
  5
24C
330
1F
100
AcDbEntity
  8
1
  6
Continuous
 62
     3
100
AcDbLine
 10
-103.3581919668023
 20
15.70000000000001
 30
0.0
 11
-103.3581919668023
 21
16.70000000000016
 31
0.0
  0
LINE
  5
24D
330
1F
100
AcDbEntity
  8
1
  6
Continuous
 62
     3
100
AcDbLine
 10
-93.56332185884025
 20
17.7
 30
0.0
 11
-93.56332185884025
 21
20.70000000000001
 31
0.0
  0
LINE
  5
24E
330
1F
100
AcDbEntity
  8
1
  6
Continuous
 62
     3
100
AcDbLine
 10
-94.06332185884025
 20
21.20000000000001
 30
0.0
 11
-108.6530620747643
 21
21.20000000000001
 31
0.0
  0
LINE
  5
24F
330
1F
100
AcDbEntity
  8
1
  6
Continuous
 62
     3
100
AcDbLine
 10
-108.6530620747643
 20
15.69999999999997
 30
0.0
 11
-105.7724055291755
 21
15.70000000000001
 31
0.0
  0
LINE
  5
250
330
1F
100
AcDbEntity
  8
1
  6
Continuous
 62
     3
100
AcDbLine
 10
-109.1530620747643
 20
20.70000000000001
 30
0.0
 11
-109.1530620747643
 21
16.20000000000001
 31
0.0
  0
LINE
  5
251
330
1F
100
AcDbEntity
  8
1
  6
Continuous
 62
     3
100
AcDbLine
 10
-93.35819196680222
 20
17.69999999999995
 30
0.0
 11
-93.35819196680222
 21
27.19999999999998
 31
0.0
  0
LINE
  5
252
330
1F
100
AcDbEntity
  8
1
  6
Continuous
 62
     3
100
AcDbLine
 10
-122.9138543995049
 20
-10.5
 30
0.0
 11
-85.60819196686015
 21
-10.49999999999999
 31
0.0
  0
LINE
  5
253
330
1F
100
AcDbEntity
  8
1
  6
Continuous
 62
     3
100
AcDbLine
 10
-122.9138543995049
 20
10.5
 30
0.0
 11
-122.0478289957205
 21
10.5
 31
0.0
  0
LINE
  5
254
330
1F
100
AcDbEntity
  8
1
  6
Continuous
 62
     3
100
AcDbLine
 10
-122.0478289957205
 20
10.5
 30
0.0
 11
-110.3581919668022
 21
10.5
 31
0.0
  0
LINE
  5
255
330
1F
100
AcDbEntity
  8
1
  6
Continuous
 62
     3
100
AcDbLine
 10
-122.0478289957205
 20
9.81720647661126
 30
0.0
 11
-112.8581919668022
 21
9.81720647661129
 31
0.0
  0
LINE
  5
256
330
1F
100
AcDbEntity
  8
1
  6
Continuous
 62
     3
100
AcDbLine
 10
-112.8581919668022
 20
-0.68279352338879
 30
0.0
 11
-112.8581919668022
 21
0.68279352338873
 31
0.0
  0
LINE
  5
257
330
1F
100
AcDbEntity
  8
1
  6
Continuous
 62
     3
100
AcDbLine
 10
-111.3581919668022
 20
-10.5
 30
0.0
 11
-111.3581919668022
 21
10.5
 31
0.0
  0
LINE
  5
258
330
1F
100
AcDbEntity
  8
1
  6
Continuous
 62
     3
100
AcDbLine
 10
-112.8581919668022
 20
-9.81720647661125
 30
0.0
 11
-112.8581919668022
 21
-10.5
 31
0.0
  0
LINE
  5
259
330
1F
100
AcDbEntity
  8
1
  6
Continuous
 62
     3
100
AcDbLine
 10
-122.0478289957205
 20
0.68279352338873
 30
0.0
 11
-112.8581919668022
 21
0.68279352338873
 31
0.0
  0
LINE
  5
25A
330
1F
100
AcDbEntity
  8
1
  6
Continuous
 62
     3
100
AcDbLine
 10
-122.0478289957205
 20
-0.68279352338879
 30
0.0
 11
-112.8581919668022
 21
-0.68279352338879
 31
0.0
  0
LINE
  5
25B
330
1F
100
AcDbEntity
  8
1
  6
Continuous
 62
     3
100
AcDbLine
 10
-122.0478289957205
 20
-0.68279352338879
 30
0.0
 11
-122.0478289957205
 21
0.68279352338873
 31
0.0
  0
LINE
  5
25C
330
1F
100
AcDbEntity
  8
1
  6
Continuous
 62
     3
100
AcDbLine
 10
-122.0478289957205
 20
9.81720647661126
 30
0.0
 11
-122.0478289957205
 21
10.5
 31
0.0
  0
LINE
  5
25D
330
1F
100
AcDbEntity
  8
1
  6
DOT_CENTER
 62
     4
100
AcDbLine
 10
-101.3581919668022
 20
28.19999999999998
 30
0.0
 11
-101.3581919668022
 21
-12.5
 31
0.0
  0
LINE
  5
25E
330
1F
100
AcDbEntity
  8
1
  6
DOT_CENTER
 62
     4
100
AcDbLine
 10
-69.55819196691807
 20
0.0
 30
0.0
 11
-125.3194277644869
 21
0.0
 31
0.0
  0
LINE
  5
25F
330
1F
100
AcDbEntity
  8
1
  6
Continuous
 62
     3
100
AcDbLine
 10
-109.3581919668022
 20
27.19999999999998
 30
0.0
 11
-109.3581919668022
 21
11.5
 31
0.0
  0
LINE
  5
260
330
1F
100
AcDbEntity
  8
1
  6
Continuous
 62
     3
100
AcDbLine
 10
-123.0581919668023
 20
-10.25
 30
0.0
 11
-123.0581919668023
 21
10.25
 31
0.0
  0
LINE
  5
261
330
1F
100
AcDbEntity
  8
1
  6
Continuous
 62
     3
100
AcDbLine
 10
-123.0581919668023
 20
10.25
 30
0.0
 11
-122.9138543995049
 21
10.5
 31
0.0
  0
LINE
  5
262
330
1F
100
AcDbEntity
  8
1
  6
Continuous
 62
     3
100
AcDbLine
 10
-123.0581919668023
 20
-10.25
 30
0.0
 11
-122.9138543995049
 21
-10.5
 31
0.0
  0
LINE
  5
263
330
1F
100
AcDbEntity
  8
1
  6
Continuous
 62
     3
100
AcDbLine
 10
-85.60819196686015
 20
10.5
 30
0.0
 11
-85.35819196686015
 21
10.25
 31
0.0
  0
LINE
  5
264
330
1F
100
AcDbEntity
  8
1
  6
Continuous
 62
     3
100
AcDbLine
 10
-85.60819196686015
 20
-10.49999999999999
 30
0.0
 11
-85.35819196686015
 21
-10.25
 31
0.0
  0
LINE
  5
265
330
1F
100
AcDbEntity
  8
1
  6
Continuous
 62
     3
100
AcDbLine
 10
-93.35819196680222
 20
11.5
 30
0.0
 11
-93.35819196680222
 21
15.69999999999995
 31
0.0
  0
LINE
  5
266
330
1F
100
AcDbEntity
  8
1
  6
Continuous
 62
     3
100
AcDbLine
 10
-93.67839606968897
 20
27.69999999999998
 30
0.0
 11
-93.37839606968896
 21
27.40000000000001
 31
0.0
  0
LINE
  5
267
330
1F
100
AcDbEntity
  8
1
  6
Continuous
 62
     3
100
AcDbLine
 10
-109.0379878639155
 20
27.69999999999998
 30
0.0
 11
-93.67839606968897
 21
27.69999999999998
 31
0.0
  0
LINE
  5
268
330
1F
100
AcDbEntity
  8
1
  6
Continuous
 62
     3
100
AcDbLine
 10
-109.3379878639155
 20
27.40000000000001
 30
0.0
 11
-109.0379878639155
 21
27.69999999999998
 31
0.0
  0
LINE
  5
269
330
1F
100
AcDbEntity
  8
1
  6
Continuous
 62
     3
100
AcDbLine
 10
-85.60819196686015
 20
10.5
 30
0.0
 11
-92.35819196680222
 21
10.5
 31
0.0
  0
LINE
  5
26A
330
1F
100
AcDbEntity
  8
1
  6
Continuous
 62
     3
100
AcDbLine
 10
-85.3581919667443
 20
10.25
 30
0.0
 11
-85.35819196686015
 21
-10.25
 31
0.0
  0
LINE
  5
26B
330
1F
100
AcDbEntity
  8
1
  6
DOT_CENTER
 62
     4
100
AcDbLine
 10
-101.3581919668022
 20
85.3092184511591
 30
0.0
 11
-101.3581919668022
 21
61.33999182241962
 31
0.0
  0
LINE
  5
26C
330
1F
100
AcDbEntity
  8
1
  6
Continuous
 62
     3
100
AcDbLine
 10
-123.0581919668023
 20
63.44376529062072
 30
0.0
 11
-122.1921665630179
 21
61.94376529062072
 31
0.0
  0
LINE
  5
26D
330
1F
100
AcDbEntity
  8
1
  6
Continuous
 62
     3
100
AcDbLine
 10
-123.0581919668023
 20
73.69376529062072
 30
0.0
 11
-123.0581919668023
 21
83.94376529062072
 31
0.0
  0
LINE
  5
26E
330
1F
100
AcDbEntity
  8
1
  6
Continuous
 62
     3
100
AcDbLine
 10
-123.0581919668023
 20
63.44376529062072
 30
0.0
 11
-123.0581919668023
 21
73.69376529062072
 31
0.0
  0
LINE
  5
26F
330
1F
100
AcDbEntity
  8
1
  6
Continuous
 62
     3
100
AcDbLine
 10
-123.0581919668023
 20
83.94376529062072
 30
0.0
 11
-122.1921665630179
 21
85.44376529062072
 31
0.0
  0
LINE
  5
270
330
1F
100
AcDbEntity
  8
1
  6
Continuous
 62
     3
100
AcDbLine
 10
-111.6510851856157
 20
62.90087207180726
 30
0.0
 11
-112.3152987479888
 21
62.23665850943417
 31
0.0
  0
LINE
  5
271
330
1F
100
AcDbEntity
  8
1
  6
Continuous
 62
     3
100
AcDbLine
 10
-85.60819196686015
 20
63.19376529062073
 30
0.0
 11
-110.9439784044292
 21
63.19376529062072
 31
0.0
  0
LINE
  5
272
330
1F
100
AcDbEntity
  8
1
  6
Continuous
 62
     3
100
AcDbLine
 10
-110.9439784044292
 20
84.19376529062072
 30
0.0
 11
-85.60819196686015
 21
84.19376529062072
 31
0.0
  0
LINE
  5
273
330
1F
100
AcDbEntity
  8
1
  6
Continuous
 62
     3
100
AcDbLine
 10
-95.60819196680234
 20
17.69999999999998
 30
0.0
 11
-95.60819196680234
 21
21.20000000000001
 31
0.0
  0
LINE
  5
274
330
1F
100
AcDbEntity
  8
1
  6
Continuous
 62
     3
100
AcDbLine
 10
-107.1081919668024
 20
21.20000000000001
 30
0.0
 11
-107.1081919668024
 21
15.70000000000001
 31
0.0
  0
LINE
  5
275
330
1F
100
AcDbEntity
  8
1
  6
Continuous
 62
     3
100
AcDbLine
 10
-85.35819196686015
 20
63.44376529062072
 30
0.0
 11
-85.35819196680221
 21
68.69376529062072
 31
0.0
  0
LINE
  5
276
330
1F
100
AcDbEntity
  8
1
  6
Continuous
 62
     3
100
AcDbLine
 10
-85.60819196686015
 20
68.66201112715761
 30
0.0
 11
-85.60819196686015
 21
63.19376529062073
 31
0.0
  0
LINE
  5
277
330
1F
100
AcDbEntity
  8
1
  6
Continuous
 62
     3
100
AcDbLine
 10
-109.1530620747643
 20
16.69999999999997
 30
0.0
 11
-107.1081919668024
 21
16.69999999999997
 31
0.0
  0
LINE
  5
278
102
{ACAD_REACTORS
330
38A
102
}
330
1F
100
AcDbEntity
  8
1
  6
Continuous
 62
     3
100
AcDbLine
 10
-98.35819196680225
 20
75.69376529062072
 30
0.0
 11
-98.35819196680225
 21
71.69376529062072
 31
0.0
  0
LINE
  5
279
102
{ACAD_REACTORS
330
38A
102
}
330
1F
100
AcDbEntity
  8
1
  6
Continuous
 62
     3
100
AcDbLine
 10
-99.85819196680225
 20
75.69376529062072
 30
0.0
 11
-99.85819196680225
 21
71.69376529062072
 31
0.0
  0
LINE
  5
27A
102
{ACAD_REACTORS
330
38B
102
}
330
1F
100
AcDbEntity
  8
1
  6
Continuous
 62
     3
100
AcDbLine
 10
-100.6081919668023
 20
75.69376529062072
 30
0.0
 11
-100.6081919668023
 21
71.69376529062072
 31
0.0
  0
LINE
  5
27B
102
{ACAD_REACTORS
330
38B
102
}
330
1F
100
AcDbEntity
  8
1
  6
Continuous
 62
     3
100
AcDbLine
 10
-102.1081919668022
 20
75.69376529062072
 30
0.0
 11
-102.1081919668022
 21
71.69376529062072
 31
0.0
  0
LINE
  5
27C
102
{ACAD_REACTORS
330
38C
102
}
330
1F
100
AcDbEntity
  8
1
  6
Continuous
 62
     3
100
AcDbLine
 10
-102.8581919668023
 20
75.69376529062072
 30
0.0
 11
-102.8581919668023
 21
71.69376529062072
 31
0.0
  0
LINE
  5
27D
102
{ACAD_REACTORS
330
38C
102
}
330
1F
100
AcDbEntity
  8
1
  6
Continuous
 62
     3
100
AcDbLine
 10
-104.3581919668021
 20
75.69376529062072
 30
0.0
 11
-104.3581919668021
 21
71.69376529062072
 31
0.0
  0
LINE
  5
27E
102
{ACAD_REACTORS
330
38C
102
}
330
1F
100
AcDbEntity
  8
1
  6
Continuous
 62
     3
100
AcDbLine
 10
-104.3581919668021
 20
75.69376529062072
 30
0.0
 11
-102.8581919668023
 21
75.69376529062072
 31
0.0
  0
LINE
  5
27F
102
{ACAD_REACTORS
330
38B
102
}
330
1F
100
AcDbEntity
  8
1
  6
Continuous
 62
     3
100
AcDbLine
 10
-102.1081919668022
 20
75.69376529062072
 30
0.0
 11
-100.6081919668023
 21
75.69376529062072
 31
0.0
  0
LINE
  5
280
102
{ACAD_REACTORS
330
38A
102
}
330
1F
100
AcDbEntity
  8
1
  6
Continuous
 62
     3
100
AcDbLine
 10
-99.85819196680225
 20
75.69376529062072
 30
0.0
 11
-98.35819196680225
 21
75.69376529062072
 31
0.0
  0
LINE
  5
281
102
{ACAD_REACTORS
330
38C
102
}
330
1F
100
AcDbEntity
  8
1
  6
Continuous
 62
     3
100
AcDbLine
 10
-104.3581919668021
 20
71.69376529062072
 30
0.0
 11
-102.8581919668023
 21
71.69376529062072
 31
0.0
  0
LINE
  5
282
102
{ACAD_REACTORS
330
38B
102
}
330
1F
100
AcDbEntity
  8
1
  6
Continuous
 62
     3
100
AcDbLine
 10
-102.1081919668022
 20
71.69376529062072
 30
0.0
 11
-100.6081919668023
 21
71.69376529062072
 31
0.0
  0
LINE
  5
283
102
{ACAD_REACTORS
330
38A
102
}
330
1F
100
AcDbEntity
  8
1
  6
Continuous
 62
     3
100
AcDbLine
 10
-99.85819196680225
 20
71.69376529062072
 30
0.0
 11
-98.35819196680225
 21
71.69376529062072
 31
0.0
  0
LINE
  5
284
330
1F
100
AcDbEntity
  8
1
  6
Continuous
 62
     3
100
AcDbLine
 10
-91.33819196680226
 20
-22.54048149838889
 30
0.0
 11
-91.33819196680226
 21
-18.84048149838889
 31
0.0
  0
LINE
  5
285
330
1F
100
AcDbEntity
  8
1
  6
Continuous
 62
     3
100
AcDbLine
 10
-91.33819196680226
 20
-18.84048149838889
 30
0.0
 11
-90.13819196680225
 21
-18.84048149838889
 31
0.0
  0
LINE
  5
286
330
1F
100
AcDbEntity
  8
1
  6
Continuous
 62
     3
100
AcDbLine
 10
-90.13819196680225
 20
-18.84048149838889
 30
0.0
 11
-89.73819196680226
 21
-19.04048149838889
 31
0.0
  0
LINE
  5
287
330
1F
100
AcDbEntity
  8
1
  6
Continuous
 62
     3
100
AcDbLine
 10
-89.73819196680226
 20
-19.04048149838889
 30
0.0
 11
-89.57819196680225
 21
-19.74048149838889
 31
0.0
  0
LINE
  5
288
330
1F
100
AcDbEntity
  8
1
  6
Continuous
 62
     3
100
AcDbLine
 10
-89.57819196680225
 20
-19.74048149838889
 30
0.0
 11
-89.73819196680226
 21
-20.24048149838889
 31
0.0
  0
LINE
  5
289
330
1F
100
AcDbEntity
  8
1
  6
Continuous
 62
     3
100
AcDbLine
 10
-89.73819196680226
 20
-20.24048149838889
 30
0.0
 11
-90.13819196680225
 21
-20.64048149838889
 31
0.0
  0
LINE
  5
28A
330
1F
100
AcDbEntity
  8
1
  6
Continuous
 62
     3
100
AcDbLine
 10
-90.13819196680225
 20
-20.64048149838889
 30
0.0
 11
-91.33819196680226
 21
-20.64048149838889
 31
0.0
  0
LINE
  5
28B
330
1F
100
AcDbEntity
  8
1
  6
Continuous
 62
     3
100
AcDbLine
 10
-91.33819196680226
 20
-20.64048149838889
 30
0.0
 11
-90.13819196680225
 21
-20.64048149838889
 31
0.0
  0
LINE
  5
28C
330
1F
100
AcDbEntity
  8
1
  6
Continuous
 62
     3
100
AcDbLine
 10
-90.13819196680225
 20
-20.64048149838889
 30
0.0
 11
-89.57819196680225
 21
-20.94048149838888
 31
0.0
  0
LINE
  5
28D
330
1F
100
AcDbEntity
  8
1
  6
Continuous
 62
     3
100
AcDbLine
 10
-89.57819196680225
 20
-20.94048149838888
 30
0.0
 11
-89.41819196680225
 21
-21.64048149838889
 31
0.0
  0
LINE
  5
28E
330
1F
100
AcDbEntity
  8
1
  6
Continuous
 62
     3
100
AcDbLine
 10
-89.41819196680225
 20
-21.64048149838889
 30
0.0
 11
-89.57819196680225
 21
-22.24048149838889
 31
0.0
  0
LINE
  5
28F
330
1F
100
AcDbEntity
  8
1
  6
Continuous
 62
     3
100
AcDbLine
 10
-89.57819196680225
 20
-22.24048149838889
 30
0.0
 11
-90.13819196680225
 21
-22.54048149838889
 31
0.0
  0
LINE
  5
290
330
1F
100
AcDbEntity
  8
1
  6
Continuous
 62
     3
100
AcDbLine
 10
-90.13819196680225
 20
-22.54048149838889
 30
0.0
 11
-91.33819196680226
 21
-22.54048149838889
 31
0.0
  0
LINE
  5
291
330
1F
100
AcDbEntity
  8
1
  6
Continuous
 62
     3
100
AcDbLine
 10
-87.57819196680225
 20
-22.54048149838889
 30
0.0
 11
-87.57819196680225
 21
-18.84048149838889
 31
0.0
  0
LINE
  5
292
330
1F
100
AcDbEntity
  8
1
  6
Continuous
 62
     3
100
AcDbLine
 10
-87.57819196680225
 20
-18.84048149838889
 30
0.0
 11
-86.37819196680225
 21
-18.84048149838889
 31
0.0
  0
LINE
  5
293
330
1F
100
AcDbEntity
  8
1
  6
Continuous
 62
     3
100
AcDbLine
 10
-86.37819196680225
 20
-18.84048149838889
 30
0.0
 11
-85.97819196680226
 21
-19.04048149838889
 31
0.0
  0
LINE
  5
294
330
1F
100
AcDbEntity
  8
1
  6
Continuous
 62
     3
100
AcDbLine
 10
-85.97819196680226
 20
-19.04048149838889
 30
0.0
 11
-85.81819196680225
 21
-19.74048149838889
 31
0.0
  0
LINE
  5
295
330
1F
100
AcDbEntity
  8
1
  6
Continuous
 62
     3
100
AcDbLine
 10
-85.81819196680225
 20
-19.74048149838889
 30
0.0
 11
-85.97819196680226
 21
-20.24048149838889
 31
0.0
  0
LINE
  5
296
330
1F
100
AcDbEntity
  8
1
  6
Continuous
 62
     3
100
AcDbLine
 10
-85.97819196680226
 20
-20.24048149838889
 30
0.0
 11
-86.37819196680225
 21
-20.64048149838889
 31
0.0
  0
LINE
  5
297
330
1F
100
AcDbEntity
  8
1
  6
Continuous
 62
     3
100
AcDbLine
 10
-86.37819196680225
 20
-20.64048149838889
 30
0.0
 11
-87.57819196680225
 21
-20.64048149838889
 31
0.0
  0
LINE
  5
298
330
1F
100
AcDbEntity
  8
1
  6
Continuous
 62
     3
100
AcDbLine
 10
-87.57819196680225
 20
-20.64048149838889
 30
0.0
 11
-86.37819196680225
 21
-20.64048149838889
 31
0.0
  0
LINE
  5
299
330
1F
100
AcDbEntity
  8
1
  6
Continuous
 62
     3
100
AcDbLine
 10
-86.37819196680225
 20
-20.64048149838889
 30
0.0
 11
-85.81819196680225
 21
-20.94048149838888
 31
0.0
  0
LINE
  5
29A
330
1F
100
AcDbEntity
  8
1
  6
Continuous
 62
     3
100
AcDbLine
 10
-85.81819196680225
 20
-20.94048149838888
 30
0.0
 11
-85.65819196680225
 21
-21.64048149838889
 31
0.0
  0
LINE
  5
29B
330
1F
100
AcDbEntity
  8
1
  6
Continuous
 62
     3
100
AcDbLine
 10
-85.65819196680225
 20
-21.64048149838889
 30
0.0
 11
-85.81819196680225
 21
-22.24048149838889
 31
0.0
  0
LINE
  5
29C
330
1F
100
AcDbEntity
  8
1
  6
Continuous
 62
     3
100
AcDbLine
 10
-85.81819196680225
 20
-22.24048149838889
 30
0.0
 11
-86.37819196680225
 21
-22.54048149838889
 31
0.0
  0
LINE
  5
29D
330
1F
100
AcDbEntity
  8
1
  6
Continuous
 62
     3
100
AcDbLine
 10
-86.37819196680225
 20
-22.54048149838889
 30
0.0
 11
-87.57819196680225
 21
-22.54048149838889
 31
0.0
  0
LINE
  5
29E
330
1F
100
AcDbEntity
  8
1
  6
Continuous
 62
     3
100
AcDbLine
 10
-82.05819196680226
 20
-19.34048149838889
 30
0.0
 11
-82.29819196680226
 21
-18.94048149838888
 31
0.0
  0
LINE
  5
29F
330
1F
100
AcDbEntity
  8
1
  6
Continuous
 62
     3
100
AcDbLine
 10
-82.29819196680226
 20
-18.94048149838888
 30
0.0
 11
-82.61819196680226
 21
-18.64048149838889
 31
0.0
  0
LINE
  5
2A0
330
1F
100
AcDbEntity
  8
1
  6
Continuous
 62
     3
100
AcDbLine
 10
-82.61819196680226
 20
-18.64048149838889
 30
0.0
 11
-83.01819196680226
 21
-18.64048149838889
 31
0.0
  0
LINE
  5
2A1
330
1F
100
AcDbEntity
  8
1
  6
Continuous
 62
     3
100
AcDbLine
 10
-83.01819196680226
 20
-18.64048149838889
 30
0.0
 11
-83.33819196680226
 21
-18.64048149838889
 31
0.0
  0
LINE
  5
2A2
330
1F
100
AcDbEntity
  8
1
  6
Continuous
 62
     3
100
AcDbLine
 10
-83.33819196680226
 20
-18.64048149838889
 30
0.0
 11
-83.49819196680225
 21
-18.84048149838889
 31
0.0
  0
LINE
  5
2A3
330
1F
100
AcDbEntity
  8
1
  6
Continuous
 62
     3
100
AcDbLine
 10
-83.49819196680225
 20
-18.84048149838889
 30
0.0
 11
-83.81819196680226
 21
-19.04048149838889
 31
0.0
  0
LINE
  5
2A4
330
1F
100
AcDbEntity
  8
1
  6
Continuous
 62
     3
100
AcDbLine
 10
-83.81819196680226
 20
-19.04048149838889
 30
0.0
 11
-83.89819196680226
 21
-19.44048149838888
 31
0.0
  0
LINE
  5
2A5
330
1F
100
AcDbEntity
  8
1
  6
Continuous
 62
     3
100
AcDbLine
 10
-83.89819196680226
 20
-19.44048149838888
 30
0.0
 11
-83.81819196680226
 21
-20.04048149838889
 31
0.0
  0
LINE
  5
2A6
330
1F
100
AcDbEntity
  8
1
  6
Continuous
 62
     3
100
AcDbLine
 10
-83.81819196680226
 20
-20.04048149838889
 30
0.0
 11
-83.57819196680227
 21
-20.24048149838889
 31
0.0
  0
LINE
  5
2A7
330
1F
100
AcDbEntity
  8
1
  6
Continuous
 62
     3
100
AcDbLine
 10
-83.57819196680227
 20
-20.24048149838889
 30
0.0
 11
-83.41819196680225
 21
-20.44048149838888
 31
0.0
  0
LINE
  5
2A8
330
1F
100
AcDbEntity
  8
1
  6
Continuous
 62
     3
100
AcDbLine
 10
-83.41819196680225
 20
-20.44048149838888
 30
0.0
 11
-83.01819196680226
 21
-20.54048149838889
 31
0.0
  0
LINE
  5
2A9
330
1F
100
AcDbEntity
  8
1
  6
Continuous
 62
     3
100
AcDbLine
 10
-83.01819196680226
 20
-20.54048149838889
 30
0.0
 11
-82.61819196680226
 21
-20.54048149838889
 31
0.0
  0
LINE
  5
2AA
330
1F
100
AcDbEntity
  8
1
  6
Continuous
 62
     3
100
AcDbLine
 10
-82.61819196680226
 20
-20.54048149838889
 30
0.0
 11
-82.37819196680226
 21
-20.64048149838889
 31
0.0
  0
LINE
  5
2AB
330
1F
100
AcDbEntity
  8
1
  6
Continuous
 62
     3
100
AcDbLine
 10
-82.37819196680226
 20
-20.64048149838889
 30
0.0
 11
-82.05819196680226
 21
-21.04048149838889
 31
0.0
  0
LINE
  5
2AC
330
1F
100
AcDbEntity
  8
1
  6
Continuous
 62
     3
100
AcDbLine
 10
-82.05819196680226
 20
-21.04048149838889
 30
0.0
 11
-81.97819196680226
 21
-21.64048149838889
 31
0.0
  0
LINE
  5
2AD
330
1F
100
AcDbEntity
  8
1
  6
Continuous
 62
     3
100
AcDbLine
 10
-81.97819196680226
 20
-21.64048149838889
 30
0.0
 11
-82.05819196680226
 21
-22.14048149838889
 31
0.0
  0
LINE
  5
2AE
330
1F
100
AcDbEntity
  8
1
  6
Continuous
 62
     3
100
AcDbLine
 10
-82.05819196680226
 20
-22.14048149838889
 30
0.0
 11
-82.37819196680226
 21
-22.44048149838888
 31
0.0
  0
LINE
  5
2AF
330
1F
100
AcDbEntity
  8
1
  6
Continuous
 62
     3
100
AcDbLine
 10
-82.37819196680226
 20
-22.44048149838888
 30
0.0
 11
-82.61819196680226
 21
-22.54048149838889
 31
0.0
  0
LINE
  5
2B0
330
1F
100
AcDbEntity
  8
1
  6
Continuous
 62
     3
100
AcDbLine
 10
-82.61819196680226
 20
-22.54048149838889
 30
0.0
 11
-83.01819196680226
 21
-22.54048149838889
 31
0.0
  0
LINE
  5
2B1
330
1F
100
AcDbEntity
  8
1
  6
Continuous
 62
     3
100
AcDbLine
 10
-83.01819196680226
 20
-22.54048149838889
 30
0.0
 11
-83.41819196680225
 21
-22.44048149838888
 31
0.0
  0
LINE
  5
2B2
330
1F
100
AcDbEntity
  8
1
  6
Continuous
 62
     3
100
AcDbLine
 10
-83.41819196680225
 20
-22.44048149838888
 30
0.0
 11
-83.65819196680226
 21
-22.14048149838889
 31
0.0
  0
LINE
  5
2B3
330
1F
100
AcDbEntity
  8
1
  6
Continuous
 62
     3
100
AcDbLine
 10
-83.65819196680226
 20
-22.14048149838889
 30
0.0
 11
-83.89819196680226
 21
-21.64048149838889
 31
0.0
  0
LINE
  5
2B4
330
1F
100
AcDbEntity
  8
1
  6
Continuous
 62
     3
100
AcDbLine
 10
-80.13819196680225
 20
-20.54048149838889
 30
0.0
 11
-78.45819196680226
 21
-20.54048149838889
 31
0.0
  0
LINE
  5
2B5
330
1F
100
AcDbEntity
  8
1
  6
Continuous
 62
     3
100
AcDbLine
 10
-76.29819196680225
 20
-22.54048149838889
 30
0.0
 11
-76.29819196680225
 21
-18.84048149838889
 31
0.0
  0
LINE
  5
2B6
330
1F
100
AcDbEntity
  8
1
  6
Continuous
 62
     3
100
AcDbLine
 10
-76.29819196680225
 20
-18.84048149838889
 30
0.0
 11
-75.09819196680225
 21
-18.84048149838889
 31
0.0
  0
LINE
  5
2B7
330
1F
100
AcDbEntity
  8
1
  6
Continuous
 62
     3
100
AcDbLine
 10
-75.09819196680225
 20
-18.84048149838889
 30
0.0
 11
-74.69819196680226
 21
-19.04048149838889
 31
0.0
  0
LINE
  5
2B8
330
1F
100
AcDbEntity
  8
1
  6
Continuous
 62
     3
100
AcDbLine
 10
-74.69819196680226
 20
-19.04048149838889
 30
0.0
 11
-74.53819196680224
 21
-19.74048149838889
 31
0.0
  0
LINE
  5
2B9
330
1F
100
AcDbEntity
  8
1
  6
Continuous
 62
     3
100
AcDbLine
 10
-74.53819196680224
 20
-19.74048149838889
 30
0.0
 11
-74.69819196680226
 21
-20.24048149838889
 31
0.0
  0
LINE
  5
2BA
330
1F
100
AcDbEntity
  8
1
  6
Continuous
 62
     3
100
AcDbLine
 10
-74.69819196680226
 20
-20.24048149838889
 30
0.0
 11
-75.09819196680225
 21
-20.64048149838889
 31
0.0
  0
LINE
  5
2BB
330
1F
100
AcDbEntity
  8
1
  6
Continuous
 62
     3
100
AcDbLine
 10
-75.09819196680225
 20
-20.64048149838889
 30
0.0
 11
-76.29819196680225
 21
-20.64048149838889
 31
0.0
  0
LINE
  5
2BC
330
1F
100
AcDbEntity
  8
1
  6
Continuous
 62
     3
100
AcDbLine
 10
-76.29819196680225
 20
-20.64048149838889
 30
0.0
 11
-75.09819196680225
 21
-20.64048149838889
 31
0.0
  0
LINE
  5
2BD
330
1F
100
AcDbEntity
  8
1
  6
Continuous
 62
     3
100
AcDbLine
 10
-75.09819196680225
 20
-20.64048149838889
 30
0.0
 11
-74.53819196680224
 21
-20.94048149838888
 31
0.0
  0
LINE
  5
2BE
330
1F
100
AcDbEntity
  8
1
  6
Continuous
 62
     3
100
AcDbLine
 10
-74.53819196680224
 20
-20.94048149838888
 30
0.0
 11
-74.37819196680225
 21
-21.64048149838889
 31
0.0
  0
LINE
  5
2BF
330
1F
100
AcDbEntity
  8
1
  6
Continuous
 62
     3
100
AcDbLine
 10
-74.37819196680225
 20
-21.64048149838889
 30
0.0
 11
-74.53819196680224
 21
-22.24048149838889
 31
0.0
  0
LINE
  5
2C0
330
1F
100
AcDbEntity
  8
1
  6
Continuous
 62
     3
100
AcDbLine
 10
-74.53819196680224
 20
-22.24048149838889
 30
0.0
 11
-75.09819196680225
 21
-22.54048149838889
 31
0.0
  0
LINE
  5
2C1
330
1F
100
AcDbEntity
  8
1
  6
Continuous
 62
     3
100
AcDbLine
 10
-75.09819196680225
 20
-22.54048149838889
 30
0.0
 11
-76.29819196680225
 21
-22.54048149838889
 31
0.0
  0
LINE
  5
2C2
330
1F
100
AcDbEntity
  8
1
  6
Continuous
 62
     3
100
AcDbLine
 10
-70.93819196680226
 20
-18.54048149838889
 30
0.0
 11
-72.53819196680226
 21
-18.54048149838889
 31
0.0
  0
LINE
  5
2C3
330
1F
100
AcDbEntity
  8
1
  6
Continuous
 62
     3
100
AcDbLine
 10
-72.53819196680226
 20
-18.54048149838889
 30
0.0
 11
-72.61819196680226
 21
-20.54048149838889
 31
0.0
  0
LINE
  5
2C4
330
1F
100
AcDbEntity
  8
1
  6
Continuous
 62
     3
100
AcDbLine
 10
-72.61819196680226
 20
-20.54048149838889
 30
0.0
 11
-72.13819196680225
 21
-20.14048149838889
 31
0.0
  0
LINE
  5
2C5
330
1F
100
AcDbEntity
  8
1
  6
Continuous
 62
     3
100
AcDbLine
 10
-72.13819196680225
 20
-20.14048149838889
 30
0.0
 11
-71.73819196680226
 21
-20.04048149838889
 31
0.0
  0
LINE
  5
2C6
330
1F
100
AcDbEntity
  8
1
  6
Continuous
 62
     3
100
AcDbLine
 10
-71.73819196680226
 20
-20.04048149838889
 30
0.0
 11
-71.33819196680226
 21
-20.14048149838889
 31
0.0
  0
LINE
  5
2C7
330
1F
100
AcDbEntity
  8
1
  6
Continuous
 62
     3
100
AcDbLine
 10
-71.33819196680226
 20
-20.14048149838889
 30
0.0
 11
-71.09819196680226
 21
-20.44048149838888
 31
0.0
  0
LINE
  5
2C8
330
1F
100
AcDbEntity
  8
1
  6
Continuous
 62
     3
100
AcDbLine
 10
-71.09819196680226
 20
-20.44048149838888
 30
0.0
 11
-70.93819196680226
 21
-20.64048149838889
 31
0.0
  0
LINE
  5
2C9
330
1F
100
AcDbEntity
  8
1
  6
Continuous
 62
     3
100
AcDbLine
 10
-70.93819196680226
 20
-20.64048149838889
 30
0.0
 11
-70.77819196680225
 21
-21.34048149838889
 31
0.0
  0
LINE
  5
2CA
330
1F
100
AcDbEntity
  8
1
  6
Continuous
 62
     3
100
AcDbLine
 10
-70.77819196680225
 20
-21.34048149838889
 30
0.0
 11
-70.93819196680226
 21
-22.04048149838889
 31
0.0
  0
LINE
  5
2CB
330
1F
100
AcDbEntity
  8
1
  6
Continuous
 62
     3
100
AcDbLine
 10
-70.93819196680226
 20
-22.04048149838889
 30
0.0
 11
-71.09819196680226
 21
-22.24048149838889
 31
0.0
  0
LINE
  5
2CC
330
1F
100
AcDbEntity
  8
1
  6
Continuous
 62
     3
100
AcDbLine
 10
-71.09819196680226
 20
-22.24048149838889
 30
0.0
 11
-71.33819196680226
 21
-22.54048149838889
 31
0.0
  0
LINE
  5
2CD
330
1F
100
AcDbEntity
  8
1
  6
Continuous
 62
     3
100
AcDbLine
 10
-71.33819196680226
 20
-22.54048149838889
 30
0.0
 11
-71.65819196680226
 21
-22.54048149838889
 31
0.0
  0
LINE
  5
2CE
330
1F
100
AcDbEntity
  8
1
  6
Continuous
 62
     3
100
AcDbLine
 10
-71.65819196680226
 20
-22.54048149838889
 30
0.0
 11
-72.05819196680226
 21
-22.54048149838889
 31
0.0
  0
LINE
  5
2CF
330
1F
100
AcDbEntity
  8
1
  6
Continuous
 62
     3
100
AcDbLine
 10
-72.05819196680226
 20
-22.54048149838889
 30
0.0
 11
-72.37819196680226
 21
-22.24048149838889
 31
0.0
  0
LINE
  5
2D0
330
1F
100
AcDbEntity
  8
1
  6
Continuous
 62
     3
100
AcDbLine
 10
-72.37819196680226
 20
-22.24048149838889
 30
0.0
 11
-72.69819196680226
 21
-22.04048149838889
 31
0.0
  0
LINE
  5
2D1
330
1F
100
AcDbEntity
  8
1
  6
Continuous
 62
     3
100
AcDbLine
 10
-68.29819196680225
 20
-18.94048149838888
 30
0.0
 11
-67.81819196680225
 21
-18.54048149838889
 31
0.0
  0
LINE
  5
2D2
330
1F
100
AcDbEntity
  8
1
  6
Continuous
 62
     3
100
AcDbLine
 10
-67.81819196680225
 20
-18.54048149838889
 30
0.0
 11
-67.81819196680225
 21
-22.54048149838889
 31
0.0
  0
LINE
  5
2D3
330
1F
100
AcDbEntity
  8
1
  6
Continuous
 62
     3
100
AcDbLine
 10
-65.09819196680225
 20
-20.54048149838889
 30
0.0
 11
-63.41819196680225
 21
-20.54048149838889
 31
0.0
  0
LINE
  5
2D4
330
1F
100
AcDbEntity
  8
1
  6
Continuous
 62
     3
100
AcDbLine
 10
-60.45819196680225
 20
-18.54048149838889
 30
0.0
 11
-61.01819196680225
 21
-18.84048149838889
 31
0.0
  0
LINE
  5
2D5
330
1F
100
AcDbEntity
  8
1
  6
Continuous
 62
     3
100
AcDbLine
 10
-61.01819196680225
 20
-18.84048149838889
 30
0.0
 11
-61.33819196680225
 21
-19.44048149838888
 31
0.0
  0
LINE
  5
2D6
330
1F
100
AcDbEntity
  8
1
  6
Continuous
 62
     3
100
AcDbLine
 10
-61.33819196680225
 20
-19.44048149838888
 30
0.0
 11
-61.49819196680225
 21
-20.54048149838889
 31
0.0
  0
LINE
  5
2D7
330
1F
100
AcDbEntity
  8
1
  6
Continuous
 62
     3
100
AcDbLine
 10
-61.49819196680225
 20
-20.54048149838889
 30
0.0
 11
-61.33819196680225
 21
-21.64048149838889
 31
0.0
  0
LINE
  5
2D8
330
1F
100
AcDbEntity
  8
1
  6
Continuous
 62
     3
100
AcDbLine
 10
-61.33819196680225
 20
-21.64048149838889
 30
0.0
 11
-61.01819196680225
 21
-22.24048149838889
 31
0.0
  0
LINE
  5
2D9
330
1F
100
AcDbEntity
  8
1
  6
Continuous
 62
     3
100
AcDbLine
 10
-61.01819196680225
 20
-22.24048149838889
 30
0.0
 11
-60.45819196680225
 21
-22.54048149838889
 31
0.0
  0
LINE
  5
2DA
330
1F
100
AcDbEntity
  8
1
  6
Continuous
 62
     3
100
AcDbLine
 10
-60.45819196680225
 20
-22.54048149838889
 30
0.0
 11
-59.89819196680225
 21
-22.24048149838889
 31
0.0
  0
LINE
  5
2DB
330
1F
100
AcDbEntity
  8
1
  6
Continuous
 62
     3
100
AcDbLine
 10
-59.89819196680225
 20
-22.24048149838889
 30
0.0
 11
-59.49819196680225
 21
-21.64048149838889
 31
0.0
  0
LINE
  5
2DC
330
1F
100
AcDbEntity
  8
1
  6
Continuous
 62
     3
100
AcDbLine
 10
-59.49819196680225
 20
-21.64048149838889
 30
0.0
 11
-59.41819196680225
 21
-20.54048149838889
 31
0.0
  0
LINE
  5
2DD
330
1F
100
AcDbEntity
  8
1
  6
Continuous
 62
     3
100
AcDbLine
 10
-59.41819196680225
 20
-20.54048149838889
 30
0.0
 11
-59.49819196680225
 21
-19.44048149838888
 31
0.0
  0
LINE
  5
2DE
330
1F
100
AcDbEntity
  8
1
  6
Continuous
 62
     3
100
AcDbLine
 10
-59.49819196680225
 20
-19.44048149838888
 30
0.0
 11
-59.89819196680225
 21
-18.84048149838889
 31
0.0
  0
LINE
  5
2DF
330
1F
100
AcDbEntity
  8
1
  6
Continuous
 62
     3
100
AcDbLine
 10
-59.89819196680225
 20
-18.84048149838889
 30
0.0
 11
-60.45819196680225
 21
-18.54048149838889
 31
0.0
  0
LINE
  5
2E0
330
1F
100
AcDbEntity
  8
1
  6
Continuous
 62
     3
100
AcDbLine
 10
-56.69819196680225
 20
-18.54048149838889
 30
0.0
 11
-57.17819196680225
 21
-18.64048149838889
 31
0.0
  0
LINE
  5
2E1
330
1F
100
AcDbEntity
  8
1
  6
Continuous
 62
     3
100
AcDbLine
 10
-57.17819196680225
 20
-18.64048149838889
 30
0.0
 11
-57.49819196680225
 21
-19.04048149838889
 31
0.0
  0
LINE
  5
2E2
330
1F
100
AcDbEntity
  8
1
  6
Continuous
 62
     3
100
AcDbLine
 10
-57.49819196680225
 20
-19.04048149838889
 30
0.0
 11
-57.57819196680225
 21
-19.44048149838888
 31
0.0
  0
LINE
  5
2E3
330
1F
100
AcDbEntity
  8
1
  6
Continuous
 62
     3
100
AcDbLine
 10
-57.57819196680225
 20
-19.44048149838888
 30
0.0
 11
-57.49819196680225
 21
-19.84048149838889
 31
0.0
  0
LINE
  5
2E4
330
1F
100
AcDbEntity
  8
1
  6
Continuous
 62
     3
100
AcDbLine
 10
-57.49819196680225
 20
-19.84048149838889
 30
0.0
 11
-57.17819196680225
 21
-20.24048149838889
 31
0.0
  0
LINE
  5
2E5
330
1F
100
AcDbEntity
  8
1
  6
Continuous
 62
     3
100
AcDbLine
 10
-57.17819196680225
 20
-20.24048149838889
 30
0.0
 11
-56.77819196680225
 21
-20.44048149838888
 31
0.0
  0
LINE
  5
2E6
330
1F
100
AcDbEntity
  8
1
  6
Continuous
 62
     3
100
AcDbLine
 10
-56.77819196680225
 20
-20.44048149838888
 30
0.0
 11
-56.53819196680225
 21
-20.44048149838888
 31
0.0
  0
LINE
  5
2E7
330
1F
100
AcDbEntity
  8
1
  6
Continuous
 62
     3
100
AcDbLine
 10
-56.53819196680225
 20
-20.44048149838888
 30
0.0
 11
-56.13819196680225
 21
-20.54048149838889
 31
0.0
  0
LINE
  5
2E8
330
1F
100
AcDbEntity
  8
1
  6
Continuous
 62
     3
100
AcDbLine
 10
-56.13819196680225
 20
-20.54048149838889
 30
0.0
 11
-55.73819196680225
 21
-20.94048149838888
 31
0.0
  0
LINE
  5
2E9
330
1F
100
AcDbEntity
  8
1
  6
Continuous
 62
     3
100
AcDbLine
 10
-55.73819196680225
 20
-20.94048149838888
 30
0.0
 11
-55.57819196680225
 21
-21.44048149838888
 31
0.0
  0
LINE
  5
2EA
330
1F
100
AcDbEntity
  8
1
  6
Continuous
 62
     3
100
AcDbLine
 10
-55.57819196680225
 20
-21.44048149838888
 30
0.0
 11
-55.73819196680225
 21
-22.14048149838889
 31
0.0
  0
LINE
  5
2EB
330
1F
100
AcDbEntity
  8
1
  6
Continuous
 62
     3
100
AcDbLine
 10
-55.73819196680225
 20
-22.14048149838889
 30
0.0
 11
-56.13819196680225
 21
-22.44048149838888
 31
0.0
  0
LINE
  5
2EC
330
1F
100
AcDbEntity
  8
1
  6
Continuous
 62
     3
100
AcDbLine
 10
-56.13819196680225
 20
-22.44048149838888
 30
0.0
 11
-56.69819196680225
 21
-22.54048149838889
 31
0.0
  0
LINE
  5
2ED
330
1F
100
AcDbEntity
  8
1
  6
Continuous
 62
     3
100
AcDbLine
 10
-56.69819196680225
 20
-22.54048149838889
 30
0.0
 11
-57.25819196680225
 21
-22.44048149838888
 31
0.0
  0
LINE
  5
2EE
330
1F
100
AcDbEntity
  8
1
  6
Continuous
 62
     3
100
AcDbLine
 10
-57.25819196680225
 20
-22.44048149838888
 30
0.0
 11
-57.57819196680225
 21
-22.14048149838889
 31
0.0
  0
LINE
  5
2EF
330
1F
100
AcDbEntity
  8
1
  6
Continuous
 62
     3
100
AcDbLine
 10
-57.57819196680225
 20
-22.14048149838889
 30
0.0
 11
-57.73819196680226
 21
-21.44048149838888
 31
0.0
  0
LINE
  5
2F0
330
1F
100
AcDbEntity
  8
1
  6
Continuous
 62
     3
100
AcDbLine
 10
-57.73819196680226
 20
-21.44048149838888
 30
0.0
 11
-57.65819196680225
 21
-20.94048149838888
 31
0.0
  0
LINE
  5
2F1
330
1F
100
AcDbEntity
  8
1
  6
Continuous
 62
     3
100
AcDbLine
 10
-57.65819196680225
 20
-20.94048149838888
 30
0.0
 11
-57.33819196680225
 21
-20.64048149838889
 31
0.0
  0
LINE
  5
2F2
330
1F
100
AcDbEntity
  8
1
  6
Continuous
 62
     3
100
AcDbLine
 10
-57.33819196680225
 20
-20.64048149838889
 30
0.0
 11
-57.17819196680225
 21
-20.54048149838889
 31
0.0
  0
LINE
  5
2F3
330
1F
100
AcDbEntity
  8
1
  6
Continuous
 62
     3
100
AcDbLine
 10
-57.17819196680225
 20
-20.54048149838889
 30
0.0
 11
-56.77819196680225
 21
-20.44048149838888
 31
0.0
  0
LINE
  5
2F4
330
1F
100
AcDbEntity
  8
1
  6
Continuous
 62
     3
100
AcDbLine
 10
-56.77819196680225
 20
-20.44048149838888
 30
0.0
 11
-56.53819196680225
 21
-20.44048149838888
 31
0.0
  0
LINE
  5
2F5
330
1F
100
AcDbEntity
  8
1
  6
Continuous
 62
     3
100
AcDbLine
 10
-56.53819196680225
 20
-20.44048149838888
 30
0.0
 11
-56.13819196680225
 21
-20.24048149838889
 31
0.0
  0
LINE
  5
2F6
330
1F
100
AcDbEntity
  8
1
  6
Continuous
 62
     3
100
AcDbLine
 10
-56.13819196680225
 20
-20.24048149838889
 30
0.0
 11
-55.89819196680225
 21
-19.84048149838889
 31
0.0
  0
LINE
  5
2F7
330
1F
100
AcDbEntity
  8
1
  6
Continuous
 62
     3
100
AcDbLine
 10
-55.89819196680225
 20
-19.84048149838889
 30
0.0
 11
-55.73819196680225
 21
-19.44048149838888
 31
0.0
  0
LINE
  5
2F8
330
1F
100
AcDbEntity
  8
1
  6
Continuous
 62
     3
100
AcDbLine
 10
-55.73819196680225
 20
-19.44048149838888
 30
0.0
 11
-55.89819196680225
 21
-19.04048149838889
 31
0.0
  0
LINE
  5
2F9
330
1F
100
AcDbEntity
  8
1
  6
Continuous
 62
     3
100
AcDbLine
 10
-55.89819196680225
 20
-19.04048149838889
 30
0.0
 11
-55.97819196680225
 21
-18.84048149838889
 31
0.0
  0
LINE
  5
2FA
330
1F
100
AcDbEntity
  8
1
  6
Continuous
 62
     3
100
AcDbLine
 10
-55.97819196680225
 20
-18.84048149838889
 30
0.0
 11
-56.21819196680225
 21
-18.64048149838889
 31
0.0
  0
LINE
  5
2FB
330
1F
100
AcDbEntity
  8
1
  6
Continuous
 62
     3
100
AcDbLine
 10
-56.21819196680225
 20
-18.64048149838889
 30
0.0
 11
-56.69819196680225
 21
-18.54048149838889
 31
0.0
  0
ARC
  5
2FC
330
1F
100
AcDbEntity
  8
1
  6
Continuous
 62
     3
100
AcDbCircle
 10
-163.55
 20
18.14999999999989
 30
0.0
 40
0.4500000000000171
100
AcDbArc
 50
0.0
 51
180.0
  0
ARC
  5
2FD
330
1F
100
AcDbEntity
  8
1
  6
Continuous
 62
     3
100
AcDbCircle
 10
-163.55
 20
18.14999999999989
 30
0.0
 40
0.4499999999999886
100
AcDbArc
 50
180.0
 51
0.0
  0
ARC
  5
2FE
330
1F
100
AcDbEntity
  8
1
  6
Continuous
 62
     3
100
AcDbCircle
 10
-105.8081919668022
 20
17.69999999999988
 30
0.0
 40
0.4500000000000028
100
AcDbArc
 50
0.0
 51
180.0
  0
ARC
  5
2FF
330
1F
100
AcDbEntity
  8
1
  6
Continuous
 62
     3
100
AcDbCircle
 10
-96.9081919668022
 20
18.14999999999989
 30
0.0
 40
0.4500000000000171
100
AcDbArc
 50
180.0
 51
0.0
  0
ARC
  5
300
330
1F
100
AcDbEntity
  8
1
  6
Continuous
 62
     3
100
AcDbCircle
 10
-96.9081919668022
 20
18.14999999999989
 30
0.0
 40
0.4500000000000171
100
AcDbArc
 50
0.0
 51
180.0
  0
ARC
  5
301
330
1F
100
AcDbEntity
  8
1
  6
Continuous
 62
     3
100
AcDbCircle
 10
-83.97870800737007
 20
5.25
 30
0.0
 40
12.47617847327044
100
AcDbArc
 50
338.5262970831895
 51
21.4737029168105
  0
ARC
  5
302
330
1F
100
AcDbEntity
  8
1
  6
Continuous
 62
     3
100
AcDbCircle
 10
-83.97870800737007
 20
-5.24999999999994
 30
0.0
 40
12.47617847327046
100
AcDbArc
 50
338.5262970831893
 51
21.47370291681067
  0
ARC
  5
303
330
1F
100
AcDbEntity
  8
1
  6
Continuous
 62
     3
100
AcDbCircle
 10
-72.73767592701354
 20
-5.25000000000002
 30
0.0
 40
12.47617847249134
100
AcDbArc
 50
158.5262970817822
 51
201.4737029182178
  0
ARC
  5
304
330
1F
100
AcDbEntity
  8
1
  6
Continuous
 62
     3
100
AcDbCircle
 10
-72.73767592701354
 20
5.25
 30
0.0
 40
12.47617847249135
100
AcDbArc
 50
158.526297081782
 51
201.473702918218
  0
ARC
  5
305
102
{ACAD_REACTORS
330
386
102
}
330
1F
100
AcDbEntity
  8
1
  6
Continuous
 62
     3
100
AcDbCircle
 10
-75.69399759322113
 20
73.6937652906206
 30
0.0
 40
6.739335038363005
100
AcDbArc
 50
338.9984853229842
 51
21.00151467701722
  0
ARC
  5
306
102
{ACAD_REACTORS
330
386
102
}
330
1F
100
AcDbEntity
  8
1
  6
Continuous
 62
     3
100
AcDbCircle
 10
-69.89348608426982
 20
69.88905940826771
 30
0.0
 40
0.0988235294119022
100
AcDbArc
 50
180.0
 51
326.7380925865422
  0
ARC
  5
307
102
{ACAD_REACTORS
330
386
102
}
330
1F
100
AcDbEntity
  8
1
  6
Continuous
 62
     3
100
AcDbCircle
 10
-75.69399759322113
 20
73.6937652906206
 30
0.0
 40
7.03580562659828
100
AcDbArc
 50
326.7380925865568
 51
33.26190741344472
  0
ARC
  5
308
102
{ACAD_REACTORS
330
386
102
}
330
1F
100
AcDbEntity
  8
1
  6
Continuous
 62
     3
100
AcDbCircle
 10
-69.89348608426982
 20
77.49847117297367
 30
0.0
 40
0.0988235294117244
100
AcDbArc
 50
33.2619074134854
 51
180.0
  0
ARC
  5
309
330
1F
100
AcDbEntity
  8
1
  6
Continuous
 62
     3
100
AcDbCircle
 10
-55.35819196680194
 20
73.69376529062077
 30
0.0
 40
15.00000000000002
100
AcDbArc
 50
330.0053480691527
 51
30.00534835737918
  0
ARC
  5
30A
330
1F
100
AcDbEntity
  8
1
  6
Continuous
 62
     3
100
AcDbCircle
 10
-62.35819196680242
 20
281.1937652906704
 30
0.0
 40
200.0000000000495
100
AcDbArc
 50
265.9431466395152
 51
274.0568533604849
  0
ARC
  5
30B
330
1F
100
AcDbEntity
  8
1
  6
Continuous
 62
     3
100
AcDbCircle
 10
-62.35819196680242
 20
-133.806234709429
 30
0.0
 40
200.0000000000495
100
AcDbArc
 50
85.94314663951512
 51
94.05685336048475
  0
ARC
  5
30C
330
1F
100
AcDbEntity
  8
1
  6
Continuous
 62
     3
100
AcDbCircle
 10
-167.9999999999708
 20
-0.00000000000003
 30
0.0
 40
11.75000000002912
100
AcDbArc
 50
176.6686605973628
 51
183.3313394026372
  0
ARC
  5
30D
330
1F
100
AcDbEntity
  8
1
  6
Continuous
 62
     3
100
AcDbCircle
 10
-167.9999999999854
 20
0.00000000002527
 30
0.0
 40
11.75000000002916
100
AcDbArc
 50
236.6686605973628
 51
243.3313394026378
  0
ARC
  5
30E
330
1F
100
AcDbEntity
  8
1
  6
Continuous
 62
     3
100
AcDbCircle
 10
-168.0000000000145
 20
0.00000000002532
 30
0.0
 40
11.75000000002922
100
AcDbArc
 50
296.6686605973626
 51
303.331339402637
  0
ARC
  5
30F
330
1F
100
AcDbEntity
  8
1
  6
Continuous
 62
     3
100
AcDbCircle
 10
-168.0000000000292
 20
0.00000000000006
 30
0.0
 40
11.75000000002921
100
AcDbArc
 50
356.6686605973626
 51
3.33133940263711
  0
ARC
  5
310
330
1F
100
AcDbEntity
  8
1
  6
Continuous
 62
     3
100
AcDbCircle
 10
-168.0000000000147
 20
-0.0000000000253
 30
0.0
 40
11.75000000002923
100
AcDbArc
 50
56.66866059736253
 51
63.3313394026365
  0
ARC
  5
311
330
1F
100
AcDbEntity
  8
1
  6
Continuous
 62
     3
100
AcDbCircle
 10
-167.9999999999854
 20
-0.00000000002535
 30
0.0
 40
11.75000000002927
100
AcDbArc
 50
116.6686605973631
 51
123.3313394026374
  0
ARC
  5
312
330
1F
100
AcDbEntity
  8
1
  6
Continuous
 62
     3
100
AcDbCircle
 10
-166.1999999999999
 20
16.2
 30
0.0
 40
0.5000000000000436
100
AcDbArc
 50
120.0000000000084
 51
269.9999999999902
  0
ARC
  5
313
330
1F
100
AcDbEntity
  8
1
  6
Continuous
 62
     3
100
AcDbCircle
 10
-76.490377072197
 20
64.6525715986189
 30
0.0
 40
4.988119351579765
100
AcDbArc
 50
359.4018547179526
 51
15.38996070890591
  0
ARC
  5
314
330
1F
100
AcDbEntity
  8
1
  6
Continuous
 62
     3
100
AcDbCircle
 10
-76.89010746405775
 20
82.74991238914602
 30
0.0
 40
5.387705802949485
100
AcDbArc
 50
0.39475347807876
 51
29.99999999999944
  0
ARC
  5
315
330
1F
100
AcDbEntity
  8
1
  6
Continuous
 62
     3
100
AcDbCircle
 10
-76.490377072197
 20
82.73495898262253
 30
0.0
 40
4.988119351579765
100
AcDbArc
 50
344.6100392910951
 51
0.59814528204744
  0
ARC
  5
316
330
1F
100
AcDbEntity
  8
1
  6
Continuous
 62
     3
100
AcDbCircle
 10
-76.89010746405775
 20
64.63761819209542
 30
0.0
 40
5.387705802949489
100
AcDbArc
 50
330.0000000000006
 51
359.6052465219212
  0
ARC
  5
317
330
1F
100
AcDbEntity
  8
1
  6
Continuous
 62
     3
100
AcDbCircle
 10
-79.82627646941503
 20
64.63761819209542
 30
0.0
 40
5.387705802949485
100
AcDbArc
 50
180.3947534780787
 51
209.9999999999994
  0
ARC
  5
318
330
1F
100
AcDbEntity
  8
1
  6
Continuous
 62
     3
100
AcDbCircle
 10
-80.22600686127578
 20
64.6525715986189
 30
0.0
 40
4.988119351579756
100
AcDbArc
 50
148.7889301788147
 51
180.5981452820474
  0
ARC
  5
319
330
1F
100
AcDbEntity
  8
1
  6
Continuous
 62
     3
100
AcDbCircle
 10
-80.22600686127578
 20
82.73495898262253
 30
0.0
 40
4.988119351579765
100
AcDbArc
 50
179.4018547179526
 51
211.2110698211858
  0
ARC
  5
31A
330
1F
100
AcDbEntity
  8
1
  6
Continuous
 62
     3
100
AcDbCircle
 10
-79.82627646941503
 20
82.74991238914602
 30
0.0
 40
5.387705802949489
100
AcDbArc
 50
150.0000000000006
 51
179.6052465219213
  0
ARC
  5
31B
330
1F
100
AcDbEntity
  8
1
  6
Continuous
 62
     3
100
AcDbCircle
 10
-115.6722880039486
 20
82.3796692534743
 30
0.0
 40
4.333286172146045
100
AcDbArc
 50
5.39421638968563
 51
41.29572880374074
  0
ARC
  5
31C
330
1F
100
AcDbEntity
  8
1
  6
Continuous
 62
     3
100
AcDbCircle
 10
-114.7644383342393
 20
82.7870303083575
 30
0.0
 40
3.406246367437555
100
AcDbArc
 50
309.2738136126167
 51
0.00002896541011
  0
ARC
  5
31D
330
1F
100
AcDbEntity
  8
1
  6
Continuous
 62
     3
100
AcDbCircle
 10
-123.1081919668015
 20
73.69376529062072
 30
0.0
 40
11.74999999999926
100
AcDbArc
 50
333.3313394026438
 51
26.66866059735615
  0
ARC
  5
31E
330
1F
100
AcDbEntity
  8
1
  6
Continuous
 62
     3
100
AcDbCircle
 10
-114.7644383342393
 20
64.60050027288396
 30
0.0
 40
3.406246367437541
100
AcDbArc
 50
359.999971034589
 51
50.72618638738257
  0
ARC
  5
31F
330
1F
100
AcDbEntity
  8
1
  6
Continuous
 62
     3
100
AcDbCircle
 10
-115.6722880039486
 20
65.00786132776716
 30
0.0
 40
4.333286172146044
100
AcDbArc
 50
318.7042711962562
 51
354.6057836103136
  0
ARC
  5
320
330
1F
100
AcDbEntity
  8
1
  6
Continuous
 62
     3
100
AcDbCircle
 10
-117.5262764695468
 20
82.74991238914602
 30
0.0
 40
5.387705802949475
100
AcDbArc
 50
150.0000000000005
 51
179.6052465219213
  0
ARC
  5
321
330
1F
100
AcDbEntity
  8
1
  6
Continuous
 62
     3
100
AcDbCircle
 10
-117.9260068614075
 20
82.73495898262253
 30
0.0
 40
4.988119351579779
100
AcDbArc
 50
179.4018547179526
 51
211.2110698211856
  0
ARC
  5
322
330
1F
100
AcDbEntity
  8
1
  6
Continuous
 62
     3
100
AcDbCircle
 10
-103.2839452470574
 20
73.69376529062072
 30
0.0
 40
19.62990915244751
100
AcDbArc
 50
164.415502719677
 51
195.584497280323
  0
ARC
  5
323
330
1F
100
AcDbEntity
  8
1
  6
Continuous
 62
     3
100
AcDbCircle
 10
-117.9260068614075
 20
64.6525715986189
 30
0.0
 40
4.98811935157978
100
AcDbArc
 50
148.7889301788149
 51
180.5981452820474
  0
ARC
  5
324
330
1F
100
AcDbEntity
  8
1
  6
Continuous
 62
     3
100
AcDbCircle
 10
-117.5262764695468
 20
64.63761819209542
 30
0.0
 40
5.387705802949457
100
AcDbArc
 50
180.3947534780787
 51
209.9999999999995
  0
ARC
  5
325
330
1F
100
AcDbEntity
  8
1
  6
Continuous
 62
     3
100
AcDbCircle
 10
-119.0613169668022
 20
5.25000000000001
 30
0.0
 40
7.703125000000003
100
AcDbArc
 50
323.6367092188355
 51
36.36329078116447
  0
ARC
  5
326
330
1F
100
AcDbEntity
  8
1
  6
Continuous
 62
     3
100
AcDbCircle
 10
-119.0613169668022
 20
-5.25000000000002
 30
0.0
 40
7.70312499999997
100
AcDbArc
 50
323.6367092188359
 51
36.36329078116417
  0
ARC
  5
327
330
1F
100
AcDbEntity
  8
1
  6
Continuous
 62
     3
100
AcDbCircle
 10
-110.4376759262349
 20
-5.25000000000002
 30
0.0
 40
12.47617847326998
100
AcDbArc
 50
158.5262970831889
 51
201.4737029168111
  0
ARC
  5
328
330
1F
100
AcDbEntity
  8
1
  6
Continuous
 62
     3
100
AcDbCircle
 10
-110.4376759262349
 20
5.25
 30
0.0
 40
12.47617847326999
100
AcDbArc
 50
158.5262970831887
 51
201.4737029168113
  0
ARC
  5
329
330
1F
100
AcDbEntity
  8
1
  6
Continuous
 62
     3
100
AcDbCircle
 10
-101.3581919668022
 20
17.30073525436771
 30
0.0
 40
10.49999999999999
100
AcDbArc
 50
220.3675935441855
 51
319.6324064558144
  0
ARC
  5
32A
330
1F
100
AcDbEntity
  8
1
  6
Continuous
 62
     3
100
AcDbCircle
 10
-98.35819196680222
 20
15.70000000000001
 30
0.0
 40
1.0
100
AcDbArc
 50
180.0
 51
340.5287793655141
  0
ARC
  5
32B
330
1F
100
AcDbEntity
  8
1
  6
Continuous
 62
     3
100
AcDbCircle
 10
-104.3581919668023
 20
15.70000000000001
 30
0.0
 40
1.000000000000018
100
AcDbArc
 50
199.4712206344858
 51
0.0
  0
CIRCLE
  5
32C
330
1F
100
AcDbEntity
  8
1
  6
Continuous
 62
     3
100
AcDbCircle
 10
-168.0
 20
0.0
 30
0.0
 40
6.899999989196687
  0
CIRCLE
  5
32D
330
1F
100
AcDbEntity
  8
1
  6
Continuous
 62
     3
100
AcDbCircle
 10
-168.0
 20
0.0
 30
0.0
 40
5.687612900510402
  0
CIRCLE
  5
32E
330
1F
100
AcDbEntity
  8
1
  6
Continuous
 62
     3
100
AcDbCircle
 10
-168.0
 20
0.0
 30
0.0
 40
4.75
  0
CIRCLE
  5
32F
330
1F
100
AcDbEntity
  8
1
  6
Continuous
 62
     3
100
AcDbCircle
 10
-168.0
 20
0.0
 30
0.0
 40
3.75
  0
CIRCLE
  5
330
330
1F
100
AcDbEntity
  8
1
  6
Continuous
 62
     3
100
AcDbCircle
 10
-168.0
 20
0.0
 30
0.0
 40
10.25
  0
CIRCLE
  5
331
102
{ACAD_REACTORS
330
389
102
}
330
1F
100
AcDbEntity
  8
1
  6
Continuous
 62
     3
100
AcDbCircle
 10
-49.89755671887883
 20
76.14498917606073
 30
0.0
 40
0.5393647522560912
  0
CIRCLE
  5
332
330
1F
100
AcDbEntity
  8
1
  6
Continuous
 62
     3
100
AcDbCircle
 10
-101.3581919668022
 20
73.69376529062072
 30
0.0
 40
6.0
  0
CIRCLE
  5
333
330
1F
100
AcDbEntity
  8
1
  6
Continuous
 62
     3
100
AcDbCircle
 10
-101.3581919668022
 20
73.69376529062072
 30
0.0
 40
6.049999999999955
  0
CIRCLE
  5
334
330
1F
100
AcDbEntity
  8
1
  6
Continuous
 62
     3
100
AcDbCircle
 10
-101.3581919668022
 20
73.69376529062072
 30
0.0
 40
8.000000000000025
  0
ARC
  5
335
330
1F
100
AcDbEntity
  8
1
  6
Continuous
 62
     3
100
AcDbCircle
 10
-79.0703654261491
 20
26.6999999999986
 30
0.0
 40
3.0
100
AcDbArc
 50
90.0
 51
155.5560452195826
  0
ARC
  5
336
330
1F
100
AcDbEntity
  8
1
  6
Continuous
 62
     3
100
AcDbCircle
 10
-41.35819196680197
 20
26.69999999999861
 30
0.0
 40
1.000000000000011
100
AcDbArc
 50
269.999999999976
 51
0.0
  0
ARC
  5
337
330
1F
100
AcDbEntity
  8
1
  6
Continuous
 62
     3
100
AcDbCircle
 10
-41.35819196680197
 20
28.6999999999986
 30
0.0
 40
1.0
100
AcDbArc
 50
0.00000000000183
 51
90.00000000001954
  0
ARC
  5
338
330
1F
100
AcDbEntity
  8
1
  6
Continuous
 62
     3
100
AcDbCircle
 10
-82.3581919666228
 20
18.25847701359739
 30
0.0
 40
0.5
100
AcDbArc
 50
180.0
 51
335.5560452195829
  0
ARC
  5
339
330
1F
100
AcDbEntity
  8
1
  6
Continuous
 62
     3
100
AcDbCircle
 10
-81.8581919666228
 20
25.40000000039437
 30
0.0
 40
0.9999999999999959
100
AcDbArc
 50
155.5560452195817
 51
180.0
  0
ARC
  5
33A
330
1F
100
AcDbEntity
  8
1
  6
Continuous
 62
     3
100
AcDbCircle
 10
-77.78253888549523
 20
24.69999999999929
 30
0.0
 40
1.0
100
AcDbArc
 50
90.0
 51
155.5560452195824
  0
ARC
  5
33B
330
1F
100
AcDbEntity
  8
1
  6
Continuous
 62
     3
100
AcDbCircle
 10
-106.3581919668023
 20
16.19999999999993
 30
0.0
 40
0.5
100
AcDbArc
 50
179.9999999999976
 51
270.0
  0
ARC
  5
33C
330
1F
100
AcDbEntity
  8
1
  6
Continuous
 62
     3
100
AcDbCircle
 10
-86.002105237129
 20
18.7
 30
0.0
 40
3.0
100
AcDbArc
 50
270.0
 51
335.5560452195825
  0
ARC
  5
33D
330
1F
100
AcDbEntity
  8
1
  6
Continuous
 62
     3
100
AcDbCircle
 10
-86.002105237129
 20
18.7
 30
0.0
 40
1.0
100
AcDbArc
 50
270.0
 51
335.556045219585
  0
ARC
  5
33E
330
1F
100
AcDbEntity
  8
1
  6
Continuous
 62
     3
100
AcDbCircle
 10
-98.35819196680214
 20
66.69376529062077
 30
0.0
 40
0.9999999999999702
100
AcDbArc
 50
222.3621579954383
 51
270.0
  0
ARC
  5
33F
330
1F
100
AcDbEntity
  8
1
  6
Continuous
 62
     3
100
AcDbCircle
 10
-85.35819196680222
 20
67.69376529062072
 30
0.0
 40
1.0
100
AcDbArc
 50
89.99999999999919
 51
179.9999999999967
  0
ARC
  5
340
330
1F
100
AcDbEntity
  8
1
  6
Continuous
 62
     3
100
AcDbCircle
 10
-92.35819196680222
 20
72.69376529062072
 30
0.0
 40
1.0
100
AcDbArc
 50
270.0
 51
0.0
  0
ARC
  5
341
330
1F
100
AcDbEntity
  8
1
  6
Continuous
 62
     3
100
AcDbCircle
 10
-89.35819196680222
 20
76.693765290621
 30
0.0
 40
2.0
100
AcDbArc
 50
89.99999999999756
 51
180.0
  0
ARC
  5
342
330
1F
100
AcDbEntity
  8
1
  6
Continuous
 62
     3
100
AcDbCircle
 10
-88.35819196680222
 20
67.69376529062077
 30
0.0
 40
2.0
100
AcDbArc
 50
270.0
 51
0.0
  0
ARC
  5
343
102
{ACAD_REACTORS
330
386
102
}
330
1F
100
AcDbEntity
  8
1
  6
Continuous
 62
     3
100
AcDbCircle
 10
-69.51767363403604
 20
71.32270931487363
 30
0.0
 40
0.1235294117646727
100
AcDbArc
 50
255.0000000000609
 51
338.9984853229838
  0
ARC
  5
344
102
{ACAD_REACTORS
330
386
102
}
330
1F
100
AcDbEntity
  8
1
  6
Continuous
 62
     3
100
AcDbCircle
 10
-69.51767363403604
 20
76.06482126636774
 30
0.0
 40
0.1235294117647506
100
AcDbArc
 50
21.00151467701616
 51
104.9999999999392
  0
ARC
  5
345
102
{ACAD_REACTORS
330
388
102
}
330
1F
100
AcDbEntity
  8
1
  6
Continuous
 62
     3
100
AcDbCircle
 10
-71.93008477994584
 20
70.48200058473839
 30
0.0
 40
0.1235294117647641
100
AcDbArc
 50
270.0
 51
329.999999999981
  0
ARC
  5
346
102
{ACAD_REACTORS
330
388
102
}
330
1F
100
AcDbEntity
  8
1
  6
Continuous
 62
     3
100
AcDbCircle
 10
-71.21688738859385
 20
70.63023587885601
 30
0.0
 40
0.1235294117646504
100
AcDbArc
 50
90.0
 51
150.0000000000692
  0
ARC
  5
347
102
{ACAD_REACTORS
330
388
102
}
330
1F
100
AcDbEntity
  8
1
  6
Continuous
 62
     3
100
AcDbCircle
 10
-71.31673502338313
 20
70.80317705532661
 30
0.0
 40
0.2470588235293576
100
AcDbArc
 50
90.0
 51
150.0000000000152
  0
ARC
  5
348
102
{ACAD_REACTORS
330
388
102
}
330
1F
100
AcDbEntity
  8
1
  6
Continuous
 62
     3
100
AcDbCircle
 10
-71.83023714515653
 20
70.30905940826784
 30
0.0
 40
0.2470588235295281
100
AcDbArc
 50
270.0
 51
329.9999999999563
  0
ARC
  5
349
102
{ACAD_REACTORS
330
387
102
}
330
1F
100
AcDbEntity
  8
1
  6
Continuous
 62
     3
100
AcDbCircle
 10
-70.58525079015223
 20
77.02905940826776
 30
0.0
 40
0.2964705882353087
100
AcDbArc
 50
0.0
 51
90.0
  0
ARC
  5
34A
102
{ACAD_REACTORS
330
387
102
}
330
1F
100
AcDbEntity
  8
1
  6
Continuous
 62
     3
100
AcDbCircle
 10
-70.58525079015223
 20
76.63376529062072
 30
0.0
 40
0.2964705882352519
100
AcDbArc
 50
270.0
 51
0.0
  0
ARC
  5
34B
102
{ACAD_REACTORS
330
387
102
}
330
1F
100
AcDbEntity
  8
1
  6
Continuous
 62
     3
100
AcDbCircle
 10
-70.70878020191682
 20
76.90552999650305
 30
0.0
 40
0.1235294117645935
100
AcDbArc
 50
0.0
 51
90.0
  0
ARC
  5
34C
102
{ACAD_REACTORS
330
387
102
}
330
1F
100
AcDbEntity
  8
1
  6
Continuous
 62
     3
100
AcDbCircle
 10
-70.70878020191682
 20
76.75729470238542
 30
0.0
 40
0.1235294117647072
100
AcDbArc
 50
270.0
 51
0.0
  0
ARC
  5
34D
102
{ACAD_REACTORS
330
387
102
}
330
1F
100
AcDbEntity
  8
1
  6
Continuous
 62
     3
100
AcDbCircle
 10
-72.56172137838755
 20
76.63376529062072
 30
0.0
 40
0.296470588235195
100
AcDbArc
 50
180.0
 51
270.0
  0
ARC
  5
34E
102
{ACAD_REACTORS
330
387
102
}
330
1F
100
AcDbEntity
  8
1
  6
Continuous
 62
     3
100
AcDbCircle
 10
-72.56172137838755
 20
77.02905940826776
 30
0.0
 40
0.2964705882353655
100
AcDbArc
 50
90.0
 51
180.0
  0
ARC
  5
34F
102
{ACAD_REACTORS
330
387
102
}
330
1F
100
AcDbEntity
  8
1
  6
Continuous
 62
     3
100
AcDbCircle
 10
-72.43819196662272
 20
76.75729470238542
 30
0.0
 40
0.1235294117648209
100
AcDbArc
 50
180.0
 51
270.0
  0
ARC
  5
350
102
{ACAD_REACTORS
330
387
102
}
330
1F
100
AcDbEntity
  8
1
  6
Continuous
 62
     3
100
AcDbCircle
 10
-72.43819196662272
 20
76.90552999650305
 30
0.0
 40
0.1235294117647072
100
AcDbArc
 50
90.0
 51
180.0
  0
ARC
  5
351
102
{ACAD_REACTORS
330
388
102
}
330
1F
100
AcDbEntity
  8
1
  6
Continuous
 62
     3
100
AcDbCircle
 10
-70.58525079015223
 20
70.75376529062066
 30
0.0
 40
0.2964705882353087
100
AcDbArc
 50
0.0
 51
90.0
  0
ARC
  5
352
102
{ACAD_REACTORS
330
388
102
}
330
1F
100
AcDbEntity
  8
1
  6
Continuous
 62
     3
100
AcDbCircle
 10
-70.58525079015223
 20
70.35847117297362
 30
0.0
 40
0.2964705882353087
100
AcDbArc
 50
270.0
 51
0.0
  0
ARC
  5
353
102
{ACAD_REACTORS
330
388
102
}
330
1F
100
AcDbEntity
  8
1
  6
Continuous
 62
     3
100
AcDbCircle
 10
-70.70878020191682
 20
70.63023587885601
 30
0.0
 40
0.1235294117645935
100
AcDbArc
 50
0.0
 51
90.0
  0
ARC
  5
354
102
{ACAD_REACTORS
330
388
102
}
330
1F
100
AcDbEntity
  8
1
  6
Continuous
 62
     3
100
AcDbCircle
 10
-70.70878020191682
 20
70.48200058473839
 30
0.0
 40
0.1235294117647641
100
AcDbArc
 50
270.0
 51
0.0
  0
ARC
  5
355
102
{ACAD_REACTORS
330
388
102
}
330
1F
100
AcDbEntity
  8
1
  6
Continuous
 62
     3
100
AcDbCircle
 10
-72.56172137838755
 20
70.35847117297362
 30
0.0
 40
0.296470588235195
100
AcDbArc
 50
180.0
 51
270.0
  0
ARC
  5
356
102
{ACAD_REACTORS
330
388
102
}
330
1F
100
AcDbEntity
  8
1
  6
Continuous
 62
     3
100
AcDbCircle
 10
-72.56172137838755
 20
70.75376529062066
 30
0.0
 40
0.2964705882353087
100
AcDbArc
 50
90.0
 51
180.0
  0
ARC
  5
357
102
{ACAD_REACTORS
330
388
102
}
330
1F
100
AcDbEntity
  8
1
  6
Continuous
 62
     3
100
AcDbCircle
 10
-72.43819196662272
 20
70.48200058473839
 30
0.0
 40
0.1235294117648209
100
AcDbArc
 50
180.0
 51
270.0
  0
ARC
  5
358
102
{ACAD_REACTORS
330
388
102
}
330
1F
100
AcDbEntity
  8
1
  6
Continuous
 62
     3
100
AcDbCircle
 10
-72.43819196662272
 20
70.63023587885601
 30
0.0
 40
0.1235294117646504
100
AcDbArc
 50
90.0
 51
180.0
  0
ARC
  5
359
330
1F
100
AcDbEntity
  8
1
  6
Continuous
 62
     3
100
AcDbCircle
 10
-84.35819196662274
 20
69.79353894360452
 30
0.0
 40
1.500000000000057
100
AcDbArc
 50
269.9999999999968
 51
0.0
  0
ARC
  5
35A
330
1F
100
AcDbEntity
  8
1
  6
Continuous
 62
     3
100
AcDbCircle
 10
-84.35819196662274
 20
77.59399163763703
 30
0.0
 40
1.5
100
AcDbArc
 50
0.0
 51
90.00000000000325
  0
ARC
  5
35B
330
1F
100
AcDbEntity
  8
1
  6
Continuous
 62
     3
100
AcDbCircle
 10
-83.35819196662283
 20
79.50979784081386
 30
0.0
 40
1.000000000000032
100
AcDbArc
 50
111.5699910252728
 51
180.0
  0
ARC
  5
35C
330
1F
100
AcDbEntity
  8
1
  6
Continuous
 62
     3
100
AcDbCircle
 10
-83.35819196662283
 20
67.87773274042758
 30
0.0
 40
1.0
100
AcDbArc
 50
180.0
 51
248.4300089747271
  0
ARC
  5
35D
330
1F
100
AcDbEntity
  8
1
  6
Continuous
 62
     3
100
AcDbCircle
 10
-80.36038673769383
 20
80.69489702562998
 30
0.0
 40
1.0
100
AcDbArc
 50
90.0
 51
111.5699910252786
  0
ARC
  5
35E
330
1F
100
AcDbEntity
  8
1
  6
Continuous
 62
     3
100
AcDbCircle
 10
-80.36038673769383
 20
66.69263355561145
 30
0.0
 40
1.000000000000011
100
AcDbArc
 50
248.4300089747214
 51
270.0
  0
ARC
  5
35F
330
1F
100
AcDbEntity
  8
1
  6
Continuous
 62
     3
100
AcDbCircle
 10
-43.23448979176283
 20
80.69489702562998
 30
0.0
 40
0.9999999999999942
100
AcDbArc
 50
30.00534835738019
 51
90.0
  0
ARC
  5
360
330
1F
100
AcDbEntity
  8
1
  6
Continuous
 62
     3
100
AcDbCircle
 10
-43.23318297673083
 20
66.69489702562998
 30
0.0
 40
1.0
100
AcDbArc
 50
270.0
 51
330.0053480691537
  0
ARC
  5
361
330
1F
100
AcDbEntity
  8
1
  6
Continuous
 62
     3
100
AcDbCircle
 10
-161.0000000000001
 20
28.6999999999986
 30
0.0
 40
1.0
100
AcDbArc
 50
359.9999999999984
 51
90.0
  0
ARC
  5
362
330
1F
100
AcDbEntity
  8
1
  6
Continuous
 62
     3
100
AcDbCircle
 10
-175.0006171776886
 20
28.6999999999986
 30
0.0
 40
1.0
100
AcDbArc
 50
90.0
 51
180.0294743790142
  0
ARC
  5
363
330
1F
100
AcDbEntity
  8
1
  6
Continuous
 62
     3
100
AcDbCircle
 10
-160.5000000000001
 20
17.19999999999995
 30
0.0
 40
0.5
100
AcDbArc
 50
359.9999999999976
 51
90.0
  0
ARC
  5
364
330
1F
100
AcDbEntity
  8
1
  6
Continuous
 62
     3
100
AcDbCircle
 10
-161.0000000000001
 20
27.5
 30
0.0
 40
1.0
100
AcDbArc
 50
0.0
 51
11.5369590328152
  0
ARC
  5
365
330
1F
100
AcDbEntity
  8
1
  6
Continuous
 62
     3
100
AcDbCircle
 10
-161.0000000000001
 20
16.19999999999995
 30
0.0
 40
1.0
100
AcDbArc
 50
0.0
 51
90.0
  0
ARC
  5
366
330
1F
100
AcDbEntity
  8
1
  6
Continuous
 62
     3
100
AcDbCircle
 10
-160.5000000000001
 20
15.2
 30
0.0
 40
0.5
100
AcDbArc
 50
0.0
 51
90.0
  0
ARC
  5
367
330
1F
100
AcDbEntity
  8
1
  6
Continuous
 62
     3
100
AcDbCircle
 10
-160.5000000000001
 20
21.7
 30
0.0
 40
0.5
100
AcDbArc
 50
270.0
 51
0.0
  0
ARC
  5
368
330
1F
100
AcDbEntity
  8
1
  6
Continuous
 62
     3
100
AcDbCircle
 10
-165.7
 20
20.70000000000002
 30
0.0
 40
0.5
100
AcDbArc
 50
90.0
 51
180.0
  0
ARC
  5
369
330
1F
100
AcDbEntity
  8
1
  6
Continuous
 62
     3
100
AcDbCircle
 10
-175.0000000000001
 20
27.5
 30
0.0
 40
1.000000000000016
100
AcDbArc
 50
168.4630409671858
 51
180.0
  0
ARC
  5
36A
330
1F
100
AcDbEntity
  8
1
  6
Continuous
 62
     3
100
AcDbCircle
 10
-166.7
 20
17.06602540378443
 30
0.0
 40
0.4999999999999918
100
AcDbArc
 50
300.0000000000005
 51
0.00000000000366
  0
ARC
  5
36B
330
1F
100
AcDbEntity
  8
1
  6
Continuous
 62
     3
100
AcDbCircle
 10
-113.0224055291753
 20
62.94376529062073
 30
0.0
 40
1.0
100
AcDbArc
 50
270.0
 51
314.9999999999974
  0
ARC
  5
36C
330
1F
100
AcDbEntity
  8
1
  6
Continuous
 62
     3
100
AcDbCircle
 10
-113.0224055291753
 20
84.44376529062068
 30
0.0
 40
0.9999999999999779
100
AcDbArc
 50
45.00000000000288
 51
90.0
  0
ARC
  5
36D
330
1F
100
AcDbEntity
  8
1
  6
Continuous
 62
     3
100
AcDbCircle
 10
-110.9439784044292
 20
85.19376529062072
 30
0.0
 40
0.9999999999999679
100
AcDbArc
 50
225.0000000000023
 51
270.0
  0
ARC
  5
36E
330
1F
100
AcDbEntity
  8
1
  6
Continuous
 62
     3
100
AcDbCircle
 10
-96.943978404429
 20
15.19999999999997
 30
0.0
 40
0.5000000000000391
100
AcDbArc
 50
90.0
 51
160.5287793655001
  0
ARC
  5
36F
330
1F
100
AcDbEntity
  8
1
  6
Continuous
 62
     3
100
AcDbCircle
 10
-99.85819196680222
 20
16.70000000000012
 30
0.0
 40
0.5
100
AcDbArc
 50
0.00000000000448
 51
90.0
  0
ARC
  5
370
330
1F
100
AcDbEntity
  8
1
  6
Continuous
 62
     3
100
AcDbCircle
 10
-102.8581919668023
 20
16.70000000000012
 30
0.0
 40
0.4999999999998508
100
AcDbArc
 50
90.0
 51
179.9999999999955
  0
ARC
  5
371
330
1F
100
AcDbEntity
  8
1
  6
Continuous
 62
     3
100
AcDbCircle
 10
-105.7724055291755
 20
15.19999999999997
 30
0.0
 40
0.5000000000000994
100
AcDbArc
 50
19.47122063450042
 51
90.0
  0
ARC
  5
372
330
1F
100
AcDbEntity
  8
1
  6
Continuous
 62
     3
100
AcDbCircle
 10
-94.06332185884025
 20
20.69999999999997
 30
0.0
 40
0.5
100
AcDbArc
 50
0.00000000000448
 51
90.0
  0
ARC
  5
373
330
1F
100
AcDbEntity
  8
1
  6
Continuous
 62
     3
100
AcDbCircle
 10
-108.6530620747643
 20
16.20000000000001
 30
0.0
 40
0.5
100
AcDbArc
 50
180.0
 51
270.0
  0
ARC
  5
374
330
1F
100
AcDbEntity
  8
1
  6
Continuous
 62
     3
100
AcDbCircle
 10
-108.6530620747643
 20
20.69999999999997
 30
0.0
 40
0.5000000000000391
100
AcDbArc
 50
90.0
 51
179.9999999999955
  0
ARC
  5
375
330
1F
100
AcDbEntity
  8
1
  6
Continuous
 62
     3
100
AcDbCircle
 10
-110.3581919668022
 20
11.5
 30
0.0
 40
1.0
100
AcDbArc
 50
270.0
 51
0.0
  0
ARC
  5
376
330
1F
100
AcDbEntity
  8
1
  6
Continuous
 62
     3
100
AcDbCircle
 10
-94.35819196680222
 20
27.19999999999998
 30
0.0
 40
1.0
100
AcDbArc
 50
0.0
 51
11.53695903281714
  0
ARC
  5
377
330
1F
100
AcDbEntity
  8
1
  6
Continuous
 62
     3
100
AcDbCircle
 10
-108.3581919668022
 20
27.19999999999998
 30
0.0
 40
1.000000000000039
100
AcDbArc
 50
168.4630409671834
 51
180.0
  0
ARC
  5
378
330
1F
100
AcDbEntity
  8
1
  6
Continuous
 62
     3
100
AcDbCircle
 10
-92.35819196680222
 20
11.5
 30
0.0
 40
1.0
100
AcDbArc
 50
180.0
 51
270.0
  0
ARC
  5
379
330
1F
100
AcDbEntity
  8
1
  6
Continuous
 62
     3
100
AcDbCircle
 10
-110.9439784044292
 20
62.19376529062072
 30
0.0
 40
1.0
100
AcDbArc
 50
90.0
 51
134.9999999999983
  0
HATCH
  5
37A
330
1F
100
AcDbEntity
  8
1
  6
Continuous
 62
     4
100
AcDbHatch
 10
0.0
 20
0.0
 30
0.0
210
0.0
220
0.0
230
1.0
  2
SOLID
 70
     1
 71
     1
 91
        2
 92
        1
 93
       12
 72
     1
 10
-60.7281149920445
 20
70.20781783610309
 11
-60.7281149920445
 21
70.53153876633564
 72
     1
 10
-60.7281149920445
 20
70.53153876633564
 11
-60.7281149920445
 21
70.81479458028915
 72
     1
 10
-60.7281149920445
 20
70.81479458028915
 11
-61.6404549920445
 21
70.81479458028915
 72
     1
 10
-61.6404549920445
 20
70.81479458028915
 11
-61.6404549920445
 21
71.0845620221496
 72
     1
 10
-61.6404549920445
 20
71.0845620221496
 11
-60.71407899204451
 21
72.79758527796355
 72
     1
 10
-60.71407899204451
 20
72.79758527796355
 11
-60.40528699204451
 21
72.79758527796355
 72
     1
 10
-60.40528699204451
 20
72.79758527796355
 11
-60.40528699204451
 21
71.0845620221496
 72
     1
 10
-60.40528699204451
 20
71.0845620221496
 11
-60.11053099204451
 21
71.0845620221496
 72
     1
 10
-60.11053099204451
 20
71.0845620221496
 11
-60.11053099204451
 21
70.81479458028915
 72
     1
 10
-60.11053099204451
 20
70.81479458028915
 11
-60.40528699204451
 21
70.81479458028915
 72
     1
 10
-60.40528699204451
 20
70.81479458028915
 11
-60.40528699204451
 21
70.20781783610309
 72
     1
 10
-60.40528699204451
 20
70.20781783610309
 11
-60.7281149920445
 21
70.20781783610309
 97
       12
330
D2
330
D1
330
D0
330
CF
330
CE
330
CD
330
CC
330
CB
330
CA
330
C9
330
C8
330
C7
 92
       16
 93
        3
 72
     1
 10
-60.7281149920445
 20
71.0845620221496
 11
-60.7281149920445
 21
72.24456202214961
 72
     1
 10
-60.7281149920445
 20
72.24456202214961
 11
-61.33166299204451
 21
71.0845620221496
 72
     1
 10
-61.33166299204451
 20
71.0845620221496
 11
-60.7281149920445
 21
71.0845620221496
 97
        3
330
C6
330
C5
330
C4
 75
     0
 76
     1
 98
        1
 10
0.0
 20
0.0
  0
HATCH
  5
37B
330
1F
100
AcDbEntity
  8
1
  6
Continuous
 62
     4
100
AcDbHatch
 10
0.0
 20
0.0
 30
0.0
210
0.0
220
0.0
230
1.0
  2
SOLID
 70
     1
 71
     1
 91
        1
 92
        1
 93
        9
 72
     1
 10
-65.20219546396685
 20
70.20781783610309
 11
-65.20219546396685
 21
71.2599108593589
 72
     1
 10
-65.20219546396685
 20
71.2599108593589
 11
-65.20219546396685
 21
72.25805039424263
 72
     1
 10
-65.20219546396685
 20
72.25805039424263
 11
-65.60923946396684
 21
72.25805039424263
 72
     1
 10
-65.60923946396684
 20
72.25805039424263
 11
-65.60923946396684
 21
72.43339923145193
 72
     1
 10
-65.60923946396684
 20
72.43339923145193
 11
-65.23026746396684
 21
72.51432946401006
 72
     1
 10
-65.23026746396684
 20
72.51432946401006
 11
-65.04779946396684
 21
72.79758527796355
 72
     1
 10
-65.04779946396684
 20
72.79758527796355
 11
-64.87936746396684
 21
72.79758527796355
 72
     1
 10
-64.87936746396684
 20
72.79758527796355
 11
-64.87936746396684
 21
70.20781783610309
 72
     1
 10
-64.87936746396684
 20
70.20781783610309
 11
-65.20219546396685
 21
70.20781783610309
 97
        9
330
DB
330
DA
330
D9
330
D8
330
D7
330
D6
330
D5
330
D4
330
D3
 75
     0
 76
     1
 98
        1
 10
0.0
 20
0.0
  0
HATCH
  5
37C
330
1F
100
AcDbEntity
  8
1
  6
Continuous
 62
     4
100
AcDbHatch
 10
0.0
 20
0.0
 30
0.0
210
0.0
220
0.0
230
1.0
  2
SOLID
 70
     1
 71
     1
 91
        1
 92
        1
 93
        4
 72
     1
 10
-63.81700613926464
 20
70.27389153178453
 11
-62.51678439477124
 21
72.79296129922639
 72
     1
 10
-62.51678439477124
 20
72.79296129922639
 11
-62.36482439477125
 21
72.71203106666825
 72
     1
 10
-62.36482439477125
 20
72.71203106666825
 11
-63.66504613926463
 21
70.1929612992264
 72
     1
 10
-63.66504613926463
 20
70.1929612992264
 11
-63.81700613926464
 21
70.27389153178453
 97
        4
330
DF
330
DE
330
DD
330
DC
 75
     0
 76
     1
 98
        1
 10
0.0
 20
0.0
  0
HATCH
  5
37D
330
1F
100
AcDbEntity
  8
1
  6
Continuous
 62
     4
100
AcDbHatch
 10
0.0
 20
0.0
 30
0.0
210
0.0
220
0.0
230
1.0
  2
SOLID
 70
     1
 71
     1
 91
        2
 92
        1
 93
       40
 72
     1
 10
-50.83980458922454
 20
72.61564029062072
 11
-50.91730458922453
 21
72.5187652906207
 72
     1
 10
-50.91730458922453
 20
72.5187652906207
 11
-50.99480458922463
 21
72.38959862395404
 72
     1
 10
-50.99480458922463
 20
72.38959862395404
 11
-51.04647125589125
 21
72.26043195728738
 72
     1
 10
-51.04647125589125
 20
72.26043195728738
 11
-51.09813792255793
 21
72.09897362395407
 72
     1
 10
-51.09813792255793
 20
72.09897362395407
 11
-51.12397125589123
 21
71.90522362395404
 72
     1
 10
-51.12397125589123
 20
71.90522362395404
 11
-51.14980458922463
 21
71.61459862395407
 72
     1
 10
-51.14980458922463
 20
71.61459862395407
 11
-51.14980458922463
 21
71.35626529062074
 72
     1
 10
-51.14980458922463
 20
71.35626529062074
 11
-51.12397125589123
 21
71.0656402906207
 72
     1
 10
-51.12397125589123
 20
71.0656402906207
 11
-51.09813792255793
 21
70.87189029062074
 72
     1
 10
-51.09813792255793
 20
70.87189029062074
 11
-51.04647125589125
 21
70.71043195728737
 72
     1
 10
-51.04647125589125
 20
70.71043195728737
 11
-50.99480458922463
 21
70.5812652906207
 72
     1
 10
-50.99480458922463
 20
70.5812652906207
 11
-50.91730458922453
 21
70.45209862395404
 72
     1
 10
-50.91730458922453
 20
70.45209862395404
 11
-50.83980458922454
 21
70.35522362395403
 72
     1
 10
-50.83980458922454
 20
70.35522362395403
 11
-50.76230458922453
 21
70.29064029062073
 72
     1
 10
-50.76230458922453
 20
70.29064029062073
 11
-50.63313792255792
 21
70.22605695728737
 72
     1
 10
-50.63313792255792
 20
70.22605695728737
 11
-50.52980458922463
 21
70.19376529062072
 72
     1
 10
-50.52980458922463
 20
70.19376529062072
 11
-50.34897125589123
 21
70.19376529062072
 72
     1
 10
-50.34897125589123
 20
70.19376529062072
 11
-50.24563792255793
 21
70.22605695728737
 72
     1
 10
-50.24563792255793
 20
70.22605695728737
 11
-50.11647125589124
 21
70.29064029062073
 72
     1
 10
-50.11647125589124
 20
70.29064029062073
 11
-50.03897125589123
 21
70.35522362395403
 72
     1
 10
-50.03897125589123
 20
70.35522362395403
 11
-49.96147125589124
 21
70.45209862395404
 72
     1
 10
-49.96147125589124
 20
70.45209862395404
 11
-49.88397125589123
 21
70.5812652906207
 72
     1
 10
-49.88397125589123
 20
70.5812652906207
 11
-49.83230458922463
 21
70.71043195728737
 72
     1
 10
-49.83230458922463
 20
70.71043195728737
 11
-49.78063792255793
 21
70.87189029062074
 72
     1
 10
-49.78063792255793
 20
70.87189029062074
 11
-49.75480458922465
 21
71.0656402906207
 72
     1
 10
-49.75480458922465
 20
71.0656402906207
 11
-49.72897125589122
 21
71.35626529062074
 72
     1
 10
-49.72897125589122
 20
71.35626529062074
 11
-49.72897125589122
 21
71.61459862395407
 72
     1
 10
-49.72897125589122
 20
71.61459862395407
 11
-49.75480458922465
 21
71.90522362395404
 72
     1
 10
-49.75480458922465
 20
71.90522362395404
 11
-49.78063792255793
 21
72.09897362395407
 72
     1
 10
-49.78063792255793
 20
72.09897362395407
 11
-49.83230458922463
 21
72.26043195728738
 72
     1
 10
-49.83230458922463
 20
72.26043195728738
 11
-49.88397125589123
 21
72.38959862395404
 72
     1
 10
-49.88397125589123
 20
72.38959862395404
 11
-49.96147125589124
 21
72.5187652906207
 72
     1
 10
-49.96147125589124
 20
72.5187652906207
 11
-50.03897125589123
 21
72.61564029062072
 72
     1
 10
-50.03897125589123
 20
72.61564029062072
 11
-50.11647125589124
 21
72.68022362395408
 72
     1
 10
-50.11647125589124
 20
72.68022362395408
 11
-50.24563792255793
 21
72.74480695728738
 72
     1
 10
-50.24563792255793
 20
72.74480695728738
 11
-50.34897125589123
 21
72.77709862395403
 72
     1
 10
-50.34897125589123
 20
72.77709862395403
 11
-50.52980458922463
 21
72.77709862395403
 72
     1
 10
-50.52980458922463
 20
72.77709862395403
 11
-50.63313792255792
 21
72.74480695728738
 72
     1
 10
-50.63313792255792
 20
72.74480695728738
 11
-50.76230458922453
 21
72.68022362395408
 72
     1
 10
-50.76230458922453
 20
72.68022362395408
 11
-50.83980458922454
 21
72.61564029062072
 97
       40
330
112
330
113
330
114
330
115
330
116
330
117
330
118
330
119
330
11A
330
11B
330
11C
330
11D
330
11E
330
11F
330
120
330
121
330
122
330
123
330
124
330
FD
330
FE
330
FF
330
100
330
101
330
102
330
103
330
104
330
105
330
106
330
107
330
108
330
109
330
10A
330
10B
330
10C
330
10D
330
10E
330
10F
330
110
330
111
 92
       16
 93
       24
 72
     1
 10
-50.34897125589123
 20
70.5166819572874
 11
-50.24563792255793
 21
70.5812652906207
 72
     1
 10
-50.24563792255793
 20
70.5812652906207
 11
-50.14230458922452
 21
70.67814029062072
 72
     1
 10
-50.14230458922452
 20
70.67814029062072
 11
-50.09063792255793
 21
70.77501529062073
 72
     1
 10
-50.09063792255793
 20
70.77501529062073
 11
-50.03897125589123
 21
70.93647362395404
 72
     1
 10
-50.03897125589123
 20
70.93647362395404
 11
-50.01313792255795
 21
71.29168195728738
 72
     1
 10
-50.01313792255795
 20
71.29168195728738
 11
-50.01313792255795
 21
71.67918195728737
 72
     1
 10
-50.01313792255795
 20
71.67918195728737
 11
-50.03897125589123
 21
72.0343902906207
 72
     1
 10
-50.03897125589123
 20
72.0343902906207
 11
-50.09063792255793
 21
72.19584862395408
 72
     1
 10
-50.09063792255793
 20
72.19584862395408
 11
-50.14230458922452
 21
72.29272362395403
 72
     1
 10
-50.14230458922452
 20
72.29272362395403
 11
-50.24563792255793
 21
72.38959862395404
 72
     1
 10
-50.24563792255793
 20
72.38959862395404
 11
-50.34897125589123
 21
72.4541819572874
 72
     1
 10
-50.34897125589123
 20
72.4541819572874
 11
-50.52980458922463
 21
72.4541819572874
 72
     1
 10
-50.52980458922463
 20
72.4541819572874
 11
-50.63313792255792
 21
72.38959862395404
 72
     1
 10
-50.63313792255792
 20
72.38959862395404
 11
-50.73647125589125
 21
72.29272362395403
 72
     1
 10
-50.73647125589125
 20
72.29272362395403
 11
-50.78813792255792
 21
72.19584862395408
 72
     1
 10
-50.78813792255792
 20
72.19584862395408
 11
-50.83980458922454
 21
72.0343902906207
 72
     1
 10
-50.83980458922454
 20
72.0343902906207
 11
-50.86563792255794
 21
71.67918195728737
 72
     1
 10
-50.86563792255794
 20
71.67918195728737
 11
-50.86563792255794
 21
71.29168195728738
 72
     1
 10
-50.86563792255794
 20
71.29168195728738
 11
-50.83980458922454
 21
70.93647362395404
 72
     1
 10
-50.83980458922454
 20
70.93647362395404
 11
-50.78813792255792
 21
70.77501529062073
 72
     1
 10
-50.78813792255792
 20
70.77501529062073
 11
-50.73647125589125
 21
70.67814029062072
 72
     1
 10
-50.73647125589125
 20
70.67814029062072
 11
-50.63313792255792
 21
70.5812652906207
 72
     1
 10
-50.63313792255792
 20
70.5812652906207
 11
-50.52980458922463
 21
70.5166819572874
 72
     1
 10
-50.52980458922463
 20
70.5166819572874
 11
-50.34897125589123
 21
70.5166819572874
 97
       24
330
125
330
126
330
127
330
128
330
129
330
12A
330
12B
330
12C
330
12D
330
12E
330
12F
330
130
330
131
330
132
330
133
330
134
330
135
330
136
330
137
330
138
330
139
330
13A
330
13B
330
13C
 75
     0
 76
     1
 98
        1
 10
0.0
 20
0.0
  0
HATCH
  5
37E
330
1F
100
AcDbEntity
  8
1
  6
Continuous
 62
     4
100
AcDbHatch
 10
0.0
 20
0.0
 30
0.0
210
0.0
220
0.0
230
1.0
  2
SOLID
 70
     1
 71
     1
 91
        2
 92
        1
 93
       40
 72
     1
 10
-52.12286014478013
 20
72.74480695728738
 11
-52.22619347811354
 21
72.77709862395403
 72
     1
 10
-52.22619347811354
 20
72.77709862395403
 11
-52.40702681144683
 21
72.77709862395403
 72
     1
 10
-52.40702681144683
 20
72.77709862395403
 11
-52.51036014478012
 21
72.74480695728738
 72
     1
 10
-52.51036014478012
 20
72.74480695728738
 11
-52.63952681144684
 21
72.68022362395408
 72
     1
 10
-52.63952681144684
 20
72.68022362395408
 11
-52.71702681144683
 21
72.61564029062072
 72
     1
 10
-52.71702681144683
 20
72.61564029062072
 11
-52.79452681144684
 21
72.5187652906207
 72
     1
 10
-52.79452681144684
 20
72.5187652906207
 11
-52.87202681144683
 21
72.38959862395404
 72
     1
 10
-52.87202681144683
 20
72.38959862395404
 11
-52.92369347811354
 21
72.26043195728738
 72
     1
 10
-52.92369347811354
 20
72.26043195728738
 11
-52.97536014478013
 21
72.09897362395407
 72
     1
 10
-52.97536014478013
 20
72.09897362395407
 11
-53.00119347811344
 21
71.90522362395404
 72
     1
 10
-53.00119347811344
 20
71.90522362395404
 11
-53.02702681144683
 21
71.61459862395407
 72
     1
 10
-53.02702681144683
 20
71.61459862395407
 11
-53.02702681144683
 21
71.35626529062074
 72
     1
 10
-53.02702681144683
 20
71.35626529062074
 11
-53.00119347811344
 21
71.0656402906207
 72
     1
 10
-53.00119347811344
 20
71.0656402906207
 11
-52.97536014478013
 21
70.87189029062074
 72
     1
 10
-52.97536014478013
 20
70.87189029062074
 11
-52.92369347811354
 21
70.71043195728737
 72
     1
 10
-52.92369347811354
 20
70.71043195728737
 11
-52.87202681144683
 21
70.5812652906207
 72
     1
 10
-52.87202681144683
 20
70.5812652906207
 11
-52.79452681144684
 21
70.45209862395404
 72
     1
 10
-52.79452681144684
 20
70.45209862395404
 11
-52.71702681144683
 21
70.35522362395403
 72
     1
 10
-52.71702681144683
 20
70.35522362395403
 11
-52.63952681144684
 21
70.29064029062073
 72
     1
 10
-52.63952681144684
 20
70.29064029062073
 11
-52.51036014478012
 21
70.22605695728737
 72
     1
 10
-52.51036014478012
 20
70.22605695728737
 11
-52.40702681144683
 21
70.19376529062072
 72
     1
 10
-52.40702681144683
 20
70.19376529062072
 11
-52.22619347811354
 21
70.19376529062072
 72
     1
 10
-52.22619347811354
 20
70.19376529062072
 11
-52.12286014478013
 21
70.22605695728737
 72
     1
 10
-52.12286014478013
 20
70.22605695728737
 11
-51.99369347811344
 21
70.29064029062073
 72
     1
 10
-51.99369347811344
 20
70.29064029062073
 11
-51.91619347811343
 21
70.35522362395403
 72
     1
 10
-51.91619347811343
 20
70.35522362395403
 11
-51.83869347811353
 21
70.45209862395404
 72
     1
 10
-51.83869347811353
 20
70.45209862395404
 11
-51.76119347811354
 21
70.5812652906207
 72
     1
 10
-51.76119347811354
 20
70.5812652906207
 11
-51.70952681144692
 21
70.71043195728737
 72
     1
 10
-51.70952681144692
 20
70.71043195728737
 11
-51.65786014478013
 21
70.87189029062074
 72
     1
 10
-51.65786014478013
 20
70.87189029062074
 11
-51.63202681144682
 21
71.0656402906207
 72
     1
 10
-51.63202681144682
 20
71.0656402906207
 11
-51.60619347811354
 21
71.35626529062074
 72
     1
 10
-51.60619347811354
 20
71.35626529062074
 11
-51.60619347811354
 21
71.61459862395407
 72
     1
 10
-51.60619347811354
 20
71.61459862395407
 11
-51.63202681144682
 21
71.90522362395404
 72
     1
 10
-51.63202681144682
 20
71.90522362395404
 11
-51.65786014478013
 21
72.09897362395407
 72
     1
 10
-51.65786014478013
 20
72.09897362395407
 11
-51.70952681144692
 21
72.26043195728738
 72
     1
 10
-51.70952681144692
 20
72.26043195728738
 11
-51.76119347811354
 21
72.38959862395404
 72
     1
 10
-51.76119347811354
 20
72.38959862395404
 11
-51.83869347811353
 21
72.5187652906207
 72
     1
 10
-51.83869347811353
 20
72.5187652906207
 11
-51.91619347811343
 21
72.61564029062072
 72
     1
 10
-51.91619347811343
 20
72.61564029062072
 11
-51.99369347811344
 21
72.68022362395408
 72
     1
 10
-51.99369347811344
 20
72.68022362395408
 11
-52.12286014478013
 21
72.74480695728738
 97
       40
330
157
330
158
330
159
330
15A
330
15B
330
15C
330
15D
330
15E
330
15F
330
160
330
161
330
162
330
163
330
164
330
13D
330
13E
330
13F
330
140
330
141
330
142
330
143
330
144
330
145
330
146
330
147
330
148
330
149
330
14A
330
14B
330
14C
330
14D
330
14E
330
14F
330
150
330
151
330
152
330
153
330
154
330
155
330
156
 92
       16
 93
       24
 72
     1
 10
-52.22619347811354
 20
70.5166819572874
 11
-52.12286014478013
 21
70.5812652906207
 72
     1
 10
-52.12286014478013
 20
70.5812652906207
 11
-52.01952681144684
 21
70.67814029062072
 72
     1
 10
-52.01952681144684
 20
70.67814029062072
 11
-51.96786014478013
 21
70.77501529062073
 72
     1
 10
-51.96786014478013
 20
70.77501529062073
 11
-51.91619347811343
 21
70.93647362395404
 72
     1
 10
-51.91619347811343
 20
70.93647362395404
 11
-51.89036014478015
 21
71.29168195728738
 72
     1
 10
-51.89036014478015
 20
71.29168195728738
 11
-51.89036014478015
 21
71.67918195728737
 72
     1
 10
-51.89036014478015
 20
71.67918195728737
 11
-51.91619347811343
 21
72.0343902906207
 72
     1
 10
-51.91619347811343
 20
72.0343902906207
 11
-51.96786014478013
 21
72.19584862395408
 72
     1
 10
-51.96786014478013
 20
72.19584862395408
 11
-52.01952681144684
 21
72.29272362395403
 72
     1
 10
-52.01952681144684
 20
72.29272362395403
 11
-52.12286014478013
 21
72.38959862395404
 72
     1
 10
-52.12286014478013
 20
72.38959862395404
 11
-52.22619347811354
 21
72.4541819572874
 72
     1
 10
-52.22619347811354
 20
72.4541819572874
 11
-52.40702681144683
 21
72.4541819572874
 72
     1
 10
-52.40702681144683
 20
72.4541819572874
 11
-52.51036014478012
 21
72.38959862395404
 72
     1
 10
-52.51036014478012
 20
72.38959862395404
 11
-52.61369347811353
 21
72.29272362395403
 72
     1
 10
-52.61369347811353
 20
72.29272362395403
 11
-52.66536014478024
 21
72.19584862395408
 72
     1
 10
-52.66536014478024
 20
72.19584862395408
 11
-52.71702681144683
 21
72.0343902906207
 72
     1
 10
-52.71702681144683
 20
72.0343902906207
 11
-52.74286014478022
 21
71.67918195728737
 72
     1
 10
-52.74286014478022
 20
71.67918195728737
 11
-52.74286014478022
 21
71.29168195728738
 72
     1
 10
-52.74286014478022
 20
71.29168195728738
 11
-52.71702681144683
 21
70.93647362395404
 72
     1
 10
-52.71702681144683
 20
70.93647362395404
 11
-52.66536014478024
 21
70.77501529062073
 72
     1
 10
-52.66536014478024
 20
70.77501529062073
 11
-52.61369347811353
 21
70.67814029062072
 72
     1
 10
-52.61369347811353
 20
70.67814029062072
 11
-52.51036014478012
 21
70.5812652906207
 72
     1
 10
-52.51036014478012
 20
70.5812652906207
 11
-52.40702681144683
 21
70.5166819572874
 72
     1
 10
-52.40702681144683
 20
70.5166819572874
 11
-52.22619347811354
 21
70.5166819572874
 97
       24
330
165
330
166
330
167
330
168
330
169
330
16A
330
16B
330
16C
330
16D
330
16E
330
16F
330
170
330
171
330
172
330
173
330
174
330
175
330
176
330
177
330
178
330
179
330
17A
330
17B
330
17C
 75
     0
 76
     1
 98
        1
 10
0.0
 20
0.0
  0
HATCH
  5
37F
330
1F
100
AcDbEntity
  8
1
  6
Continuous
 62
     4
100
AcDbHatch
 10
0.0
 20
0.0
 30
0.0
210
0.0
220
0.0
230
1.0
  2
SOLID
 70
     1
 71
     1
 91
        1
 92
        1
 93
       67
 72
     1
 10
-54.10341570033563
 20
72.77709862395403
 11
-54.25841570033575
 21
72.77709862395403
 72
     1
 10
-54.25841570033575
 20
72.77709862395403
 11
-54.38758236700232
 21
72.74480695728738
 72
     1
 10
-54.38758236700232
 20
72.74480695728738
 11
-54.54258236700233
 21
72.64793195728737
 72
     1
 10
-54.54258236700233
 20
72.64793195728737
 11
-54.64591570033574
 21
72.5187652906207
 72
     1
 10
-54.64591570033574
 20
72.5187652906207
 11
-54.74924903366903
 21
72.32501529062074
 72
     1
 10
-54.74924903366903
 20
72.32501529062074
 11
-54.77508236700243
 21
72.16355695728737
 72
     1
 10
-54.77508236700243
 20
72.16355695728737
 11
-54.77508236700243
 21
72.0343902906207
 72
     1
 10
-54.77508236700243
 20
72.0343902906207
 11
-54.49091570033573
 21
72.0343902906207
 72
     1
 10
-54.49091570033573
 20
72.0343902906207
 11
-54.49091570033573
 21
72.16355695728737
 72
     1
 10
-54.49091570033573
 20
72.16355695728737
 11
-54.46508236700234
 21
72.26043195728738
 72
     1
 10
-54.46508236700234
 20
72.26043195728738
 11
-54.41341570033575
 21
72.35730695728739
 72
     1
 10
-54.41341570033575
 20
72.35730695728739
 11
-54.33591570033573
 21
72.42189029062075
 72
     1
 10
-54.33591570033573
 20
72.42189029062075
 11
-54.23258236700244
 21
72.4541819572874
 72
     1
 10
-54.23258236700244
 20
72.4541819572874
 11
-54.12924903366903
 21
72.4541819572874
 72
     1
 10
-54.12924903366903
 20
72.4541819572874
 11
-54.02591570033573
 21
72.42189029062075
 72
     1
 10
-54.02591570033573
 20
72.42189029062075
 11
-53.94841570033574
 21
72.35730695728739
 72
     1
 10
-53.94841570033574
 20
72.35730695728739
 11
-53.89674903366912
 21
72.26043195728738
 72
     1
 10
-53.89674903366912
 20
72.26043195728738
 11
-53.87091570033573
 21
72.16355695728737
 72
     1
 10
-53.87091570033573
 20
72.16355695728737
 11
-53.87091570033573
 21
72.0343902906207
 72
     1
 10
-53.87091570033573
 20
72.0343902906207
 11
-53.89674903366912
 21
71.93751529062075
 72
     1
 10
-53.89674903366912
 20
71.93751529062075
 11
-53.94841570033574
 21
71.84064029062074
 72
     1
 10
-53.94841570033574
 20
71.84064029062074
 11
-54.02591570033573
 21
71.77605695728738
 72
     1
 10
-54.02591570033573
 20
71.77605695728738
 11
-54.12924903366903
 21
71.74376529062073
 72
     1
 10
-54.12924903366903
 20
71.74376529062073
 11
-54.23258236700244
 21
71.74376529062073
 72
     1
 10
-54.23258236700244
 20
71.74376529062073
 11
-54.23258236700244
 21
71.45314029062075
 72
     1
 10
-54.23258236700244
 20
71.45314029062075
 11
-54.12924903366903
 21
71.45314029062075
 72
     1
 10
-54.12924903366903
 20
71.45314029062075
 11
-54.00008236700242
 21
71.42084862395404
 72
     1
 10
-54.00008236700242
 20
71.42084862395404
 11
-53.89674903366912
 21
71.32397362395403
 72
     1
 10
-53.89674903366912
 20
71.32397362395403
 11
-53.81924903366914
 21
71.19480695728737
 72
     1
 10
-53.81924903366914
 20
71.19480695728737
 11
-53.79341570033574
 21
71.0656402906207
 72
     1
 10
-53.79341570033574
 20
71.0656402906207
 11
-53.79341570033574
 21
70.93647362395404
 72
     1
 10
-53.79341570033574
 20
70.93647362395404
 11
-53.81924903366914
 21
70.80730695728738
 72
     1
 10
-53.81924903366914
 20
70.80730695728738
 11
-53.89674903366912
 21
70.67814029062072
 72
     1
 10
-53.89674903366912
 20
70.67814029062072
 11
-54.00008236700242
 21
70.5812652906207
 72
     1
 10
-54.00008236700242
 20
70.5812652906207
 11
-54.12924903366903
 21
70.54897362395405
 72
     1
 10
-54.12924903366903
 20
70.54897362395405
 11
-54.23258236700244
 21
70.54897362395405
 72
     1
 10
-54.23258236700244
 20
70.54897362395405
 11
-54.36174903366913
 21
70.5812652906207
 72
     1
 10
-54.36174903366913
 20
70.5812652906207
 11
-54.46508236700234
 21
70.67814029062072
 72
     1
 10
-54.46508236700234
 20
70.67814029062072
 11
-54.54258236700233
 21
70.80730695728738
 72
     1
 10
-54.54258236700233
 20
70.80730695728738
 11
-54.56841570033572
 21
70.93647362395404
 72
     1
 10
-54.56841570033572
 20
70.93647362395404
 11
-54.56841570033572
 21
71.0656402906207
 72
     1
 10
-54.56841570033572
 20
71.0656402906207
 11
-54.87841570033572
 21
71.0656402906207
 72
     1
 10
-54.87841570033572
 20
71.0656402906207
 11
-54.87841570033572
 21
70.90418195728739
 72
     1
 10
-54.87841570033572
 20
70.90418195728739
 11
-54.82674903366913
 21
70.67814029062072
 72
     1
 10
-54.82674903366913
 20
70.67814029062072
 11
-54.74924903366903
 21
70.5166819572874
 72
     1
 10
-54.74924903366903
 20
70.5166819572874
 11
-54.62008236700234
 21
70.35522362395403
 72
     1
 10
-54.62008236700234
 20
70.35522362395403
 11
-54.46508236700234
 21
70.25834862395408
 72
     1
 10
-54.46508236700234
 20
70.25834862395408
 11
-54.25841570033575
 21
70.19376529062072
 72
     1
 10
-54.25841570033575
 20
70.19376529062072
 11
-54.10341570033563
 21
70.19376529062072
 72
     1
 10
-54.10341570033563
 20
70.19376529062072
 11
-53.89674903366912
 21
70.25834862395408
 72
     1
 10
-53.89674903366912
 20
70.25834862395408
 11
-53.74174903366912
 21
70.35522362395403
 72
     1
 10
-53.74174903366912
 20
70.35522362395403
 11
-53.61258236700243
 21
70.5166819572874
 72
     1
 10
-53.61258236700243
 20
70.5166819572874
 11
-53.53508236700245
 21
70.67814029062072
 72
     1
 10
-53.53508236700245
 20
70.67814029062072
 11
-53.48341570033563
 21
70.90418195728739
 72
     1
 10
-53.48341570033563
 20
70.90418195728739
 11
-53.48341570033563
 21
71.0656402906207
 72
     1
 10
-53.48341570033563
 20
71.0656402906207
 11
-53.53508236700245
 21
71.29168195728738
 72
     1
 10
-53.53508236700245
 20
71.29168195728738
 11
-53.63841570033574
 21
71.4854319572874
 72
     1
 10
-53.63841570033574
 20
71.4854319572874
 11
-53.76758236700235
 21
71.61459862395407
 72
     1
 10
-53.76758236700235
 20
71.61459862395407
 11
-53.71591570033573
 21
71.67918195728737
 72
     1
 10
-53.71591570033573
 20
71.67918195728737
 11
-53.61258236700243
 21
71.87293195728739
 72
     1
 10
-53.61258236700243
 20
71.87293195728739
 11
-53.58674903366904
 21
72.0343902906207
 72
     1
 10
-53.58674903366904
 20
72.0343902906207
 11
-53.58674903366904
 21
72.16355695728737
 72
     1
 10
-53.58674903366904
 20
72.16355695728737
 11
-53.61258236700243
 21
72.32501529062074
 72
     1
 10
-53.61258236700243
 20
72.32501529062074
 11
-53.71591570033573
 21
72.5187652906207
 72
     1
 10
-53.71591570033573
 20
72.5187652906207
 11
-53.81924903366914
 21
72.64793195728737
 72
     1
 10
-53.81924903366914
 20
72.64793195728737
 11
-53.97424903366903
 21
72.74480695728738
 72
     1
 10
-53.97424903366903
 20
72.74480695728738
 11
-54.10341570033563
 21
72.77709862395403
 97
       67
330
197
330
198
330
199
330
19A
330
19B
330
19C
330
19D
330
19E
330
19F
330
1A0
330
1A1
330
1A2
330
1A3
330
1A4
330
1A5
330
1A6
330
1A7
330
1A8
330
1A9
330
1AA
330
1AB
330
1AC
330
1AD
330
1AE
330
1AF
330
1B0
330
1B1
330
1B2
330
1B3
330
1B4
330
1B5
330
1B6
330
1B7
330
1B8
330
1B9
330
1BA
330
1BB
330
1BC
330
1BD
330
1BE
330
1BF
330
17D
330
17E
330
17F
330
180
330
181
330
182
330
183
330
184
330
185
330
186
330
187
330
188
330
189
330
18A
330
18B
330
18C
330
18D
330
18E
330
18F
330
190
330
191
330
192
330
193
330
194
330
195
330
196
 75
     0
 76
     1
 98
        1
 10
0.0
 20
0.0
  0
HATCH
  5
380
330
1F
100
AcDbEntity
  8
1
  6
Continuous
 62
     4
100
AcDbHatch
 10
0.0
 20
0.0
 30
0.0
210
0.0
220
0.0
230
1.0
  2
SOLID
 70
     1
 71
     1
 91
        1
 92
        1
 93
        4
 72
     1
 10
-58.65869347811352
 20
71.42084862395404
 11
-58.65869347811352
 21
71.13022362395407
 72
     1
 10
-58.65869347811352
 20
71.13022362395407
 11
-56.92786014478014
 21
71.13022362395407
 72
     1
 10
-56.92786014478014
 20
71.13022362395407
 11
-56.92786014478014
 21
71.42084862395404
 72
     1
 10
-56.92786014478014
 20
71.42084862395404
 11
-58.65869347811352
 21
71.42084862395404
 97
        4
330
1C0
330
1C1
330
1C2
330
1C3
 75
     0
 76
     1
 98
        1
 10
0.0
 20
0.0
  0
HATCH
  5
381
330
1F
100
AcDbEntity
  8
1
  6
Continuous
 62
     4
100
AcDbHatch
 10
0.0
 20
0.0
 30
0.0
210
0.0
220
0.0
230
1.0
  2
SOLID
 70
     1
 71
     1
 91
        1
 92
        1
 93
       12
 72
     1
 10
-65.60923946396684
 20
75.40978117286073
 11
-65.60923946396684
 21
73.69376529062077
 72
     1
 10
-65.60923946396684
 20
73.69376529062077
 11
-64.87366416284684
 21
73.69376529062077
 72
     1
 10
-64.87366416284684
 20
73.69376529062077
 11
-64.87366416284684
 21
74.42909572646073
 72
     1
 10
-64.87366416284684
 20
74.42909572646073
 11
-63.55031424361474
 21
74.42909572646073
 72
     1
 10
-63.55031424361474
 20
74.42909572646073
 11
-63.55031424361474
 21
73.69376529062077
 72
     1
 10
-63.55031424361474
 20
73.69376529062077
 11
-62.81473894249473
 21
73.69376529062077
 72
     1
 10
-62.81473894249473
 20
73.69376529062077
 11
-62.81473894249473
 21
75.40978117286073
 72
     1
 10
-62.81473894249473
 20
75.40978117286073
 11
-63.55031424361474
 21
75.40978117286073
 72
     1
 10
-63.55031424361474
 20
75.40978117286073
 11
-63.55031424361474
 21
74.67445073702078
 72
     1
 10
-63.55031424361474
 20
74.67445073702078
 11
-64.87366416284684
 21
74.67445073702078
 72
     1
 10
-64.87366416284684
 20
74.67445073702078
 11
-64.87366416284684
 21
75.40978117286073
 72
     1
 10
-64.87366416284684
 20
75.40978117286073
 11
-65.60923946396684
 21
75.40978117286073
 97
       12
330
1C5
330
1C6
330
1C7
330
1C8
330
1C9
330
1CA
330
1CB
330
1CC
330
1CD
330
1CE
330
1CF
330
1C4
 75
     0
 76
     1
 98
        1
 10
0.0
 20
0.0
  0
HATCH
  5
382
330
1F
100
AcDbEntity
  8
1
  6
Continuous
 62
     4
100
AcDbHatch
 10
0.0
 20
0.0
 30
0.0
210
0.0
220
0.0
230
1.0
  2
SOLID
 70
     1
 71
     1
 91
        2
 92
        1
 93
        8
 72
     1
 10
-59.96737082914254
 20
75.40978117286073
 11
-58.93776129979864
 21
73.69376529062077
 72
     1
 10
-58.93776129979864
 20
73.69376529062077
 11
-59.82873046346313
 21
73.69376529062077
 72
     1
 10
-59.82873046346313
 20
73.69376529062077
 11
-60.06403620293193
 21
74.0859415230687
 72
     1
 10
-60.06403620293193
 20
74.0859415230687
 11
-61.37632756819673
 21
74.0859415230687
 72
     1
 10
-61.37632756819673
 20
74.0859415230687
 11
-61.63124211928795
 21
73.69376529062077
 72
     1
 10
-61.63124211928795
 20
73.69376529062077
 11
-62.12354718202184
 21
73.69376529062077
 72
     1
 10
-62.12354718202184
 20
73.69376529062077
 11
-61.00813685856585
 21
75.40978117286073
 72
     1
 10
-61.00813685856585
 20
75.40978117286073
 11
-59.96737082914254
 21
75.40978117286073
 97
        8
330
1D1
330
1D2
330
1D3
330
1D4
330
1D5
330
1D6
330
1D7
330
1D0
 92
       16
 93
        3
 72
     1
 10
-60.69393605825903
 20
75.13577461528058
 11
-60.18183599183425
 21
74.28227450457274
 72
     1
 10
-60.18183599183425
 20
74.28227450457274
 11
-61.24871113021894
 21
74.28227450457274
 72
     1
 10
-61.24871113021894
 20
74.28227450457274
 11
-60.69393605825903
 21
75.13577461528058
 97
        3
330
1D9
330
1D8
330
1DA
 75
     0
 76
     1
 98
        1
 10
0.0
 20
0.0
  0
HATCH
  5
383
330
1F
100
AcDbEntity
  8
1
  6
Continuous
 62
     4
100
AcDbHatch
 10
0.0
 20
0.0
 30
0.0
210
0.0
220
0.0
230
1.0
  2
SOLID
 70
     1
 71
     1
 91
        2
 92
        1
 93
        8
 72
     1
 10
-51.92775806395864
 20
75.40978117286073
 11
-52.96852409338183
 21
75.40978117286073
 72
     1
 10
-52.96852409338183
 20
75.40978117286073
 11
-54.08393441683782
 21
73.69376529062077
 72
     1
 10
-54.08393441683782
 20
73.69376529062077
 11
-53.59162935410384
 21
73.69376529062077
 72
     1
 10
-53.59162935410384
 20
73.69376529062077
 11
-53.33671480301263
 21
74.0859415230687
 72
     1
 10
-53.33671480301263
 20
74.0859415230687
 11
-52.02442343774783
 21
74.0859415230687
 72
     1
 10
-52.02442343774783
 20
74.0859415230687
 11
-51.78911769827894
 21
73.69376529062077
 72
     1
 10
-51.78911769827894
 20
73.69376529062077
 11
-50.89814853461462
 21
73.69376529062077
 72
     1
 10
-50.89814853461462
 20
73.69376529062077
 11
-51.92775806395864
 21
75.40978117286073
 97
        8
330
1E9
330
1EA
330
1EB
330
1EC
330
1ED
330
1E6
330
1E7
330
1E8
 92
       16
 93
        3
 72
     1
 10
-53.20909836503515
 20
74.28227450457274
 11
-52.65432329307484
 21
75.13577461528058
 72
     1
 10
-52.65432329307484
 20
75.13577461528058
 11
-52.14222322665015
 21
74.28227450457274
 72
     1
 10
-52.14222322665015
 20
74.28227450457274
 11
-53.20909836503515
 21
74.28227450457274
 97
        3
330
1EF
330
1EE
330
1F0
 75
     0
 76
     1
 98
        1
 10
0.0
 20
0.0
  0
HATCH
  5
384
330
1F
100
AcDbEntity
  8
1
  6
Continuous
 62
     4
100
AcDbHatch
 10
0.0
 20
0.0
 30
0.0
210
0.0
220
0.0
230
1.0
  2
SOLID
 70
     1
 71
     1
 91
        1
 92
        1
 93
        4
 72
     1
 10
-49.52976906831884
 20
75.0666269694687
 11
-49.52976906831884
 21
73.69376529062077
 72
     1
 10
-49.52976906831884
 20
73.69376529062077
 11
-50.26534436943882
 21
73.69376529062077
 72
     1
 10
-50.26534436943882
 20
73.69376529062077
 11
-50.26534436943882
 21
75.0666269694687
 72
     1
 10
-50.26534436943882
 20
75.0666269694687
 11
-49.52976906831884
 21
75.0666269694687
 97
        4
330
1F2
330
1F3
330
1F4
330
1F1
 75
     0
 76
     1
 98
        1
 10
0.0
 20
0.0
  0
HATCH
  5
385
330
1F
100
AcDbEntity
  8
1
  6
Continuous
 62
     4
100
AcDbHatch
 10
0.0
 20
0.0
 30
0.0
210
0.0
220
0.0
230
1.0
  2
SOLID
 70
     1
 71
     1
 91
        1
 92
        1
 93
       15
 72
     1
 10
-54.77512617731094
 20
75.40978117286073
 11
-54.77512617731094
 21
73.69376529062077
 72
     1
 10
-54.77512617731094
 20
73.69376529062077
 11
-55.51070147843083
 21
73.69376529062077
 72
     1
 10
-55.51070147843083
 20
73.69376529062077
 11
-55.51070147843083
 21
75.15471317286074
 72
     1
 10
-55.51070147843083
 20
75.15471317286074
 11
-55.70686835951383
 21
75.15471317286074
 72
     1
 10
-55.70686835951383
 20
75.15471317286074
 11
-56.21064349132092
 21
73.69376529062077
 72
     1
 10
-56.21064349132092
 20
73.69376529062077
 11
-57.11733466868643
 21
73.69376529062077
 72
     1
 10
-57.11733466868643
 20
73.69376529062077
 11
-57.67148731367402
 21
75.15471317286074
 72
     1
 10
-57.67148731367402
 20
75.15471317286074
 11
-57.86351400783875
 21
75.15471317286074
 72
     1
 10
-57.86351400783875
 20
75.15471317286074
 11
-57.86351400783875
 21
73.69376529062077
 72
     1
 10
-57.86351400783875
 20
73.69376529062077
 11
-58.30495713462284
 21
73.69376529062077
 72
     1
 10
-58.30495713462284
 20
73.69376529062077
 11
-58.30495713462284
 21
75.40978117286073
 72
     1
 10
-58.30495713462284
 20
75.40978117286073
 11
-56.99771823831702
 21
75.40978117286073
 72
     1
 10
-56.99771823831702
 20
75.40978117286073
 11
-56.54004165596683
 21
73.94521610933958
 72
     1
 10
-56.54004165596683
 20
73.94521610933958
 11
-56.08236507361644
 21
75.40978117286073
 72
     1
 10
-56.08236507361644
 20
75.40978117286073
 11
-54.77512617731094
 21
75.40978117286073
 97
       15
330
1DF
330
1E0
330
1F7
330
1F6
330
1E1
330
1E2
330
1F8
330
1F5
330
1E3
330
1E4
330
1E5
330
1DB
330
1DC
330
1DD
330
1DE
 75
     0
 76
     1
 98
        1
 10
0.0
 20
0.0
  0
HATCH
  5
386
330
1F
100
AcDbEntity
  8
1
  6
Continuous
 62
     4
100
AcDbHatch
 10
0.0
 20
0.0
 30
0.0
210
0.0
220
0.0
230
1.0
  2
SOLID
 70
     1
 71
     1
 91
        1
 92
        1
 93
       10
 72
     2
 10
-69.51767363403604
 20
76.06482126636774
 40
0.1235294117647506
 50
21.00151467701616
 51
104.9999999999392
 73
     1
 72
     1
 10
-69.54964539843093
 20
76.18414151549757
 11
-69.99230961368173
 21
76.06552999650307
 72
     1
 10
-69.99230961368173
 20
76.06552999650307
 11
-69.99230961368173
 21
77.49847117297367
 72
     2
 10
-69.89348608426982
 20
77.49847117297367
 40
0.0988235294117244
 50
180.0
 51
326.7380925865146
 73
     0
 72
     2
 10
-75.69399759322113
 20
73.6937652906206
 40
7.03580562659828
 50
326.7380925865552
 51
393.2619074134432
 73
     0
 72
     2
 10
-69.89348608426982
 20
69.88905940826771
 40
0.0988235294119022
 50
33.26190741345786
 51
180.0
 73
     0
 72
     1
 10
-69.99230961368173
 20
69.88905940826771
 11
-69.99230961368173
 21
71.3220005847383
 72
     1
 10
-69.99230961368173
 20
71.3220005847383
 11
-69.54964539843093
 21
71.2033890657438
 72
     2
 10
-69.51767363403604
 20
71.32270931487363
 40
0.1235294117646727
 50
255.0000000000609
 51
338.9984853229838
 73
     1
 72
     2
 10
-75.69399759322113
 20
73.6937652906206
 40
6.739335038363005
 50
338.9984853229842
 51
381.0015146770172
 73
     1
 97
       10
330
343
330
E1
330
E3
330
306
330
307
330
308
330
E4
330
E2
330
344
330
305
 75
     0
 76
     1
 98
        1
 10
0.0
 20
0.0
  0
HATCH
  5
387
330
1F
100
AcDbEntity
  8
1
  6
Continuous
 62
     4
100
AcDbHatch
 10
0.0
 20
0.0
 30
0.0
210
0.0
220
0.0
230
1.0
  2
SOLID
 70
     1
 71
     1
 91
        2
 92
        1
 93
        8
 72
     1
 10
-70.58525079015223
 20
77.32552999650312
 11
-72.56172137838755
 21
77.32552999650312
 72
     2
 10
-72.56172137838755
 20
77.02905940826776
 40
0.2964705882353655
 50
90.0
 51
180.0
 73
     1
 72
     1
 10
-72.85819196662274
 20
77.02905940826776
 11
-72.85819196662274
 21
76.63376529062072
 72
     2
 10
-72.56172137838755
 20
76.63376529062072
 40
0.296470588235195
 50
180.0
 51
270.0
 73
     1
 72
     1
 10
-72.56172137838755
 20
76.33729470238546
 11
-70.58525079015223
 21
76.33729470238546
 72
     2
 10
-70.58525079015223
 20
76.63376529062072
 40
0.2964705882352519
 50
270.0
 51
360.0
 73
     1
 72
     1
 10
-70.28878020191692
 20
76.63376529062072
 11
-70.28878020191692
 21
77.02905940826776
 72
     2
 10
-70.58525079015223
 20
77.02905940826776
 40
0.2964705882353087
 50
0.0
 51
90.0
 73
     1
 97
        8
330
F3
330
34E
330
F2
330
34D
330
F1
330
34A
330
F4
330
349
 92
       16
 93
        8
 72
     2
 10
-72.43819196662272
 20
76.90552999650305
 40
0.1235294117647072
 50
90.0
 51
180.0
 73
     1
 72
     1
 10
-72.56172137838755
 20
76.90552999650305
 11
-72.56172137838755
 21
76.75729470238542
 72
     2
 10
-72.43819196662272
 20
76.75729470238542
 40
0.1235294117648209
 50
180.0
 51
270.0
 73
     1
 72
     1
 10
-72.43819196662272
 20
76.63376529062072
 11
-70.70878020191682
 21
76.63376529062072
 72
     2
 10
-70.70878020191682
 20
76.75729470238542
 40
0.1235294117647072
 50
270.0
 51
360.0
 73
     1
 72
     1
 10
-70.58525079015223
 20
76.75729470238542
 11
-70.58525079015223
 21
76.90552999650305
 72
     2
 10
-70.70878020191682
 20
76.90552999650305
 40
0.1235294117645935
 50
0.0
 51
90.0
 73
     1
 72
     1
 10
-70.70878020191682
 20
77.02905940826776
 11
-72.43819196662272
 21
77.02905940826776
 97
        8
330
350
330
EE
330
34F
330
EF
330
34C
330
F0
330
34B
330
ED
 75
     0
 76
     1
 98
        1
 10
0.0
 20
0.0
  0
HATCH
  5
388
330
1F
100
AcDbEntity
  8
1
  6
Continuous
 62
     4
100
AcDbHatch
 10
0.0
 20
0.0
 30
0.0
210
0.0
220
0.0
230
1.0
  2
SOLID
 70
     1
 71
     1
 91
        1
 92
        1
 93
       28
 72
     1
 10
-70.58525079015223
 20
71.05023587885597
 11
-71.31673502338313
 21
71.05023587885597
 72
     2
 10
-71.31673502338313
 20
70.80317705532661
 40
0.2470588235293576
 50
90.0
 51
150.0000000000152
 73
     1
 72
     1
 10
-71.53069424078873
 20
70.92670646709126
 11
-71.82310517124304
 21
70.42023587885598
 72
     2
 10
-71.93008477994584
 20
70.48200058473839
 40
0.1235294117647641
 50
30.00000000001905
 51
90.0
 73
     0
 72
     1
 10
-71.93008477994584
 20
70.35847117297362
 11
-72.43819196662272
 21
70.35847117297362
 72
     2
 10
-72.43819196662272
 20
70.48200058473839
 40
0.1235294117648209
 50
90.0
 51
180.0
 73
     0
 72
     1
 10
-72.56172137838755
 20
70.48200058473839
 11
-72.56172137838755
 21
70.63023587885601
 72
     2
 10
-72.43819196662272
 20
70.63023587885601
 40
0.1235294117646504
 50
180.0
 51
270.0
 73
     0
 72
     1
 10
-72.43819196662272
 20
70.75376529062066
 11
-71.91936843721092
 21
70.75376529062066
 72
     1
 10
-71.91936843721092
 20
70.75376529062066
 11
-71.91936843721092
 21
71.05023587885597
 72
     1
 10
-71.91936843721092
 20
71.05023587885597
 11
-72.56172137838755
 21
71.05023587885597
 72
     2
 10
-72.56172137838755
 20
70.75376529062066
 40
0.2964705882353087
 50
90.0
 51
180.0
 73
     1
 72
     1
 10
-72.85819196662274
 20
70.75376529062066
 11
-72.85819196662274
 21
70.35847117297362
 72
     2
 10
-72.56172137838755
 20
70.35847117297362
 40
0.296470588235195
 50
180.0
 51
270.0
 73
     1
 72
     1
 10
-72.56172137838755
 20
70.06200058473831
 11
-71.83023714515653
 21
70.06200058473831
 72
     2
 10
-71.83023714515653
 20
70.30905940826784
 40
0.2470588235295281
 50
270.0
 51
329.9999999999563
 73
     1
 72
     1
 10
-71.61627792775104
 20
70.18552999650296
 11
-71.32386699729673
 21
70.69200058473825
 72
     2
 10
-71.21688738859385
 20
70.63023587885601
 40
0.1235294117646504
 50
209.9999999999308
 51
270.0
 73
     0
 72
     1
 10
-71.21688738859385
 20
70.75376529062066
 11
-70.70878020191682
 21
70.75376529062066
 72
     2
 10
-70.70878020191682
 20
70.63023587885601
 40
0.1235294117645935
 50
270.0
 51
360.0
 73
     0
 72
     1
 10
-70.58525079015223
 20
70.63023587885601
 11
-70.58525079015223
 21
70.48200058473839
 72
     2
 10
-70.70878020191682
 20
70.48200058473839
 40
0.1235294117647641
 50
0.0
 51
90.0
 73
     0
 72
     1
 10
-70.70878020191682
 20
70.35847117297362
 11
-71.22760373132854
 21
70.35847117297362
 72
     1
 10
-71.22760373132854
 20
70.35847117297362
 11
-71.22760373132854
 21
70.06200058473831
 72
     1
 10
-71.22760373132854
 20
70.06200058473831
 11
-70.58525079015223
 21
70.06200058473831
 72
     2
 10
-70.58525079015223
 20
70.35847117297362
 40
0.2964705882353087
 50
270.0
 51
360.0
 73
     1
 72
     1
 10
-70.28878020191692
 20
70.35847117297362
 11
-70.28878020191692
 21
70.75376529062066
 72
     2
 10
-70.58525079015223
 20
70.75376529062066
 40
0.2964705882353087
 50
0.0
 51
90.0
 73
     1
 97
       28
330
FB
330
347
330
EC
330
345
330
F7
330
357
330
F6
330
358
330
E9
330
EA
330
E5
330
356
330
FA
330
355
330
F9
330
348
330
EB
330
346
330
F5
330
353
330
F8
330
354
330
E7
330
E8
330
E6
330
352
330
FC
330
351
 75
     0
 76
     1
 98
        1
 10
0.0
 20
0.0
  0
HATCH
  5
389
330
1F
100
AcDbEntity
  8
1
  6
Continuous
 62
     4
100
AcDbHatch
 10
0.0
 20
0.0
 30
0.0
210
0.0
220
0.0
230
1.0
  2
SOLID
 70
     1
 71
     1
 91
        1
 92
        1
 93
        1
 72
     2
 10
-49.89755671887883
 20
76.14498917606073
 40
0.5393647522560912
 50
0.0
 51
360.0
 73
     1
 97
        1
330
331
 75
     0
 76
     1
 98
        1
 10
0.0
 20
0.0
  0
HATCH
  5
38A
330
1F
100
AcDbEntity
  8
1
  6
Continuous
 62
     4
100
AcDbHatch
 10
0.0
 20
0.0
 30
0.0
210
0.0
220
0.0
230
1.0
  2
SOLID
 70
     1
 71
     1
 91
        1
 92
        1
 93
        4
 72
     1
 10
-98.35819196680225
 20
75.69376529062072
 11
-98.35819196680225
 21
71.69376529062072
 72
     1
 10
-98.35819196680225
 20
71.69376529062072
 11
-99.85819196680225
 21
71.69376529062072
 72
     1
 10
-99.85819196680225
 20
71.69376529062072
 11
-99.85819196680225
 21
75.69376529062072
 72
     1
 10
-99.85819196680225
 20
75.69376529062072
 11
-98.35819196680225
 21
75.69376529062072
 97
        4
330
278
330
283
330
279
330
280
 75
     0
 76
     1
 98
        1
 10
0.0
 20
0.0
  0
HATCH
  5
38B
330
1F
100
AcDbEntity
  8
1
  6
Continuous
 62
     4
100
AcDbHatch
 10
0.0
 20
0.0
 30
0.0
210
0.0
220
0.0
230
1.0
  2
SOLID
 70
     1
 71
     1
 91
        1
 92
        1
 93
        4
 72
     1
 10
-100.6081919668023
 20
75.69376529062072
 11
-100.6081919668023
 21
71.69376529062072
 72
     1
 10
-100.6081919668023
 20
71.69376529062072
 11
-102.1081919668022
 21
71.69376529062072
 72
     1
 10
-102.1081919668022
 20
71.69376529062072
 11
-102.1081919668022
 21
75.69376529062072
 72
     1
 10
-102.1081919668022
 20
75.69376529062072
 11
-100.6081919668023
 21
75.69376529062072
 97
        4
330
27A
330
282
330
27B
330
27F
 75
     0
 76
     1
 98
        1
 10
0.0
 20
0.0
  0
HATCH
  5
38C
330
1F
100
AcDbEntity
  8
1
  6
Continuous
 62
     4
100
AcDbHatch
 10
0.0
 20
0.0
 30
0.0
210
0.0
220
0.0
230
1.0
  2
SOLID
 70
     1
 71
     1
 91
        1
 92
        1
 93
        4
 72
     1
 10
-102.8581919668023
 20
75.69376529062072
 11
-102.8581919668023
 21
71.69376529062072
 72
     1
 10
-102.8581919668023
 20
71.69376529062072
 11
-104.3581919668021
 21
71.69376529062072
 72
     1
 10
-104.3581919668021
 20
71.69376529062072
 11
-104.3581919668021
 21
75.69376529062072
 72
     1
 10
-104.3581919668021
 20
75.69376529062072
 11
-102.8581919668023
 21
75.69376529062072
 97
        4
330
27C
330
281
330
27D
330
27E
 75
     0
 76
     1
 98
        1
 10
0.0
 20
0.0
  0
ENDSEC
  0
SECTION
  2
OBJECTS
  0
DICTIONARY
  5
C
330
0
100
AcDbDictionary
281
     1
  3
ACAD_GROUP
350
D
  3
ACAD_LAYOUT
350
1A
  3
ACAD_MATERIAL
350
43
  3
ACAD_MLEADERSTYLE
350
38F
  3
ACAD_MLINESTYLE
350
17
  3
ACAD_PLOTSETTINGS
350
19
  3
ACAD_PLOTSTYLENAME
350
E
  3
ACAD_SCALELIST
350
47
  3
ACAD_VISUALSTYLE
350
2A
  3
AcDbVariableDictionary
350
38D
  0
DICTIONARY
  5
D
102
{ACAD_REACTORS
330
C
102
}
330
C
100
AcDbDictionary
281
     1
  0
DICTIONARY
  5
1A
102
{ACAD_REACTORS
330
C
102
}
330
C
100
AcDbDictionary
281
     1
  3
Layout1
350
1E
  3
Layout2
350
26
  3
Model
350
22
  0
DICTIONARY
  5
43
102
{ACAD_REACTORS
330
C
102
}
330
C
100
AcDbDictionary
281
     1
  3
ByBlock
350
45
  3
ByLayer
350
44
  3
Global
350
46
  0
DICTIONARY
  5
38F
102
{ACAD_REACTORS
330
C
102
}
330
C
100
AcDbDictionary
281
     1
  0
DICTIONARY
  5
17
102
{ACAD_REACTORS
330
C
102
}
330
C
100
AcDbDictionary
281
     1
  3
Standard
350
18
  0
DICTIONARY
  5
19
102
{ACAD_REACTORS
330
C
102
}
330
C
100
AcDbDictionary
281
     1
  0
ACDBDICTIONARYWDFLT
  5
E
102
{ACAD_REACTORS
330
C
102
}
330
C
100
AcDbDictionary
281
     1
  3
Normal
350
F
100
AcDbDictionaryWithDefault
340
F
  0
DICTIONARY
  5
47
102
{ACAD_REACTORS
330
C
102
}
330
C
100
AcDbDictionary
281
     1
  3
A0
350
48
  3
A1
350
49
  3
A2
350
4A
  3
A3
350
4B
  3
A4
350
4C
  3
A5
350
4D
  3
A6
350
4E
  3
A7
350
4F
  3
A8
350
50
  3
A9
350
51
  3
B0
350
52
  3
B1
350
53
  3
B2
350
54
  3
B3
350
55
  3
B4
350
56
  3
B5
350
57
  3
B6
350
58
  3
B7
350
59
  3
B8
350
5A
  3
B9
350
5B
  3
C0
350
5C
  3
C1
350
5D
  3
C2
350
5E
  3
C3
350
5F
  3
C4
350
60
  3
C5
350
61
  3
C6
350
62
  3
C7
350
63
  3
C8
350
64
  3
C9
350
65
  3
D0
350
66
  3
D1
350
67
  3
D2
350
68
  0
DICTIONARY
  5
2A
102
{ACAD_REACTORS
330
C
102
}
330
C
100
AcDbDictionary
281
     1
  3
2dWireframe
350
2F
  3
Basic
350
32
  3
Brighten
350
36
  3
ColorChange
350
3A
  3
Conceptual
350
34
  3
Dim
350
35
  3
EdgeColorOff
350
3D
  3
Facepattern
350
39
  3
Flat
350
2B
  3
FlatWithEdges
350
2C
  3
Gouraud
350
2D
  3
GouraudWithEdges
350
2E
  3
Hidden
350
31
  3
JitterOff
350
3B
  3
Linepattern
350
38
  3
OverhangOff
350
3C
  3
Realistic
350
33
  3
Shaded
350
42
  3
Shaded with edges
350
41
  3
Shades of Gray
350
3E
  3
Sketchy
350
3F
  3
Thicken
350
37
  3
Wireframe
350
30
  3
X-Ray
350
40
  0
DICTIONARY
  5
38D
102
{ACAD_REACTORS
330
C
102
}
330
C
100
AcDbDictionary
281
     1
  3
CANNOSCALE
350
394
  3
DIMASSOC
350
392
  3
HIDETEXT
350
393
  3
MSLTSCALE
350
395
  0
LAYOUT
  5
1E
102
{ACAD_REACTORS
330
1A
102
}
330
1A
100
AcDbPlotSettings
  1

  2
none_device
  4

  6

 40
0.0
 41
0.0
 42
0.0
 43
0.0
 44
0.0
 45
0.0
 46
0.0
 47
0.0
 48
0.0
 49
0.0
140
0.0
141
0.0
142
1.0
143
1.0
 70
   688
 72
     0
 73
     0
 74
     5
  7

 75
    16
147
1.0
148
0.0
149
0.0
100
AcDbLayout
  1
Layout1
 70
     1
 71
     1
 10
0.0
 20
0.0
 11
12.0
 21
9.0
 12
0.0
 22
0.0
 32
0.0
 14
1.00000000000000E+20
 24
1.00000000000000E+20
 34
1.00000000000000E+20
 15
-1.00000000000000E+20
 25
-1.00000000000000E+20
 35
-1.00000000000000E+20
146
0.0
 13
0.0
 23
0.0
 33
0.0
 16
1.0
 26
0.0
 36
0.0
 17
0.0
 27
1.0
 37
0.0
 76
     0
330
1B
  0
LAYOUT
  5
26
102
{ACAD_REACTORS
330
1A
102
}
330
1A
100
AcDbPlotSettings
  1

  2
none_device
  4

  6

 40
0.0
 41
0.0
 42
0.0
 43
0.0
 44
0.0
 45
0.0
 46
0.0
 47
0.0
 48
0.0
 49
0.0
140
0.0
141
0.0
142
1.0
143
1.0
 70
   688
 72
     0
 73
     0
 74
     5
  7

 75
    16
147
1.0
148
0.0
149
0.0
100
AcDbLayout
  1
Layout2
 70
     1
 71
     2
 10
0.0
 20
0.0
 11
0.0
 21
0.0
 12
0.0
 22
0.0
 32
0.0
 14
0.0
 24
0.0
 34
0.0
 15
0.0
 25
0.0
 35
0.0
146
0.0
 13
0.0
 23
0.0
 33
0.0
 16
1.0
 26
0.0
 36
0.0
 17
0.0
 27
1.0
 37
0.0
 76
     0
330
23
  0
LAYOUT
  5
22
102
{ACAD_REACTORS
330
1A
102
}
330
1A
100
AcDbPlotSettings
  1

  2
none_device
  4
Letter_(8.50_x_11.00_Inches)
  6

 40
6.35
 41
6.35
 42
6.35000508
 43
6.35000508
 44
215.9
 45
279.4
 46
0.0
 47
0.0
 48
0.0
 49
0.0
140
0.0
141
0.0
142
1.0
143
1.0
 70
  1712
 72
     0
 73
     0
 74
     0
  7

 75
     0
147
1.0
148
0.0
149
0.0
100
AcDbLayout
  1
Model
 70
     1
 71
     0
 10
0.0
 20
0.0
 11
12.0
 21
9.0
 12
0.0
 22
0.0
 32
0.0
 14
-181.0
 24
-22.54048149838889
 34
0.0
 15
-38.93742629353619
 25
85.44376529062072
 35
0.0
146
0.0
 13
0.0
 23
0.0
 33
0.0
 16
1.0
 26
0.0
 36
0.0
 17
0.0
 27
1.0
 37
0.0
 76
     0
330
1F
331
29
  0
MATERIAL
  5
45
102
{ACAD_REACTORS
330
43
102
}
102
{ACAD_XDICTIONARY
360
3C8
102
}
330
43
100
AcDbMaterial
  1
ByBlock
  0
MATERIAL
  5
44
102
{ACAD_REACTORS
330
43
102
}
102
{ACAD_XDICTIONARY
360
3C6
102
}
330
43
100
AcDbMaterial
  1
ByLayer
  0
MATERIAL
  5
46
102
{ACAD_REACTORS
330
43
102
}
102
{ACAD_XDICTIONARY
360
3CA
102
}
330
43
100
AcDbMaterial
  1
Global
  0
MLINESTYLE
  5
18
102
{ACAD_REACTORS
330
17
102
}
330
17
100
AcDbMlineStyle
  2
Standard
 70
     0
  3

 62
   256
 51
90.0
 52
90.0
 71
     2
 49
0.5
 62
   256
  6
BYLAYER
 49
-0.5
 62
   256
  6
BYLAYER
  0
ACDBPLACEHOLDER
  5
F
102
{ACAD_REACTORS
330
E
102
}
330
E
  0
SCALE
  5
48
102
{ACAD_REACTORS
330
47
102
}
330
47
100
AcDbScale
 70
     0
300
1:1
140
1.0
141
1.0
290
     1
  0
SCALE
  5
49
102
{ACAD_REACTORS
330
47
102
}
330
47
100
AcDbScale
 70
     0
300
1:2
140
1.0
141
2.0
290
     0
  0
SCALE
  5
4A
102
{ACAD_REACTORS
330
47
102
}
330
47
100
AcDbScale
 70
     0
300
1:4
140
1.0
141
4.0
290
     0
  0
SCALE
  5
4B
102
{ACAD_REACTORS
330
47
102
}
330
47
100
AcDbScale
 70
     0
300
1:5
140
1.0
141
5.0
290
     0
  0
SCALE
  5
4C
102
{ACAD_REACTORS
330
47
102
}
330
47
100
AcDbScale
 70
     0
300
1:8
140
1.0
141
8.0
290
     0
  0
SCALE
  5
4D
102
{ACAD_REACTORS
330
47
102
}
330
47
100
AcDbScale
 70
     0
300
1:10
140
1.0
141
10.0
290
     0
  0
SCALE
  5
4E
102
{ACAD_REACTORS
330
47
102
}
330
47
100
AcDbScale
 70
     0
300
1:16
140
1.0
141
16.0
290
     0
  0
SCALE
  5
4F
102
{ACAD_REACTORS
330
47
102
}
330
47
100
AcDbScale
 70
     0
300
1:20
140
1.0
141
20.0
290
     0
  0
SCALE
  5
50
102
{ACAD_REACTORS
330
47
102
}
330
47
100
AcDbScale
 70
     0
300
1:30
140
1.0
141
30.0
290
     0
  0
SCALE
  5
51
102
{ACAD_REACTORS
330
47
102
}
330
47
100
AcDbScale
 70
     0
300
1:40
140
1.0
141
40.0
290
     0
  0
SCALE
  5
52
102
{ACAD_REACTORS
330
47
102
}
330
47
100
AcDbScale
 70
     0
300
1:50
140
1.0
141
50.0
290
     0
  0
SCALE
  5
53
102
{ACAD_REACTORS
330
47
102
}
330
47
100
AcDbScale
 70
     0
300
1:100
140
1.0
141
100.0
290
     0
  0
SCALE
  5
54
102
{ACAD_REACTORS
330
47
102
}
330
47
100
AcDbScale
 70
     0
300
2:1
140
2.0
141
1.0
290
     0
  0
SCALE
  5
55
102
{ACAD_REACTORS
330
47
102
}
330
47
100
AcDbScale
 70
     0
300
4:1
140
4.0
141
1.0
290
     0
  0
SCALE
  5
56
102
{ACAD_REACTORS
330
47
102
}
330
47
100
AcDbScale
 70
     0
300
8:1
140
8.0
141
1.0
290
     0
  0
SCALE
  5
57
102
{ACAD_REACTORS
330
47
102
}
330
47
100
AcDbScale
 70
     0
300
10:1
140
10.0
141
1.0
290
     0
  0
SCALE
  5
58
102
{ACAD_REACTORS
330
47
102
}
330
47
100
AcDbScale
 70
     0
300
100:1
140
100.0
141
1.0
290
     0
  0
SCALE
  5
59
102
{ACAD_REACTORS
330
47
102
}
330
47
100
AcDbScale
 70
     0
300
1/128" = 1'-0"
140
0.0078125
141
12.0
290
     0
  0
SCALE
  5
5A
102
{ACAD_REACTORS
330
47
102
}
330
47
100
AcDbScale
 70
     0
300
1/64" = 1'-0"
140
0.015625
141
12.0
290
     0
  0
SCALE
  5
5B
102
{ACAD_REACTORS
330
47
102
}
330
47
100
AcDbScale
 70
     0
300
1/32" = 1'-0"
140
0.03125
141
12.0
290
     0
  0
SCALE
  5
5C
102
{ACAD_REACTORS
330
47
102
}
330
47
100
AcDbScale
 70
     0
300
1/16" = 1'-0"
140
0.0625
141
12.0
290
     0
  0
SCALE
  5
5D
102
{ACAD_REACTORS
330
47
102
}
330
47
100
AcDbScale
 70
     0
300
3/32" = 1'-0"
140
0.09375
141
12.0
290
     0
  0
SCALE
  5
5E
102
{ACAD_REACTORS
330
47
102
}
330
47
100
AcDbScale
 70
     0
300
1/8" = 1'-0"
140
0.125
141
12.0
290
     0
  0
SCALE
  5
5F
102
{ACAD_REACTORS
330
47
102
}
330
47
100
AcDbScale
 70
     0
300
3/16" = 1'-0"
140
0.1875
141
12.0
290
     0
  0
SCALE
  5
60
102
{ACAD_REACTORS
330
47
102
}
330
47
100
AcDbScale
 70
     0
300
1/4" = 1'-0"
140
0.25
141
12.0
290
     0
  0
SCALE
  5
61
102
{ACAD_REACTORS
330
47
102
}
330
47
100
AcDbScale
 70
     0
300
3/8" = 1'-0"
140
0.375
141
12.0
290
     0
  0
SCALE
  5
62
102
{ACAD_REACTORS
330
47
102
}
330
47
100
AcDbScale
 70
     0
300
1/2" = 1'-0"
140
0.5
141
12.0
290
     0
  0
SCALE
  5
63
102
{ACAD_REACTORS
330
47
102
}
330
47
100
AcDbScale
 70
     0
300
3/4" = 1'-0"
140
0.75
141
12.0
290
     0
  0
SCALE
  5
64
102
{ACAD_REACTORS
330
47
102
}
330
47
100
AcDbScale
 70
     0
300
1" = 1'-0"
140
1.0
141
12.0
290
     0
  0
SCALE
  5
65
102
{ACAD_REACTORS
330
47
102
}
330
47
100
AcDbScale
 70
     0
300
1-1/2" = 1'-0"
140
1.5
141
12.0
290
     0
  0
SCALE
  5
66
102
{ACAD_REACTORS
330
47
102
}
330
47
100
AcDbScale
 70
     0
300
3" = 1'-0"
140
3.0
141
12.0
290
     0
  0
SCALE
  5
67
102
{ACAD_REACTORS
330
47
102
}
330
47
100
AcDbScale
 70
     0
300
6" = 1'-0"
140
6.0
141
12.0
290
     0
  0
SCALE
  5
68
102
{ACAD_REACTORS
330
47
102
}
330
47
100
AcDbScale
 70
     0
300
1'-0" = 1'-0"
140
12.0
141
12.0
290
     0
  0
VISUALSTYLE
  5
2F
102
{ACAD_REACTORS
330
2A
102
}
102
{ACAD_XDICTIONARY
360
39E
102
}
330
2A
100
AcDbVisualStyle
  2
2dWireframe
 70
     4
 71
     0
 72
     2
 73
     0
 90
        0
 40
0.6
 41
30.0
 62
     5
 63
     7
 74
     1
 91
        4
 64
     7
 65
   257
 75
     1
175
     1
 42
1.0
 92
        0
 66
   257
 43
1.0
 76
     1
 77
     6
 78
     2
 67
     7
 79
     5
170
     0
171
     0
290
     0
174
     0
 93
        1
 44
0.0
173
     0
291
     0
 45
0.0
1001
ACAD
1000
AcDbSavedByObjectVersion
1070
     0
  0
VISUALSTYLE
  5
32
102
{ACAD_REACTORS
330
2A
102
}
102
{ACAD_XDICTIONARY
360
3A4
102
}
330
2A
100
AcDbVisualStyle
  2
Basic
 70
     7
 71
     1
 72
     0
 73
     1
 90
        0
 40
0.6
 41
30.0
 62
     5
 63
     7
 74
     0
 91
        4
 64
     7
 65
   257
 75
     1
175
     1
 42
1.0
 92
        8
 66
     7
 43
1.0
 76
     1
 77
     6
 78
     2
 67
     7
 79
     5
170
     0
171
     0
290
     0
174
     0
 93
        1
 44
0.0
173
     0
291
     1
 45
0.0
1001
ACAD
1000
AcDbSavedByObjectVersion
1070
     0
  0
VISUALSTYLE
  5
36
102
{ACAD_REACTORS
330
2A
102
}
102
{ACAD_XDICTIONARY
360
3AC
102
}
330
2A
100
AcDbVisualStyle
  2
Brighten
 70
    12
 71
     2
 72
     2
 73
     0
 90
        0
 40
0.6
 41
30.0
 62
     5
 63
     7
 74
     1
 91
        4
 64
     7
 65
   257
 75
     1
175
     1
 42
1.0
 92
        8
 66
     7
 43
1.0
 76
     1
 77
     6
 78
     2
 67
     7
 79
     5
170
     0
171
     0
290
     0
174
     0
 93
        1
 44
50.0
173
     0
291
     1
 45
0.0
1001
ACAD
1000
AcDbSavedByObjectVersion
1070
     0
  0
VISUALSTYLE
  5
3A
102
{ACAD_REACTORS
330
2A
102
}
102
{ACAD_XDICTIONARY
360
3B4
102
}
330
2A
100
AcDbVisualStyle
  2
ColorChange
 70
    16
 71
     2
 72
     2
 73
     3
 90
        0
 40
0.6
 41
30.0
 62
     5
 63
     8
 74
     1
 91
        4
 64
     7
 65
   257
 75
     1
175
     1
 42
1.0
 92
        8
 66
     8
 43
1.0
 76
     1
 77
     6
 78
     2
 67
     7
 79
     5
170
     0
171
     0
290
     0
174
     0
 93
        1
 44
0.0
173
     0
291
     1
 45
0.0
1001
ACAD
1000
AcDbSavedByObjectVersion
1070
     0
  0
VISUALSTYLE
  5
34
102
{ACAD_REACTORS
330
2A
102
}
102
{ACAD_XDICTIONARY
360
3A8
102
}
330
2A
100
AcDbVisualStyle
  2
Conceptual
 70
     9
 71
     3
 72
     2
 73
     0
 90
        0
 40
0.6
 41
30.0
 62
     5
 63
     7
 74
     2
 91
        2
 64
     7
 65
   257
 75
     1
175
     1
 42
179.0
 92
        8
 66
     7
 43
1.0
 76
     1
 77
     6
 78
     2
 67
     7
 79
     3
170
     0
171
     0
290
     0
174
     0
 93
        1
 44
0.0
173
     0
291
     0
 45
0.0
1001
ACAD
1000
AcDbSavedByObjectVersion
1070
     0
  0
VISUALSTYLE
  5
35
102
{ACAD_REACTORS
330
2A
102
}
102
{ACAD_XDICTIONARY
360
3AA
102
}
330
2A
100
AcDbVisualStyle
  2
Dim
 70
    11
 71
     2
 72
     2
 73
     0
 90
        0
 40
0.6
 41
30.0
 62
     5
 63
     7
 74
     1
 91
        4
 64
     7
 65
   257
 75
     1
175
     1
 42
1.0
 92
        8
 66
     7
 43
1.0
 76
     1
 77
     6
 78
     2
 67
     7
 79
     5
170
     0
171
     0
290
     0
174
     0
 93
        1
 44
-50.0
173
     0
291
     1
 45
0.0
1001
ACAD
1000
AcDbSavedByObjectVersion
1070
     0
  0
VISUALSTYLE
  5
3D
102
{ACAD_REACTORS
330
2A
102
}
102
{ACAD_XDICTIONARY
360
3BA
102
}
330
2A
100
AcDbVisualStyle
  2
EdgeColorOff
 70
    22
 71
     2
 72
     2
 73
     0
 90
        0
 40
0.6
 41
30.0
 62
     5
 63
     7
 74
     1
 91
        4
 64
     7
 65
   257
 75
     1
175
     1
 42
1.0
 92
        8
 66
     7
 43
1.0
 76
     1
 77
     6
 78
     2
 67
     7
 79
     5
170
     0
171
     0
290
     0
174
     0
 93
        1
 44
0.0
173
     0
291
     1
 45
0.0
1001
ACAD
1000
AcDbSavedByObjectVersion
1070
     0
  0
VISUALSTYLE
  5
39
102
{ACAD_REACTORS
330
2A
102
}
102
{ACAD_XDICTIONARY
360
3B2
102
}
330
2A
100
AcDbVisualStyle
  2
Facepattern
 70
    15
 71
     2
 72
     2
 73
     0
 90
        0
 40
0.6
 41
30.0
 62
     5
 63
     7
 74
     1
 91
        4
 64
     7
 65
   257
 75
     1
175
     1
 42
1.0
 92
        8
 66
     7
 43
1.0
 76
     1
 77
     6
 78
     2
 67
     7
 79
     5
170
     0
171
     0
290
     0
174
     0
 93
        1
 44
0.0
173
     0
291
     1
 45
0.0
1001
ACAD
1000
AcDbSavedByObjectVersion
1070
     0
  0
VISUALSTYLE
  5
2B
102
{ACAD_REACTORS
330
2A
102
}
102
{ACAD_XDICTIONARY
360
396
102
}
330
2A
100
AcDbVisualStyle
  2
Flat
 70
     0
 71
     2
 72
     1
 73
     1
 90
        2
 40
0.6
 41
30.0
 62
     5
 63
     7
 74
     0
 91
        0
 64
     7
 65
   257
 75
     1
175
     1
 42
1.0
 92
        8
 66
     7
 43
1.0
 76
     1
 77
     6
 78
     2
 67
     7
 79
     5
170
     0
171
     0
290
     0
174
     0
 93
       13
 44
0.0
173
     0
291
     1
 45
0.0
1001
ACAD
1000
AcDbSavedByObjectVersion
1070
     0
  0
VISUALSTYLE
  5
2C
102
{ACAD_REACTORS
330
2A
102
}
102
{ACAD_XDICTIONARY
360
398
102
}
330
2A
100
AcDbVisualStyle
  2
FlatWithEdges
 70
     1
 71
     2
 72
     1
 73
     1
 90
        2
 40
0.6
 41
30.0
 62
     5
 63
     7
 74
     1
 91
        0
 64
     7
 65
   257
 75
     1
175
     1
 42
1.0
 92
        0
 66
   257
 43
1.0
 76
     1
 77
     6
 78
     2
 67
     7
 79
     5
170
     0
171
     0
290
     0
174
     0
 93
       13
 44
0.0
173
     0
291
     1
 45
0.0
1001
ACAD
1000
AcDbSavedByObjectVersion
1070
     0
  0
VISUALSTYLE
  5
2D
102
{ACAD_REACTORS
330
2A
102
}
102
{ACAD_XDICTIONARY
360
39A
102
}
330
2A
100
AcDbVisualStyle
  2
Gouraud
 70
     2
 71
     2
 72
     2
 73
     1
 90
        2
 40
0.6
 41
30.0
 62
     5
 63
     7
 74
     0
 91
        0
 64
     7
 65
   257
 75
     1
175
     1
 42
1.0
 92
        0
 66
     7
 43
1.0
 76
     1
 77
     6
 78
     2
 67
     7
 79
     5
170
     0
171
     0
290
     0
174
     0
 93
       13
 44
0.0
173
     0
291
     1
 45
0.0
1001
ACAD
1000
AcDbSavedByObjectVersion
1070
     0
  0
VISUALSTYLE
  5
2E
102
{ACAD_REACTORS
330
2A
102
}
102
{ACAD_XDICTIONARY
360
39C
102
}
330
2A
100
AcDbVisualStyle
  2
GouraudWithEdges
 70
     3
 71
     2
 72
     2
 73
     1
 90
        2
 40
0.6
 41
30.0
 62
     5
 63
     7
 74
     1
 91
        0
 64
     7
 65
   257
 75
     1
175
     1
 42
1.0
 92
        0
 66
   257
 43
1.0
 76
     1
 77
     6
 78
     2
 67
     7
 79
     5
170
     0
171
     0
290
     0
174
     0
 93
       13
 44
0.0
173
     0
291
     1
 45
0.0
1001
ACAD
1000
AcDbSavedByObjectVersion
1070
     0
  0
VISUALSTYLE
  5
31
102
{ACAD_REACTORS
330
2A
102
}
102
{ACAD_XDICTIONARY
360
3A2
102
}
330
2A
100
AcDbVisualStyle
  2
Hidden
 70
     6
 71
     1
 72
     2
 73
     2
 90
        0
 40
0.6
 41
30.0
 62
     5
 63
     7
 74
     2
 91
        2
 64
     7
 65
   257
 75
     2
175
     1
 42
40.0
 92
        0
 66
   257
 43
1.0
 76
     1
 77
     6
 78
     2
 67
     7
 79
     3
170
     0
171
     0
290
     0
174
     0
 93
        1
 44
0.0
173
     0
291
     0
 45
0.0
1001
ACAD
1000
AcDbSavedByObjectVersion
1070
     0
  0
VISUALSTYLE
  5
3B
102
{ACAD_REACTORS
330
2A
102
}
102
{ACAD_XDICTIONARY
360
3B6
102
}
330
2A
100
AcDbVisualStyle
  2
JitterOff
 70
    20
 71
     2
 72
     2
 73
     0
 90
        0
 40
0.6
 41
30.0
 62
     5
 63
     7
 74
     1
 91
        4
 64
     7
 65
   257
 75
     1
175
     1
 42
1.0
 92
       10
 66
     7
 43
1.0
 76
     1
 77
     6
 78
     2
 67
     7
 79
     5
170
     0
171
     0
290
     0
174
     0
 93
        1
 44
0.0
173
     0
291
     1
 45
0.0
1001
ACAD
1000
AcDbSavedByObjectVersion
1070
     0
  0
VISUALSTYLE
  5
38
102
{ACAD_REACTORS
330
2A
102
}
102
{ACAD_XDICTIONARY
360
3B0
102
}
330
2A
100
AcDbVisualStyle
  2
Linepattern
 70
    14
 71
     2
 72
     2
 73
     0
 90
        0
 40
0.6
 41
30.0
 62
     5
 63
     7
 74
     1
 91
        4
 64
     7
 65
   257
 75
     7
175
     7
 42
1.0
 92
        8
 66
     7
 43
1.0
 76
     1
 77
     6
 78
     2
 67
     7
 79
     5
170
     0
171
     0
290
     0
174
     0
 93
        1
 44
0.0
173
     0
291
     1
 45
0.0
1001
ACAD
1000
AcDbSavedByObjectVersion
1070
     0
  0
VISUALSTYLE
  5
3C
102
{ACAD_REACTORS
330
2A
102
}
102
{ACAD_XDICTIONARY
360
3B8
102
}
330
2A
100
AcDbVisualStyle
  2
OverhangOff
 70
    21
 71
     2
 72
     2
 73
     0
 90
        0
 40
0.6
 41
30.0
 62
     5
 63
     7
 74
     1
 91
        4
 64
     7
 65
   257
 75
     1
175
     1
 42
1.0
 92
        9
 66
     7
 43
1.0
 76
     1
 77
     6
 78
     2
 67
     7
 79
     5
170
     0
171
     0
290
     0
174
     0
 93
        1
 44
0.0
173
     0
291
     1
 45
0.0
1001
ACAD
1000
AcDbSavedByObjectVersion
1070
     0
  0
VISUALSTYLE
  5
33
102
{ACAD_REACTORS
330
2A
102
}
102
{ACAD_XDICTIONARY
360
3A6
102
}
330
2A
100
AcDbVisualStyle
  2
Realistic
 70
     8
 71
     2
 72
     3
 73
     0
 90
        2
 40
0.6
 41
30.0
 62
     5
 63
     7
 74
     0
 91
        0
 64
     7
 65
   257
 75
     1
175
     1
 42
1.0
 92
        8
 66
   257
 43
1.0
 76
     1
 77
     6
 78
     2
 67
     7
 79
     3
170
     0
171
     0
290
     0
174
     0
 93
       13
 44
0.0
173
     0
291
     0
 45
0.0
1001
ACAD
1000
AcDbSavedByObjectVersion
1070
     0
  0
VISUALSTYLE
  5
42
102
{ACAD_REACTORS
330
2A
102
}
102
{ACAD_XDICTIONARY
360
3C4
102
}
330
2A
100
AcDbVisualStyle
  2
Shaded
 70
    27
 71
     2
 72
     2
 73
     1
 90
        2
 40
0.6
 41
30.0
 62
     5
 63
     7
 74
     0
 91
        4
 64
     7
 65
   257
 75
     1
175
     1
 42
1.0
 92
        8
 66
   257
 43
1.0
 76
     1
 77
     6
 78
     2
 67
     8
 79
     3
170
     0
171
     0
290
     0
174
     0
 93
        5
 44
0.0
173
     0
291
     0
 45
0.0
1001
ACAD
1000
AcDbSavedByObjectVersion
1070
     0
  0
VISUALSTYLE
  5
41
102
{ACAD_REACTORS
330
2A
102
}
102
{ACAD_XDICTIONARY
360
3C2
102
}
330
2A
100
AcDbVisualStyle
  2
Shaded with edges
 70
    26
 71
     2
 72
     2
 73
     1
 90
        2
 40
0.6
 41
30.0
 62
     5
 63
     7
 74
     1
 91
       10
 64
     7
 65
   257
 75
     2
175
     1
 42
1.0
 92
        8
 66
   257
 43
1.0
 76
     1
 77
     6
 78
     2
 67
     7
 79
     3
170
     0
171
     0
290
     0
174
     0
 93
        5
 44
0.0
173
     0
291
     0
 45
0.0
1001
ACAD
1000
AcDbSavedByObjectVersion
1070
     0
  0
VISUALSTYLE
  5
3E
102
{ACAD_REACTORS
330
2A
102
}
102
{ACAD_XDICTIONARY
360
3BC
102
}
330
2A
100
AcDbVisualStyle
  2
Shades of Gray
 70
    23
 71
     2
 72
     2
 73
     3
 90
        0
 40
0.6
 41
30.0
 62
     5
 63
     7
 74
     2
 91
        2
 64
     7
 65
     7
 75
     1
175
     1
 42
40.0
 92
        8
 66
     7
 43
1.0
 76
     1
 77
     6
 78
     2
 67
     7
 79
     3
170
     0
171
     0
290
     0
174
     0
 93
        1
 44
0.0
173
     0
291
     0
 45
0.0
1001
ACAD
1000
AcDbSavedByObjectVersion
1070
     0
  0
VISUALSTYLE
  5
3F
102
{ACAD_REACTORS
330
2A
102
}
102
{ACAD_XDICTIONARY
360
3BE
102
}
330
2A
100
AcDbVisualStyle
  2
Sketchy
 70
    24
 71
     1
 72
     2
 73
     2
 90
        0
 40
0.6
 41
30.0
 62
     5
 63
     7
 74
     2
 91
        2
 64
     7
 65
     7
 75
     1
175
     1
 42
40.0
 92
       11
 66
     7
 43
1.0
 76
     1
 77
     6
 78
     2
 67
     7
 79
     6
170
     0
171
     0
290
     0
174
     0
 93
        1
 44
0.0
173
     0
291
     0
 45
0.0
1001
ACAD
1000
AcDbSavedByObjectVersion
1070
     0
  0
VISUALSTYLE
  5
37
102
{ACAD_REACTORS
330
2A
102
}
102
{ACAD_XDICTIONARY
360
3AE
102
}
330
2A
100
AcDbVisualStyle
  2
Thicken
 70
    13
 71
     2
 72
     2
 73
     0
 90
        0
 40
0.6
 41
30.0
 62
     5
 63
     7
 74
     1
 91
        4
 64
     7
 65
   257
 75
     1
175
     1
 42
1.0
 92
       12
 66
     7
 43
1.0
 76
     1
 77
     6
 78
     2
 67
     7
 79
     5
170
     0
171
     0
290
     0
174
     0
 93
        1
 44
0.0
173
     0
291
     1
 45
0.0
1001
ACAD
1000
AcDbSavedByObjectVersion
1070
     0
  0
VISUALSTYLE
  5
30
102
{ACAD_REACTORS
330
2A
102
}
102
{ACAD_XDICTIONARY
360
3A0
102
}
330
2A
100
AcDbVisualStyle
  2
Wireframe
 70
     5
 71
     0
 72
     2
 73
     0
 90
        0
 40
0.6
 41
30.0
 62
     5
 63
     7
 74
     1
 91
        4
 64
     7
 65
   257
 75
     1
175
     1
 42
1.0
 92
        0
 66
   257
 43
1.0
 76
     1
 77
     6
 78
     2
 67
     7
 79
     3
170
     0
171
     0
290
     0
174
     0
 93
        1
 44
0.0
173
     0
291
     0
 45
0.0
1001
ACAD
1000
AcDbSavedByObjectVersion
1070
     0
  0
VISUALSTYLE
  5
40
102
{ACAD_REACTORS
330
2A
102
}
102
{ACAD_XDICTIONARY
360
3C0
102
}
330
2A
100
AcDbVisualStyle
  2
X-Ray
 70
    25
 71
     2
 72
     2
 73
     1
 90
        1
 40
0.5
 41
30.0
 62
     5
 63
     7
 74
     1
 91
        0
 64
     7
 65
   257
 75
     1
175
     1
 42
1.0
 92
        8
 66
     7
 43
1.0
 76
     1
 77
     6
 78
     2
 67
     7
 79
     3
170
     0
171
     0
290
     0
174
     0
 93
       13
 44
0.0
173
     0
291
     0
 45
0.0
1001
ACAD
1000
AcDbSavedByObjectVersion
1070
     0
  0
DICTIONARYVAR
  5
394
102
{ACAD_REACTORS
330
38D
102
}
330
38D
100
DictionaryVariables
280
     0
  1
1:1
  0
DICTIONARYVAR
  5
392
102
{ACAD_REACTORS
330
38D
102
}
330
38D
100
DictionaryVariables
280
     0
  1
2
  0
DICTIONARYVAR
  5
393
102
{ACAD_REACTORS
330
38D
102
}
330
38D
100
DictionaryVariables
280
     0
  1
1
  0
DICTIONARYVAR
  5
395
102
{ACAD_REACTORS
330
38D
102
}
330
38D
100
DictionaryVariables
280
     0
  1
1
  0
DICTIONARY
  5
3C8
330
45
100
AcDbDictionary
280
     1
281
     1
  3
ACAD_XREC_ROUNDTRIP
360
3C9
  0
DICTIONARY
  5
3C6
330
44
100
AcDbDictionary
280
     1
281
     1
  3
ACAD_XREC_ROUNDTRIP
360
3C7
  0
DICTIONARY
  5
3CA
330
46
100
AcDbDictionary
280
     1
281
     1
  3
ACAD_XREC_ROUNDTRIP
360
3CB
  0
DICTIONARY
  5
39E
330
2F
100
AcDbDictionary
280
     1
281
     1
  3
ACAD_XREC_ROUNDTRIP
360
39F
  0
DICTIONARY
  5
3A4
330
32
100
AcDbDictionary
280
     1
281
     1
  3
ACAD_XREC_ROUNDTRIP
360
3A5
  0
DICTIONARY
  5
3AC
330
36
100
AcDbDictionary
280
     1
281
     1
  3
ACAD_XREC_ROUNDTRIP
360
3AD
  0
DICTIONARY
  5
3B4
330
3A
100
AcDbDictionary
280
     1
281
     1
  3
ACAD_XREC_ROUNDTRIP
360
3B5
  0
DICTIONARY
  5
3A8
330
34
100
AcDbDictionary
280
     1
281
     1
  3
ACAD_XREC_ROUNDTRIP
360
3A9
  0
DICTIONARY
  5
3AA
330
35
100
AcDbDictionary
280
     1
281
     1
  3
ACAD_XREC_ROUNDTRIP
360
3AB
  0
DICTIONARY
  5
3BA
330
3D
100
AcDbDictionary
280
     1
281
     1
  3
ACAD_XREC_ROUNDTRIP
360
3BB
  0
DICTIONARY
  5
3B2
330
39
100
AcDbDictionary
280
     1
281
     1
  3
ACAD_XREC_ROUNDTRIP
360
3B3
  0
DICTIONARY
  5
396
330
2B
100
AcDbDictionary
280
     1
281
     1
  3
ACAD_XREC_ROUNDTRIP
360
397
  0
DICTIONARY
  5
398
330
2C
100
AcDbDictionary
280
     1
281
     1
  3
ACAD_XREC_ROUNDTRIP
360
399
  0
DICTIONARY
  5
39A
330
2D
100
AcDbDictionary
280
     1
281
     1
  3
ACAD_XREC_ROUNDTRIP
360
39B
  0
DICTIONARY
  5
39C
330
2E
100
AcDbDictionary
280
     1
281
     1
  3
ACAD_XREC_ROUNDTRIP
360
39D
  0
DICTIONARY
  5
3A2
330
31
100
AcDbDictionary
280
     1
281
     1
  3
ACAD_XREC_ROUNDTRIP
360
3A3
  0
DICTIONARY
  5
3B6
330
3B
100
AcDbDictionary
280
     1
281
     1
  3
ACAD_XREC_ROUNDTRIP
360
3B7
  0
DICTIONARY
  5
3B0
330
38
100
AcDbDictionary
280
     1
281
     1
  3
ACAD_XREC_ROUNDTRIP
360
3B1
  0
DICTIONARY
  5
3B8
330
3C
100
AcDbDictionary
280
     1
281
     1
  3
ACAD_XREC_ROUNDTRIP
360
3B9
  0
DICTIONARY
  5
3A6
330
33
100
AcDbDictionary
280
     1
281
     1
  3
ACAD_XREC_ROUNDTRIP
360
3A7
  0
DICTIONARY
  5
3C4
330
42
100
AcDbDictionary
280
     1
281
     1
  3
ACAD_XREC_ROUNDTRIP
360
3C5
  0
DICTIONARY
  5
3C2
330
41
100
AcDbDictionary
280
     1
281
     1
  3
ACAD_XREC_ROUNDTRIP
360
3C3
  0
DICTIONARY
  5
3BC
330
3E
100
AcDbDictionary
280
     1
281
     1
  3
ACAD_XREC_ROUNDTRIP
360
3BD
  0
DICTIONARY
  5
3BE
330
3F
100
AcDbDictionary
280
     1
281
     1
  3
ACAD_XREC_ROUNDTRIP
360
3BF
  0
DICTIONARY
  5
3AE
330
37
100
AcDbDictionary
280
     1
281
     1
  3
ACAD_XREC_ROUNDTRIP
360
3AF
  0
DICTIONARY
  5
3A0
330
30
100
AcDbDictionary
280
     1
281
     1
  3
ACAD_XREC_ROUNDTRIP
360
3A1
  0
DICTIONARY
  5
3C0
330
40
100
AcDbDictionary
280
     1
281
     1
  3
ACAD_XREC_ROUNDTRIP
360
3C1
  0
XRECORD
  5
3C9
102
{ACAD_REACTORS
330
3C8
102
}
330
3C8
100
AcDbXrecord
280
     1
102
MATERIAL
148
0.0
149
0.0
149
0.0
 93
        0
 94
      127
282
     0
 72
     1
 77
     1
171
     1
175
     1
179
     1
273
     0
  0
XRECORD
  5
3C7
102
{ACAD_REACTORS
330
3C6
102
}
330
3C6
100
AcDbXrecord
280
     1
102
MATERIAL
148
0.0
149
0.0
149
0.0
 93
        0
 94
      127
282
     0
 72
     1
 77
     1
171
     1
175
     1
179
     1
273
     0
  0
XRECORD
  5
3CB
102
{ACAD_REACTORS
330
3CA
102
}
330
3CA
100
AcDbXrecord
280
     1
102
MATERIAL
148
0.0
149
0.0
149
0.0
 93
        0
 94
      127
282
     0
 72
     1
 77
     1
171
     1
175
     1
179
     1
273
     0
  0
XRECORD
  5
39F
102
{ACAD_REACTORS
330
39E
102
}
330
39E
100
AcDbXrecord
280
     1
102
RTVSPropertyOp0
 70
     1
102
RTVSPropertyOp1
 70
     1
102
RTVSPropertyOp2
 70
     1
102
RTVSPropertyOp3
 70
     1
102
RTVSPropertyOp4
 70
     1
102
RTVSPropertyOp5
 70
     1
102
RTVSPropertyOp6
 70
     1
102
RTVSPropertyOp7
 70
     1
102
RTVSPropertyOp8
 70
     1
102
RTVSPropertyOp9
 70
     1
102
RTVSPropertyOp10
 70
     1
102
RTVSPropertyOp11
 70
     1
102
RTVSPropertyOp12
 70
     1
102
RTVSPropertyOp13
 70
     1
102
RTVSPropertyOp14
 70
     1
102
RTVSPropertyOp15
 70
     1
102
RTVSPropertyOp16
 70
     1
102
RTVSPropertyOp17
 70
     1
102
RTVSPropertyOp18
 70
     1
102
RTVSPropertyOp19
 70
     1
102
RTVSPropertyOp20
 70
     1
102
RTVSPropertyOp21
 70
     1
102
RTVSPropertyOp22
 70
     1
102
RTVSPropertyOp23
 70
     1
102
RTVSPropertyOp24
 70
     1
102
RTVSPropertyOp25
 70
     1
102
RTVSPropertyOp26
 70
     1
102
RTVSPropertyOp27
 70
     1
102
RTVSPropertyOp28
 70
     1
102
RTVSPropertyOp29
 70
     1
102
RTVSPropertyOp30
 70
     1
102
RTVSPropertyOp31
 70
     1
102
RTVSPropertyOp32
 70
     1
102
RTVSPropertyOp33
 70
     1
102
RTVSPropertyOp34
 70
     1
102
RTVSPropertyOp35
 70
     1
102
RTVSPropertyOp36
 70
     1
102
RTVSPropertyOp37
 70
     1
102
RTVSPropertyOp38
 70
     1
102
RTVSPropertyOp39
 70
     1
102
RTVSPropertyOp40
 70
     1
102
RTVSPropertyOp41
 70
     1
102
RTVSPropertyOp42
 70
     1
102
RTVSPropertyOp43
 70
     1
102
RTVSPropertyOp44
 70
     1
102
RTVSPropertyOp45
 70
     1
102
RTVSPropertyOp46
 70
     1
102
RTVSPropertyOp47
 70
     1
102
RTVSPropertyOp48
 70
     1
102
RTVSPropertyOp49
 70
     1
102
RTVSPropertyOp50
 70
     1
102
RTVSPropertyOp51
 70
     0
102
RTVSPropertyOp52
 70
     0
102
RTVSPropertyOp53
 70
     1
102
RTVSPropertyOp54
 70
     1
102
RTVSPropertyOp55
 70
     1
102
RTVSPropertyOp56
 70
     1
102
RTVSPropertyOp57
 70
     1
102
RTVSPost2010Prop28
280
     1
102
RTVSPost2010PropOp28
 70
     1
102
RTVSPost2010Prop29
280
     1
102
RTVSPost2010PropOp29
 70
     1
102
RTVSPost2010Prop30
280
     0
102
RTVSPost2010PropOp30
 70
     1
102
RTVSPost2010Prop31
280
     0
102
RTVSPost2010PropOp31
 70
     1
102
RTVSPost2010Prop32
280
     0
102
RTVSPost2010PropOp32
 70
     1
102
RTVSPost2010Prop33
280
     0
102
RTVSPost2010PropOp33
 70
     1
102
RTVSPost2010Prop34
280
     0
102
RTVSPost2010PropOp34
 70
     1
102
RTVSPost2010Prop35
280
     0
102
RTVSPost2010PropOp35
 70
     1
102
RTVSPost2010Prop36
280
     0
102
RTVSPost2010PropOp36
 70
     1
102
RTVSPost2010Prop37
 90
       50
102
RTVSPost2010PropOp37
 70
     1
102
RTVSPost2010Prop38
140
0.0
102
RTVSPost2010PropOp38
 70
     1
102
RTVSPost2010Prop39
140
1.0
102
RTVSPost2010PropOp39
 70
     1
102
RTVSPost2010Prop40
 90
        0
102
RTVSPost2010PropOp40
 70
     1
102
RTVSPost2010Prop41ColorIndex
 90
       18
102
RTVSPost2010Prop41ColorRGB
 90
        0
102
RTVSPost2010PropOp41
 70
     1
102
RTVSPost2010Prop42
 90
       50
102
RTVSPost2010PropOp42
 70
     1
102
RTVSPost2010Prop43
 90
        3
102
RTVSPost2010PropOp43
 70
     1
102
RTVSPost2010Prop44ColorIndex
 90
        5
102
RTVSPost2010Prop44ColorRGB
 90
      255
102
RTVSPost2010PropOp44
 70
     1
102
RTVSPost2010Prop45
280
     0
102
RTVSPost2010PropOp45
 70
     1
102
RTVSPost2010Prop46
 90
       50
102
RTVSPost2010PropOp46
 70
     1
102
RTVSPost2010Prop47
 90
       50
102
RTVSPost2010PropOp47
 70
     1
102
RTVSPost2010Prop48
 90
       50
102
RTVSPost2010PropOp48
 70
     1
102
RTVSPost2010Prop49
280
     0
102
RTVSPost2010PropOp49
 70
     1
102
RTVSPost2010Prop50
 90
       50
102
RTVSPost2010PropOp50
 70
     1
102
RTVSPost2010Prop51ColorIndex
 90
      256
102
RTVSPost2010Prop51ColorRGB
 90
-16777216
102
RTVSPost2010PropOp51
 70
     0
102
RTVSPost2010Prop52
140
1.0
102
RTVSPost2010PropOp52
 70
     0
102
RTVSPost2010Prop53
 90
        2
102
RTVSPost2010PropOp53
 70
     1
102
RTVSPost2010Prop54
  1
strokes_ogs.tif
102
RTVSPost2010PropOp54
 70
     1
102
RTVSPost2010Prop55
280
     0
102
RTVSPost2010PropOp55
 70
     1
102
RTVSPost2010Prop56
140
1.0
102
RTVSPost2010PropOp56
 70
     1
102
RTVSPost2010Prop57
140
1.0
102
RTVSPost2010PropOp57
 70
     1
  0
XRECORD
  5
3A5
102
{ACAD_REACTORS
330
3A4
102
}
330
3A4
100
AcDbXrecord
280
     1
102
RTVSPropertyOp0
 70
     1
102
RTVSPropertyOp1
 70
     1
102
RTVSPropertyOp2
 70
     1
102
RTVSPropertyOp3
 70
     1
102
RTVSPropertyOp4
 70
     1
102
RTVSPropertyOp5
 70
     1
102
RTVSPropertyOp6
 70
     1
102
RTVSPropertyOp7
 70
     1
102
RTVSPropertyOp8
 70
     1
102
RTVSPropertyOp9
 70
     1
102
RTVSPropertyOp10
 70
     1
102
RTVSPropertyOp11
 70
     1
102
RTVSPropertyOp12
 70
     1
102
RTVSPropertyOp13
 70
     1
102
RTVSPropertyOp14
 70
     1
102
RTVSPropertyOp15
 70
     1
102
RTVSPropertyOp16
 70
     1
102
RTVSPropertyOp17
 70
     1
102
RTVSPropertyOp18
 70
     1
102
RTVSPropertyOp19
 70
     1
102
RTVSPropertyOp20
 70
     1
102
RTVSPropertyOp21
 70
     1
102
RTVSPropertyOp22
 70
     1
102
RTVSPropertyOp23
 70
     1
102
RTVSPropertyOp24
 70
     1
102
RTVSPropertyOp25
 70
     1
102
RTVSPropertyOp26
 70
     1
102
RTVSPropertyOp27
 70
     1
102
RTVSPropertyOp28
 70
     1
102
RTVSPropertyOp29
 70
     1
102
RTVSPropertyOp30
 70
     1
102
RTVSPropertyOp31
 70
     1
102
RTVSPropertyOp32
 70
     1
102
RTVSPropertyOp33
 70
     1
102
RTVSPropertyOp34
 70
     1
102
RTVSPropertyOp35
 70
     1
102
RTVSPropertyOp36
 70
     1
102
RTVSPropertyOp37
 70
     1
102
RTVSPropertyOp38
 70
     1
102
RTVSPropertyOp39
 70
     1
102
RTVSPropertyOp40
 70
     1
102
RTVSPropertyOp41
 70
     1
102
RTVSPropertyOp42
 70
     1
102
RTVSPropertyOp43
 70
     1
102
RTVSPropertyOp44
 70
     1
102
RTVSPropertyOp45
 70
     1
102
RTVSPropertyOp46
 70
     1
102
RTVSPropertyOp47
 70
     1
102
RTVSPropertyOp48
 70
     1
102
RTVSPropertyOp49
 70
     1
102
RTVSPropertyOp50
 70
     1
102
RTVSPropertyOp51
 70
     0
102
RTVSPropertyOp52
 70
     0
102
RTVSPropertyOp53
 70
     1
102
RTVSPropertyOp54
 70
     1
102
RTVSPropertyOp55
 70
     1
102
RTVSPropertyOp56
 70
     1
102
RTVSPropertyOp57
 70
     1
102
RTVSPost2010Prop28
280
     0
102
RTVSPost2010PropOp28
 70
     1
102
RTVSPost2010Prop29
280
     1
102
RTVSPost2010PropOp29
 70
     1
102
RTVSPost2010Prop30
280
     1
102
RTVSPost2010PropOp30
 70
     1
102
RTVSPost2010Prop31
280
     0
102
RTVSPost2010PropOp31
 70
     1
102
RTVSPost2010Prop32
280
     0
102
RTVSPost2010PropOp32
 70
     1
102
RTVSPost2010Prop33
280
     0
102
RTVSPost2010PropOp33
 70
     1
102
RTVSPost2010Prop34
280
     0
102
RTVSPost2010PropOp34
 70
     1
102
RTVSPost2010Prop35
280
     0
102
RTVSPost2010PropOp35
 70
     1
102
RTVSPost2010Prop36
280
     0
102
RTVSPost2010PropOp36
 70
     1
102
RTVSPost2010Prop37
 90
       50
102
RTVSPost2010PropOp37
 70
     1
102
RTVSPost2010Prop38
140
0.0
102
RTVSPost2010PropOp38
 70
     1
102
RTVSPost2010Prop39
140
1.0
102
RTVSPost2010PropOp39
 70
     1
102
RTVSPost2010Prop40
 90
        0
102
RTVSPost2010PropOp40
 70
     1
102
RTVSPost2010Prop41ColorIndex
 90
       18
102
RTVSPost2010Prop41ColorRGB
 90
        0
102
RTVSPost2010PropOp41
 70
     1
102
RTVSPost2010Prop42
 90
       50
102
RTVSPost2010PropOp42
 70
     1
102
RTVSPost2010Prop43
 90
        3
102
RTVSPost2010PropOp43
 70
     1
102
RTVSPost2010Prop44ColorIndex
 90
        5
102
RTVSPost2010Prop44ColorRGB
 90
      255
102
RTVSPost2010PropOp44
 70
     1
102
RTVSPost2010Prop45
280
     0
102
RTVSPost2010PropOp45
 70
     1
102
RTVSPost2010Prop46
 90
       50
102
RTVSPost2010PropOp46
 70
     1
102
RTVSPost2010Prop47
 90
       50
102
RTVSPost2010PropOp47
 70
     1
102
RTVSPost2010Prop48
 90
       50
102
RTVSPost2010PropOp48
 70
     1
102
RTVSPost2010Prop49
280
     0
102
RTVSPost2010PropOp49
 70
     1
102
RTVSPost2010Prop50
 90
       50
102
RTVSPost2010PropOp50
 70
     1
102
RTVSPost2010Prop51ColorIndex
 90
      256
102
RTVSPost2010Prop51ColorRGB
 90
-16777216
102
RTVSPost2010PropOp51
 70
     0
102
RTVSPost2010Prop52
140
1.0
102
RTVSPost2010PropOp52
 70
     0
102
RTVSPost2010Prop53
 90
        2
102
RTVSPost2010PropOp53
 70
     1
102
RTVSPost2010Prop54
  1
strokes_ogs.tif
102
RTVSPost2010PropOp54
 70
     1
102
RTVSPost2010Prop55
280
     0
102
RTVSPost2010PropOp55
 70
     1
102
RTVSPost2010Prop56
140
1.0
102
RTVSPost2010PropOp56
 70
     1
102
RTVSPost2010Prop57
140
1.0
102
RTVSPost2010PropOp57
 70
     1
  0
XRECORD
  5
3AD
102
{ACAD_REACTORS
330
3AC
102
}
330
3AC
100
AcDbXrecord
280
     1
102
RTVSPropertyOp0
 70
     1
102
RTVSPropertyOp1
 70
     1
102
RTVSPropertyOp2
 70
     1
102
RTVSPropertyOp3
 70
     1
102
RTVSPropertyOp4
 70
     1
102
RTVSPropertyOp5
 70
     1
102
RTVSPropertyOp6
 70
     1
102
RTVSPropertyOp7
 70
     1
102
RTVSPropertyOp8
 70
     1
102
RTVSPropertyOp9
 70
     1
102
RTVSPropertyOp10
 70
     1
102
RTVSPropertyOp11
 70
     1
102
RTVSPropertyOp12
 70
     1
102
RTVSPropertyOp13
 70
     1
102
RTVSPropertyOp14
 70
     1
102
RTVSPropertyOp15
 70
     1
102
RTVSPropertyOp16
 70
     1
102
RTVSPropertyOp17
 70
     1
102
RTVSPropertyOp18
 70
     1
102
RTVSPropertyOp19
 70
     1
102
RTVSPropertyOp20
 70
     1
102
RTVSPropertyOp21
 70
     1
102
RTVSPropertyOp22
 70
     1
102
RTVSPropertyOp23
 70
     1
102
RTVSPropertyOp24
 70
     1
102
RTVSPropertyOp25
 70
     1
102
RTVSPropertyOp26
 70
     1
102
RTVSPropertyOp27
 70
     1
102
RTVSPropertyOp28
 70
     1
102
RTVSPropertyOp29
 70
     1
102
RTVSPropertyOp30
 70
     1
102
RTVSPropertyOp31
 70
     1
102
RTVSPropertyOp32
 70
     1
102
RTVSPropertyOp33
 70
     1
102
RTVSPropertyOp34
 70
     1
102
RTVSPropertyOp35
 70
     1
102
RTVSPropertyOp36
 70
     1
102
RTVSPropertyOp37
 70
     1
102
RTVSPropertyOp38
 70
     1
102
RTVSPropertyOp39
 70
     1
102
RTVSPropertyOp40
 70
     1
102
RTVSPropertyOp41
 70
     1
102
RTVSPropertyOp42
 70
     1
102
RTVSPropertyOp43
 70
     1
102
RTVSPropertyOp44
 70
     1
102
RTVSPropertyOp45
 70
     1
102
RTVSPropertyOp46
 70
     1
102
RTVSPropertyOp47
 70
     1
102
RTVSPropertyOp48
 70
     1
102
RTVSPropertyOp49
 70
     1
102
RTVSPropertyOp50
 70
     1
102
RTVSPropertyOp51
 70
     0
102
RTVSPropertyOp52
 70
     0
102
RTVSPropertyOp53
 70
     1
102
RTVSPropertyOp54
 70
     1
102
RTVSPropertyOp55
 70
     1
102
RTVSPropertyOp56
 70
     1
102
RTVSPropertyOp57
 70
     1
102
RTVSPost2010Prop28
280
     0
102
RTVSPost2010PropOp28
 70
     1
102
RTVSPost2010Prop29
280
     1
102
RTVSPost2010PropOp29
 70
     1
102
RTVSPost2010Prop30
280
     1
102
RTVSPost2010PropOp30
 70
     1
102
RTVSPost2010Prop31
280
     0
102
RTVSPost2010PropOp31
 70
     1
102
RTVSPost2010Prop32
280
     0
102
RTVSPost2010PropOp32
 70
     1
102
RTVSPost2010Prop33
280
     0
102
RTVSPost2010PropOp33
 70
     1
102
RTVSPost2010Prop34
280
     0
102
RTVSPost2010PropOp34
 70
     1
102
RTVSPost2010Prop35
280
     0
102
RTVSPost2010PropOp35
 70
     1
102
RTVSPost2010Prop36
280
     0
102
RTVSPost2010PropOp36
 70
     1
102
RTVSPost2010Prop37
 90
       50
102
RTVSPost2010PropOp37
 70
     1
102
RTVSPost2010Prop38
140
0.0
102
RTVSPost2010PropOp38
 70
     1
102
RTVSPost2010Prop39
140
1.0
102
RTVSPost2010PropOp39
 70
     1
102
RTVSPost2010Prop40
 90
        0
102
RTVSPost2010PropOp40
 70
     1
102
RTVSPost2010Prop41ColorIndex
 90
       18
102
RTVSPost2010Prop41ColorRGB
 90
        0
102
RTVSPost2010PropOp41
 70
     1
102
RTVSPost2010Prop42
 90
       50
102
RTVSPost2010PropOp42
 70
     1
102
RTVSPost2010Prop43
 90
        3
102
RTVSPost2010PropOp43
 70
     1
102
RTVSPost2010Prop44ColorIndex
 90
        5
102
RTVSPost2010Prop44ColorRGB
 90
      255
102
RTVSPost2010PropOp44
 70
     1
102
RTVSPost2010Prop45
280
     0
102
RTVSPost2010PropOp45
 70
     1
102
RTVSPost2010Prop46
 90
       50
102
RTVSPost2010PropOp46
 70
     1
102
RTVSPost2010Prop47
 90
       50
102
RTVSPost2010PropOp47
 70
     1
102
RTVSPost2010Prop48
 90
       50
102
RTVSPost2010PropOp48
 70
     1
102
RTVSPost2010Prop49
280
     0
102
RTVSPost2010PropOp49
 70
     1
102
RTVSPost2010Prop50
 90
       50
102
RTVSPost2010PropOp50
 70
     1
102
RTVSPost2010Prop51ColorIndex
 90
      256
102
RTVSPost2010Prop51ColorRGB
 90
-16777216
102
RTVSPost2010PropOp51
 70
     0
102
RTVSPost2010Prop52
140
1.0
102
RTVSPost2010PropOp52
 70
     0
102
RTVSPost2010Prop53
 90
        2
102
RTVSPost2010PropOp53
 70
     1
102
RTVSPost2010Prop54
  1
strokes_ogs.tif
102
RTVSPost2010PropOp54
 70
     1
102
RTVSPost2010Prop55
280
     0
102
RTVSPost2010PropOp55
 70
     1
102
RTVSPost2010Prop56
140
1.0
102
RTVSPost2010PropOp56
 70
     1
102
RTVSPost2010Prop57
140
1.0
102
RTVSPost2010PropOp57
 70
     1
  0
XRECORD
  5
3B5
102
{ACAD_REACTORS
330
3B4
102
}
330
3B4
100
AcDbXrecord
280
     1
102
RTVSPropertyOp0
 70
     1
102
RTVSPropertyOp1
 70
     1
102
RTVSPropertyOp2
 70
     1
102
RTVSPropertyOp3
 70
     1
102
RTVSPropertyOp4
 70
     1
102
RTVSPropertyOp5
 70
     1
102
RTVSPropertyOp6
 70
     1
102
RTVSPropertyOp7
 70
     1
102
RTVSPropertyOp8
 70
     1
102
RTVSPropertyOp9
 70
     1
102
RTVSPropertyOp10
 70
     1
102
RTVSPropertyOp11
 70
     1
102
RTVSPropertyOp12
 70
     1
102
RTVSPropertyOp13
 70
     1
102
RTVSPropertyOp14
 70
     1
102
RTVSPropertyOp15
 70
     1
102
RTVSPropertyOp16
 70
     1
102
RTVSPropertyOp17
 70
     1
102
RTVSPropertyOp18
 70
     1
102
RTVSPropertyOp19
 70
     1
102
RTVSPropertyOp20
 70
     1
102
RTVSPropertyOp21
 70
     1
102
RTVSPropertyOp22
 70
     1
102
RTVSPropertyOp23
 70
     1
102
RTVSPropertyOp24
 70
     1
102
RTVSPropertyOp25
 70
     1
102
RTVSPropertyOp26
 70
     1
102
RTVSPropertyOp27
 70
     1
102
RTVSPropertyOp28
 70
     1
102
RTVSPropertyOp29
 70
     1
102
RTVSPropertyOp30
 70
     1
102
RTVSPropertyOp31
 70
     1
102
RTVSPropertyOp32
 70
     1
102
RTVSPropertyOp33
 70
     1
102
RTVSPropertyOp34
 70
     1
102
RTVSPropertyOp35
 70
     1
102
RTVSPropertyOp36
 70
     1
102
RTVSPropertyOp37
 70
     1
102
RTVSPropertyOp38
 70
     1
102
RTVSPropertyOp39
 70
     1
102
RTVSPropertyOp40
 70
     1
102
RTVSPropertyOp41
 70
     1
102
RTVSPropertyOp42
 70
     1
102
RTVSPropertyOp43
 70
     1
102
RTVSPropertyOp44
 70
     1
102
RTVSPropertyOp45
 70
     1
102
RTVSPropertyOp46
 70
     1
102
RTVSPropertyOp47
 70
     1
102
RTVSPropertyOp48
 70
     1
102
RTVSPropertyOp49
 70
     1
102
RTVSPropertyOp50
 70
     1
102
RTVSPropertyOp51
 70
     0
102
RTVSPropertyOp52
 70
     0
102
RTVSPropertyOp53
 70
     1
102
RTVSPropertyOp54
 70
     1
102
RTVSPropertyOp55
 70
     1
102
RTVSPropertyOp56
 70
     1
102
RTVSPropertyOp57
 70
     1
102
RTVSPost2010Prop28
280
     0
102
RTVSPost2010PropOp28
 70
     1
102
RTVSPost2010Prop29
280
     1
102
RTVSPost2010PropOp29
 70
     1
102
RTVSPost2010Prop30
280
     1
102
RTVSPost2010PropOp30
 70
     1
102
RTVSPost2010Prop31
280
     0
102
RTVSPost2010PropOp31
 70
     1
102
RTVSPost2010Prop32
280
     0
102
RTVSPost2010PropOp32
 70
     1
102
RTVSPost2010Prop33
280
     0
102
RTVSPost2010PropOp33
 70
     1
102
RTVSPost2010Prop34
280
     0
102
RTVSPost2010PropOp34
 70
     1
102
RTVSPost2010Prop35
280
     0
102
RTVSPost2010PropOp35
 70
     1
102
RTVSPost2010Prop36
280
     0
102
RTVSPost2010PropOp36
 70
     1
102
RTVSPost2010Prop37
 90
       50
102
RTVSPost2010PropOp37
 70
     1
102
RTVSPost2010Prop38
140
0.0
102
RTVSPost2010PropOp38
 70
     1
102
RTVSPost2010Prop39
140
1.0
102
RTVSPost2010PropOp39
 70
     1
102
RTVSPost2010Prop40
 90
        0
102
RTVSPost2010PropOp40
 70
     1
102
RTVSPost2010Prop41ColorIndex
 90
       18
102
RTVSPost2010Prop41ColorRGB
 90
        0
102
RTVSPost2010PropOp41
 70
     1
102
RTVSPost2010Prop42
 90
       50
102
RTVSPost2010PropOp42
 70
     1
102
RTVSPost2010Prop43
 90
        3
102
RTVSPost2010PropOp43
 70
     1
102
RTVSPost2010Prop44ColorIndex
 90
        5
102
RTVSPost2010Prop44ColorRGB
 90
      255
102
RTVSPost2010PropOp44
 70
     1
102
RTVSPost2010Prop45
280
     0
102
RTVSPost2010PropOp45
 70
     1
102
RTVSPost2010Prop46
 90
       50
102
RTVSPost2010PropOp46
 70
     1
102
RTVSPost2010Prop47
 90
       50
102
RTVSPost2010PropOp47
 70
     1
102
RTVSPost2010Prop48
 90
       50
102
RTVSPost2010PropOp48
 70
     1
102
RTVSPost2010Prop49
280
     0
102
RTVSPost2010PropOp49
 70
     1
102
RTVSPost2010Prop50
 90
       50
102
RTVSPost2010PropOp50
 70
     1
102
RTVSPost2010Prop51ColorIndex
 90
      256
102
RTVSPost2010Prop51ColorRGB
 90
-16777216
102
RTVSPost2010PropOp51
 70
     0
102
RTVSPost2010Prop52
140
1.0
102
RTVSPost2010PropOp52
 70
     0
102
RTVSPost2010Prop53
 90
        2
102
RTVSPost2010PropOp53
 70
     1
102
RTVSPost2010Prop54
  1
strokes_ogs.tif
102
RTVSPost2010PropOp54
 70
     1
102
RTVSPost2010Prop55
280
     0
102
RTVSPost2010PropOp55
 70
     1
102
RTVSPost2010Prop56
140
1.0
102
RTVSPost2010PropOp56
 70
     1
102
RTVSPost2010Prop57
140
1.0
102
RTVSPost2010PropOp57
 70
     1
  0
XRECORD
  5
3A9
102
{ACAD_REACTORS
330
3A8
102
}
330
3A8
100
AcDbXrecord
280
     1
102
RTVSPropertyOp0
 70
     1
102
RTVSPropertyOp1
 70
     1
102
RTVSPropertyOp2
 70
     1
102
RTVSPropertyOp3
 70
     1
102
RTVSPropertyOp4
 70
     1
102
RTVSPropertyOp5
 70
     1
102
RTVSPropertyOp6
 70
     1
102
RTVSPropertyOp7
 70
     1
102
RTVSPropertyOp8
 70
     1
102
RTVSPropertyOp9
 70
     1
102
RTVSPropertyOp10
 70
     1
102
RTVSPropertyOp11
 70
     1
102
RTVSPropertyOp12
 70
     1
102
RTVSPropertyOp13
 70
     1
102
RTVSPropertyOp14
 70
     1
102
RTVSPropertyOp15
 70
     1
102
RTVSPropertyOp16
 70
     1
102
RTVSPropertyOp17
 70
     1
102
RTVSPropertyOp18
 70
     1
102
RTVSPropertyOp19
 70
     1
102
RTVSPropertyOp20
 70
     1
102
RTVSPropertyOp21
 70
     1
102
RTVSPropertyOp22
 70
     1
102
RTVSPropertyOp23
 70
     1
102
RTVSPropertyOp24
 70
     1
102
RTVSPropertyOp25
 70
     1
102
RTVSPropertyOp26
 70
     1
102
RTVSPropertyOp27
 70
     1
102
RTVSPropertyOp28
 70
     1
102
RTVSPropertyOp29
 70
     1
102
RTVSPropertyOp30
 70
     1
102
RTVSPropertyOp31
 70
     1
102
RTVSPropertyOp32
 70
     1
102
RTVSPropertyOp33
 70
     1
102
RTVSPropertyOp34
 70
     1
102
RTVSPropertyOp35
 70
     1
102
RTVSPropertyOp36
 70
     1
102
RTVSPropertyOp37
 70
     1
102
RTVSPropertyOp38
 70
     1
102
RTVSPropertyOp39
 70
     1
102
RTVSPropertyOp40
 70
     1
102
RTVSPropertyOp41
 70
     1
102
RTVSPropertyOp42
 70
     1
102
RTVSPropertyOp43
 70
     1
102
RTVSPropertyOp44
 70
     1
102
RTVSPropertyOp45
 70
     1
102
RTVSPropertyOp46
 70
     1
102
RTVSPropertyOp47
 70
     1
102
RTVSPropertyOp48
 70
     1
102
RTVSPropertyOp49
 70
     1
102
RTVSPropertyOp50
 70
     1
102
RTVSPropertyOp51
 70
     0
102
RTVSPropertyOp52
 70
     0
102
RTVSPropertyOp53
 70
     1
102
RTVSPropertyOp54
 70
     1
102
RTVSPropertyOp55
 70
     1
102
RTVSPropertyOp56
 70
     1
102
RTVSPropertyOp57
 70
     1
102
RTVSPost2010Prop28
280
     0
102
RTVSPost2010PropOp28
 70
     1
102
RTVSPost2010Prop29
280
     1
102
RTVSPost2010PropOp29
 70
     1
102
RTVSPost2010Prop30
280
     1
102
RTVSPost2010PropOp30
 70
     1
102
RTVSPost2010Prop31
280
     0
102
RTVSPost2010PropOp31
 70
     1
102
RTVSPost2010Prop32
280
     0
102
RTVSPost2010PropOp32
 70
     1
102
RTVSPost2010Prop33
280
     0
102
RTVSPost2010PropOp33
 70
     1
102
RTVSPost2010Prop34
280
     0
102
RTVSPost2010PropOp34
 70
     1
102
RTVSPost2010Prop35
280
     0
102
RTVSPost2010PropOp35
 70
     1
102
RTVSPost2010Prop36
280
     0
102
RTVSPost2010PropOp36
 70
     1
102
RTVSPost2010Prop37
 90
       50
102
RTVSPost2010PropOp37
 70
     1
102
RTVSPost2010Prop38
140
0.0
102
RTVSPost2010PropOp38
 70
     1
102
RTVSPost2010Prop39
140
1.0
102
RTVSPost2010PropOp39
 70
     1
102
RTVSPost2010Prop40
 90
        0
102
RTVSPost2010PropOp40
 70
     1
102
RTVSPost2010Prop41ColorIndex
 90
       18
102
RTVSPost2010Prop41ColorRGB
 90
        0
102
RTVSPost2010PropOp41
 70
     1
102
RTVSPost2010Prop42
 90
       50
102
RTVSPost2010PropOp42
 70
     1
102
RTVSPost2010Prop43
 90
        3
102
RTVSPost2010PropOp43
 70
     1
102
RTVSPost2010Prop44ColorIndex
 90
        5
102
RTVSPost2010Prop44ColorRGB
 90
      255
102
RTVSPost2010PropOp44
 70
     1
102
RTVSPost2010Prop45
280
     0
102
RTVSPost2010PropOp45
 70
     1
102
RTVSPost2010Prop46
 90
       50
102
RTVSPost2010PropOp46
 70
     1
102
RTVSPost2010Prop47
 90
       50
102
RTVSPost2010PropOp47
 70
     1
102
RTVSPost2010Prop48
 90
       50
102
RTVSPost2010PropOp48
 70
     1
102
RTVSPost2010Prop49
280
     0
102
RTVSPost2010PropOp49
 70
     1
102
RTVSPost2010Prop50
 90
       50
102
RTVSPost2010PropOp50
 70
     1
102
RTVSPost2010Prop51ColorIndex
 90
      256
102
RTVSPost2010Prop51ColorRGB
 90
-16777216
102
RTVSPost2010PropOp51
 70
     0
102
RTVSPost2010Prop52
140
1.0
102
RTVSPost2010PropOp52
 70
     0
102
RTVSPost2010Prop53
 90
        2
102
RTVSPost2010PropOp53
 70
     1
102
RTVSPost2010Prop54
  1
strokes_ogs.tif
102
RTVSPost2010PropOp54
 70
     1
102
RTVSPost2010Prop55
280
     0
102
RTVSPost2010PropOp55
 70
     1
102
RTVSPost2010Prop56
140
1.0
102
RTVSPost2010PropOp56
 70
     1
102
RTVSPost2010Prop57
140
1.0
102
RTVSPost2010PropOp57
 70
     1
  0
XRECORD
  5
3AB
102
{ACAD_REACTORS
330
3AA
102
}
330
3AA
100
AcDbXrecord
280
     1
102
RTVSPropertyOp0
 70
     1
102
RTVSPropertyOp1
 70
     1
102
RTVSPropertyOp2
 70
     1
102
RTVSPropertyOp3
 70
     1
102
RTVSPropertyOp4
 70
     1
102
RTVSPropertyOp5
 70
     1
102
RTVSPropertyOp6
 70
     1
102
RTVSPropertyOp7
 70
     1
102
RTVSPropertyOp8
 70
     1
102
RTVSPropertyOp9
 70
     1
102
RTVSPropertyOp10
 70
     1
102
RTVSPropertyOp11
 70
     1
102
RTVSPropertyOp12
 70
     1
102
RTVSPropertyOp13
 70
     1
102
RTVSPropertyOp14
 70
     1
102
RTVSPropertyOp15
 70
     1
102
RTVSPropertyOp16
 70
     1
102
RTVSPropertyOp17
 70
     1
102
RTVSPropertyOp18
 70
     1
102
RTVSPropertyOp19
 70
     1
102
RTVSPropertyOp20
 70
     1
102
RTVSPropertyOp21
 70
     1
102
RTVSPropertyOp22
 70
     1
102
RTVSPropertyOp23
 70
     1
102
RTVSPropertyOp24
 70
     1
102
RTVSPropertyOp25
 70
     1
102
RTVSPropertyOp26
 70
     1
102
RTVSPropertyOp27
 70
     1
102
RTVSPropertyOp28
 70
     1
102
RTVSPropertyOp29
 70
     1
102
RTVSPropertyOp30
 70
     1
102
RTVSPropertyOp31
 70
     1
102
RTVSPropertyOp32
 70
     1
102
RTVSPropertyOp33
 70
     1
102
RTVSPropertyOp34
 70
     1
102
RTVSPropertyOp35
 70
     1
102
RTVSPropertyOp36
 70
     1
102
RTVSPropertyOp37
 70
     1
102
RTVSPropertyOp38
 70
     1
102
RTVSPropertyOp39
 70
     1
102
RTVSPropertyOp40
 70
     1
102
RTVSPropertyOp41
 70
     1
102
RTVSPropertyOp42
 70
     1
102
RTVSPropertyOp43
 70
     1
102
RTVSPropertyOp44
 70
     1
102
RTVSPropertyOp45
 70
     1
102
RTVSPropertyOp46
 70
     1
102
RTVSPropertyOp47
 70
     1
102
RTVSPropertyOp48
 70
     1
102
RTVSPropertyOp49
 70
     1
102
RTVSPropertyOp50
 70
     1
102
RTVSPropertyOp51
 70
     0
102
RTVSPropertyOp52
 70
     0
102
RTVSPropertyOp53
 70
     1
102
RTVSPropertyOp54
 70
     1
102
RTVSPropertyOp55
 70
     1
102
RTVSPropertyOp56
 70
     1
102
RTVSPropertyOp57
 70
     1
102
RTVSPost2010Prop28
280
     0
102
RTVSPost2010PropOp28
 70
     1
102
RTVSPost2010Prop29
280
     1
102
RTVSPost2010PropOp29
 70
     1
102
RTVSPost2010Prop30
280
     1
102
RTVSPost2010PropOp30
 70
     1
102
RTVSPost2010Prop31
280
     0
102
RTVSPost2010PropOp31
 70
     1
102
RTVSPost2010Prop32
280
     0
102
RTVSPost2010PropOp32
 70
     1
102
RTVSPost2010Prop33
280
     0
102
RTVSPost2010PropOp33
 70
     1
102
RTVSPost2010Prop34
280
     0
102
RTVSPost2010PropOp34
 70
     1
102
RTVSPost2010Prop35
280
     0
102
RTVSPost2010PropOp35
 70
     1
102
RTVSPost2010Prop36
280
     0
102
RTVSPost2010PropOp36
 70
     1
102
RTVSPost2010Prop37
 90
       50
102
RTVSPost2010PropOp37
 70
     1
102
RTVSPost2010Prop38
140
0.0
102
RTVSPost2010PropOp38
 70
     1
102
RTVSPost2010Prop39
140
1.0
102
RTVSPost2010PropOp39
 70
     1
102
RTVSPost2010Prop40
 90
        0
102
RTVSPost2010PropOp40
 70
     1
102
RTVSPost2010Prop41ColorIndex
 90
       18
102
RTVSPost2010Prop41ColorRGB
 90
        0
102
RTVSPost2010PropOp41
 70
     1
102
RTVSPost2010Prop42
 90
       50
102
RTVSPost2010PropOp42
 70
     1
102
RTVSPost2010Prop43
 90
        3
102
RTVSPost2010PropOp43
 70
     1
102
RTVSPost2010Prop44ColorIndex
 90
        5
102
RTVSPost2010Prop44ColorRGB
 90
      255
102
RTVSPost2010PropOp44
 70
     1
102
RTVSPost2010Prop45
280
     0
102
RTVSPost2010PropOp45
 70
     1
102
RTVSPost2010Prop46
 90
       50
102
RTVSPost2010PropOp46
 70
     1
102
RTVSPost2010Prop47
 90
       50
102
RTVSPost2010PropOp47
 70
     1
102
RTVSPost2010Prop48
 90
       50
102
RTVSPost2010PropOp48
 70
     1
102
RTVSPost2010Prop49
280
     0
102
RTVSPost2010PropOp49
 70
     1
102
RTVSPost2010Prop50
 90
       50
102
RTVSPost2010PropOp50
 70
     1
102
RTVSPost2010Prop51ColorIndex
 90
      256
102
RTVSPost2010Prop51ColorRGB
 90
-16777216
102
RTVSPost2010PropOp51
 70
     0
102
RTVSPost2010Prop52
140
1.0
102
RTVSPost2010PropOp52
 70
     0
102
RTVSPost2010Prop53
 90
        2
102
RTVSPost2010PropOp53
 70
     1
102
RTVSPost2010Prop54
  1
strokes_ogs.tif
102
RTVSPost2010PropOp54
 70
     1
102
RTVSPost2010Prop55
280
     0
102
RTVSPost2010PropOp55
 70
     1
102
RTVSPost2010Prop56
140
1.0
102
RTVSPost2010PropOp56
 70
     1
102
RTVSPost2010Prop57
140
1.0
102
RTVSPost2010PropOp57
 70
     1
  0
XRECORD
  5
3BB
102
{ACAD_REACTORS
330
3BA
102
}
330
3BA
100
AcDbXrecord
280
     1
102
RTVSPropertyOp0
 70
     0
102
RTVSPropertyOp1
 70
     0
102
RTVSPropertyOp2
 70
     0
102
RTVSPropertyOp3
 70
     0
102
RTVSPropertyOp4
 70
     0
102
RTVSPropertyOp5
 70
     0
102
RTVSPropertyOp6
 70
     0
102
RTVSPropertyOp7
 70
     0
102
RTVSPropertyOp8
 70
     0
102
RTVSPropertyOp9
 70
     0
102
RTVSPropertyOp10
 70
     0
102
RTVSPropertyOp11
 70
     0
102
RTVSPropertyOp12
 70
     0
102
RTVSPropertyOp13
 70
     0
102
RTVSPropertyOp14
 70
     2
102
RTVSPropertyOp15
 70
     0
102
RTVSPropertyOp16
 70
     0
102
RTVSPropertyOp17
 70
     0
102
RTVSPropertyOp18
 70
     0
102
RTVSPropertyOp19
 70
     0
102
RTVSPropertyOp20
 70
     0
102
RTVSPropertyOp21
 70
     0
102
RTVSPropertyOp22
 70
     0
102
RTVSPropertyOp23
 70
     0
102
RTVSPropertyOp24
 70
     0
102
RTVSPropertyOp25
 70
     0
102
RTVSPropertyOp26
 70
     0
102
RTVSPropertyOp27
 70
     0
102
RTVSPropertyOp28
 70
     0
102
RTVSPropertyOp29
 70
     0
102
RTVSPropertyOp30
 70
     0
102
RTVSPropertyOp31
 70
     0
102
RTVSPropertyOp32
 70
     0
102
RTVSPropertyOp33
 70
     0
102
RTVSPropertyOp34
 70
     0
102
RTVSPropertyOp35
 70
     0
102
RTVSPropertyOp36
 70
     0
102
RTVSPropertyOp37
 70
     0
102
RTVSPropertyOp38
 70
     0
102
RTVSPropertyOp39
 70
     0
102
RTVSPropertyOp40
 70
     0
102
RTVSPropertyOp41
 70
     0
102
RTVSPropertyOp42
 70
     0
102
RTVSPropertyOp43
 70
     0
102
RTVSPropertyOp44
 70
     0
102
RTVSPropertyOp45
 70
     0
102
RTVSPropertyOp46
 70
     0
102
RTVSPropertyOp47
 70
     0
102
RTVSPropertyOp48
 70
     0
102
RTVSPropertyOp49
 70
     0
102
RTVSPropertyOp50
 70
     0
102
RTVSPropertyOp51
 70
     0
102
RTVSPropertyOp52
 70
     0
102
RTVSPropertyOp53
 70
     0
102
RTVSPropertyOp54
 70
     0
102
RTVSPropertyOp55
 70
     0
102
RTVSPropertyOp56
 70
     0
102
RTVSPropertyOp57
 70
     0
102
RTVSPost2010Prop28
280
     0
102
RTVSPost2010PropOp28
 70
     0
102
RTVSPost2010Prop29
280
     1
102
RTVSPost2010PropOp29
 70
     0
102
RTVSPost2010Prop30
280
     1
102
RTVSPost2010PropOp30
 70
     0
102
RTVSPost2010Prop31
280
     0
102
RTVSPost2010PropOp31
 70
     0
102
RTVSPost2010Prop32
280
     0
102
RTVSPost2010PropOp32
 70
     0
102
RTVSPost2010Prop33
280
     0
102
RTVSPost2010PropOp33
 70
     0
102
RTVSPost2010Prop34
280
     0
102
RTVSPost2010PropOp34
 70
     0
102
RTVSPost2010Prop35
280
     0
102
RTVSPost2010PropOp35
 70
     0
102
RTVSPost2010Prop36
280
     0
102
RTVSPost2010PropOp36
 70
     0
102
RTVSPost2010Prop37
 90
       50
102
RTVSPost2010PropOp37
 70
     0
102
RTVSPost2010Prop38
140
0.0
102
RTVSPost2010PropOp38
 70
     0
102
RTVSPost2010Prop39
140
1.0
102
RTVSPost2010PropOp39
 70
     0
102
RTVSPost2010Prop40
 90
        0
102
RTVSPost2010PropOp40
 70
     0
102
RTVSPost2010Prop41ColorIndex
 90
       18
102
RTVSPost2010Prop41ColorRGB
 90
        0
102
RTVSPost2010PropOp41
 70
     0
102
RTVSPost2010Prop42
 90
       50
102
RTVSPost2010PropOp42
 70
     0
102
RTVSPost2010Prop43
 90
        3
102
RTVSPost2010PropOp43
 70
     0
102
RTVSPost2010Prop44ColorIndex
 90
        5
102
RTVSPost2010Prop44ColorRGB
 90
      255
102
RTVSPost2010PropOp44
 70
     0
102
RTVSPost2010Prop45
280
     0
102
RTVSPost2010PropOp45
 70
     0
102
RTVSPost2010Prop46
 90
       50
102
RTVSPost2010PropOp46
 70
     0
102
RTVSPost2010Prop47
 90
       50
102
RTVSPost2010PropOp47
 70
     0
102
RTVSPost2010Prop48
 90
       50
102
RTVSPost2010PropOp48
 70
     0
102
RTVSPost2010Prop49
280
     0
102
RTVSPost2010PropOp49
 70
     0
102
RTVSPost2010Prop50
 90
       50
102
RTVSPost2010PropOp50
 70
     0
102
RTVSPost2010Prop51ColorIndex
 90
      256
102
RTVSPost2010Prop51ColorRGB
 90
-16777216
102
RTVSPost2010PropOp51
 70
     0
102
RTVSPost2010Prop52
140
1.0
102
RTVSPost2010PropOp52
 70
     0
102
RTVSPost2010Prop53
 90
        2
102
RTVSPost2010PropOp53
 70
     0
102
RTVSPost2010Prop54
  1
strokes_ogs.tif
102
RTVSPost2010PropOp54
 70
     0
102
RTVSPost2010Prop55
280
     0
102
RTVSPost2010PropOp55
 70
     0
102
RTVSPost2010Prop56
140
1.0
102
RTVSPost2010PropOp56
 70
     0
102
RTVSPost2010Prop57
140
1.0
102
RTVSPost2010PropOp57
 70
     0
  0
XRECORD
  5
3B3
102
{ACAD_REACTORS
330
3B2
102
}
330
3B2
100
AcDbXrecord
280
     1
102
RTVSPropertyOp0
 70
     1
102
RTVSPropertyOp1
 70
     1
102
RTVSPropertyOp2
 70
     1
102
RTVSPropertyOp3
 70
     1
102
RTVSPropertyOp4
 70
     1
102
RTVSPropertyOp5
 70
     1
102
RTVSPropertyOp6
 70
     1
102
RTVSPropertyOp7
 70
     1
102
RTVSPropertyOp8
 70
     1
102
RTVSPropertyOp9
 70
     1
102
RTVSPropertyOp10
 70
     1
102
RTVSPropertyOp11
 70
     1
102
RTVSPropertyOp12
 70
     1
102
RTVSPropertyOp13
 70
     1
102
RTVSPropertyOp14
 70
     1
102
RTVSPropertyOp15
 70
     1
102
RTVSPropertyOp16
 70
     1
102
RTVSPropertyOp17
 70
     1
102
RTVSPropertyOp18
 70
     1
102
RTVSPropertyOp19
 70
     1
102
RTVSPropertyOp20
 70
     1
102
RTVSPropertyOp21
 70
     1
102
RTVSPropertyOp22
 70
     1
102
RTVSPropertyOp23
 70
     1
102
RTVSPropertyOp24
 70
     1
102
RTVSPropertyOp25
 70
     1
102
RTVSPropertyOp26
 70
     1
102
RTVSPropertyOp27
 70
     1
102
RTVSPropertyOp28
 70
     1
102
RTVSPropertyOp29
 70
     1
102
RTVSPropertyOp30
 70
     1
102
RTVSPropertyOp31
 70
     1
102
RTVSPropertyOp32
 70
     1
102
RTVSPropertyOp33
 70
     1
102
RTVSPropertyOp34
 70
     1
102
RTVSPropertyOp35
 70
     1
102
RTVSPropertyOp36
 70
     1
102
RTVSPropertyOp37
 70
     1
102
RTVSPropertyOp38
 70
     1
102
RTVSPropertyOp39
 70
     1
102
RTVSPropertyOp40
 70
     1
102
RTVSPropertyOp41
 70
     1
102
RTVSPropertyOp42
 70
     1
102
RTVSPropertyOp43
 70
     1
102
RTVSPropertyOp44
 70
     1
102
RTVSPropertyOp45
 70
     1
102
RTVSPropertyOp46
 70
     1
102
RTVSPropertyOp47
 70
     1
102
RTVSPropertyOp48
 70
     1
102
RTVSPropertyOp49
 70
     1
102
RTVSPropertyOp50
 70
     1
102
RTVSPropertyOp51
 70
     0
102
RTVSPropertyOp52
 70
     0
102
RTVSPropertyOp53
 70
     1
102
RTVSPropertyOp54
 70
     1
102
RTVSPropertyOp55
 70
     1
102
RTVSPropertyOp56
 70
     1
102
RTVSPropertyOp57
 70
     1
102
RTVSPost2010Prop28
280
     0
102
RTVSPost2010PropOp28
 70
     1
102
RTVSPost2010Prop29
280
     1
102
RTVSPost2010PropOp29
 70
     1
102
RTVSPost2010Prop30
280
     1
102
RTVSPost2010PropOp30
 70
     1
102
RTVSPost2010Prop31
280
     0
102
RTVSPost2010PropOp31
 70
     1
102
RTVSPost2010Prop32
280
     0
102
RTVSPost2010PropOp32
 70
     1
102
RTVSPost2010Prop33
280
     0
102
RTVSPost2010PropOp33
 70
     1
102
RTVSPost2010Prop34
280
     0
102
RTVSPost2010PropOp34
 70
     1
102
RTVSPost2010Prop35
280
     0
102
RTVSPost2010PropOp35
 70
     1
102
RTVSPost2010Prop36
280
     0
102
RTVSPost2010PropOp36
 70
     1
102
RTVSPost2010Prop37
 90
       50
102
RTVSPost2010PropOp37
 70
     1
102
RTVSPost2010Prop38
140
0.0
102
RTVSPost2010PropOp38
 70
     1
102
RTVSPost2010Prop39
140
1.0
102
RTVSPost2010PropOp39
 70
     1
102
RTVSPost2010Prop40
 90
        0
102
RTVSPost2010PropOp40
 70
     1
102
RTVSPost2010Prop41ColorIndex
 90
       18
102
RTVSPost2010Prop41ColorRGB
 90
        0
102
RTVSPost2010PropOp41
 70
     1
102
RTVSPost2010Prop42
 90
       50
102
RTVSPost2010PropOp42
 70
     1
102
RTVSPost2010Prop43
 90
        3
102
RTVSPost2010PropOp43
 70
     1
102
RTVSPost2010Prop44ColorIndex
 90
        5
102
RTVSPost2010Prop44ColorRGB
 90
      255
102
RTVSPost2010PropOp44
 70
     1
102
RTVSPost2010Prop45
280
     0
102
RTVSPost2010PropOp45
 70
     1
102
RTVSPost2010Prop46
 90
       50
102
RTVSPost2010PropOp46
 70
     1
102
RTVSPost2010Prop47
 90
       50
102
RTVSPost2010PropOp47
 70
     1
102
RTVSPost2010Prop48
 90
       50
102
RTVSPost2010PropOp48
 70
     1
102
RTVSPost2010Prop49
280
     0
102
RTVSPost2010PropOp49
 70
     1
102
RTVSPost2010Prop50
 90
       50
102
RTVSPost2010PropOp50
 70
     1
102
RTVSPost2010Prop51ColorIndex
 90
      256
102
RTVSPost2010Prop51ColorRGB
 90
-16777216
102
RTVSPost2010PropOp51
 70
     0
102
RTVSPost2010Prop52
140
1.0
102
RTVSPost2010PropOp52
 70
     0
102
RTVSPost2010Prop53
 90
        2
102
RTVSPost2010PropOp53
 70
     1
102
RTVSPost2010Prop54
  1
strokes_ogs.tif
102
RTVSPost2010PropOp54
 70
     1
102
RTVSPost2010Prop55
280
     0
102
RTVSPost2010PropOp55
 70
     1
102
RTVSPost2010Prop56
140
1.0
102
RTVSPost2010PropOp56
 70
     1
102
RTVSPost2010Prop57
140
1.0
102
RTVSPost2010PropOp57
 70
     1
  0
XRECORD
  5
397
102
{ACAD_REACTORS
330
396
102
}
330
396
100
AcDbXrecord
280
     1
102
RTVSPropertyOp0
 70
     1
102
RTVSPropertyOp1
 70
     1
102
RTVSPropertyOp2
 70
     1
102
RTVSPropertyOp3
 70
     1
102
RTVSPropertyOp4
 70
     1
102
RTVSPropertyOp5
 70
     1
102
RTVSPropertyOp6
 70
     1
102
RTVSPropertyOp7
 70
     1
102
RTVSPropertyOp8
 70
     1
102
RTVSPropertyOp9
 70
     1
102
RTVSPropertyOp10
 70
     1
102
RTVSPropertyOp11
 70
     1
102
RTVSPropertyOp12
 70
     1
102
RTVSPropertyOp13
 70
     1
102
RTVSPropertyOp14
 70
     1
102
RTVSPropertyOp15
 70
     1
102
RTVSPropertyOp16
 70
     1
102
RTVSPropertyOp17
 70
     1
102
RTVSPropertyOp18
 70
     1
102
RTVSPropertyOp19
 70
     1
102
RTVSPropertyOp20
 70
     1
102
RTVSPropertyOp21
 70
     1
102
RTVSPropertyOp22
 70
     1
102
RTVSPropertyOp23
 70
     1
102
RTVSPropertyOp24
 70
     1
102
RTVSPropertyOp25
 70
     1
102
RTVSPropertyOp26
 70
     1
102
RTVSPropertyOp27
 70
     1
102
RTVSPropertyOp28
 70
     1
102
RTVSPropertyOp29
 70
     1
102
RTVSPropertyOp30
 70
     1
102
RTVSPropertyOp31
 70
     1
102
RTVSPropertyOp32
 70
     1
102
RTVSPropertyOp33
 70
     1
102
RTVSPropertyOp34
 70
     1
102
RTVSPropertyOp35
 70
     1
102
RTVSPropertyOp36
 70
     1
102
RTVSPropertyOp37
 70
     1
102
RTVSPropertyOp38
 70
     1
102
RTVSPropertyOp39
 70
     1
102
RTVSPropertyOp40
 70
     1
102
RTVSPropertyOp41
 70
     1
102
RTVSPropertyOp42
 70
     1
102
RTVSPropertyOp43
 70
     1
102
RTVSPropertyOp44
 70
     1
102
RTVSPropertyOp45
 70
     1
102
RTVSPropertyOp46
 70
     1
102
RTVSPropertyOp47
 70
     1
102
RTVSPropertyOp48
 70
     1
102
RTVSPropertyOp49
 70
     1
102
RTVSPropertyOp50
 70
     1
102
RTVSPropertyOp51
 70
     0
102
RTVSPropertyOp52
 70
     0
102
RTVSPropertyOp53
 70
     1
102
RTVSPropertyOp54
 70
     1
102
RTVSPropertyOp55
 70
     1
102
RTVSPropertyOp56
 70
     1
102
RTVSPropertyOp57
 70
     1
102
RTVSPost2010Prop28
280
     0
102
RTVSPost2010PropOp28
 70
     1
102
RTVSPost2010Prop29
280
     1
102
RTVSPost2010PropOp29
 70
     1
102
RTVSPost2010Prop30
280
     1
102
RTVSPost2010PropOp30
 70
     1
102
RTVSPost2010Prop31
280
     0
102
RTVSPost2010PropOp31
 70
     1
102
RTVSPost2010Prop32
280
     0
102
RTVSPost2010PropOp32
 70
     1
102
RTVSPost2010Prop33
280
     0
102
RTVSPost2010PropOp33
 70
     1
102
RTVSPost2010Prop34
280
     0
102
RTVSPost2010PropOp34
 70
     1
102
RTVSPost2010Prop35
280
     0
102
RTVSPost2010PropOp35
 70
     1
102
RTVSPost2010Prop36
280
     0
102
RTVSPost2010PropOp36
 70
     1
102
RTVSPost2010Prop37
 90
       50
102
RTVSPost2010PropOp37
 70
     1
102
RTVSPost2010Prop38
140
0.0
102
RTVSPost2010PropOp38
 70
     1
102
RTVSPost2010Prop39
140
1.0
102
RTVSPost2010PropOp39
 70
     1
102
RTVSPost2010Prop40
 90
        0
102
RTVSPost2010PropOp40
 70
     1
102
RTVSPost2010Prop41ColorIndex
 90
       18
102
RTVSPost2010Prop41ColorRGB
 90
        0
102
RTVSPost2010PropOp41
 70
     1
102
RTVSPost2010Prop42
 90
       50
102
RTVSPost2010PropOp42
 70
     1
102
RTVSPost2010Prop43
 90
        3
102
RTVSPost2010PropOp43
 70
     1
102
RTVSPost2010Prop44ColorIndex
 90
        5
102
RTVSPost2010Prop44ColorRGB
 90
      255
102
RTVSPost2010PropOp44
 70
     1
102
RTVSPost2010Prop45
280
     0
102
RTVSPost2010PropOp45
 70
     1
102
RTVSPost2010Prop46
 90
       50
102
RTVSPost2010PropOp46
 70
     1
102
RTVSPost2010Prop47
 90
       50
102
RTVSPost2010PropOp47
 70
     1
102
RTVSPost2010Prop48
 90
       50
102
RTVSPost2010PropOp48
 70
     1
102
RTVSPost2010Prop49
280
     0
102
RTVSPost2010PropOp49
 70
     1
102
RTVSPost2010Prop50
 90
       50
102
RTVSPost2010PropOp50
 70
     1
102
RTVSPost2010Prop51ColorIndex
 90
      256
102
RTVSPost2010Prop51ColorRGB
 90
-16777216
102
RTVSPost2010PropOp51
 70
     0
102
RTVSPost2010Prop52
140
1.0
102
RTVSPost2010PropOp52
 70
     0
102
RTVSPost2010Prop53
 90
        2
102
RTVSPost2010PropOp53
 70
     1
102
RTVSPost2010Prop54
  1
strokes_ogs.tif
102
RTVSPost2010PropOp54
 70
     1
102
RTVSPost2010Prop55
280
     0
102
RTVSPost2010PropOp55
 70
     1
102
RTVSPost2010Prop56
140
1.0
102
RTVSPost2010PropOp56
 70
     1
102
RTVSPost2010Prop57
140
1.0
102
RTVSPost2010PropOp57
 70
     1
  0
XRECORD
  5
399
102
{ACAD_REACTORS
330
398
102
}
330
398
100
AcDbXrecord
280
     1
102
RTVSPropertyOp0
 70
     1
102
RTVSPropertyOp1
 70
     1
102
RTVSPropertyOp2
 70
     1
102
RTVSPropertyOp3
 70
     1
102
RTVSPropertyOp4
 70
     1
102
RTVSPropertyOp5
 70
     1
102
RTVSPropertyOp6
 70
     1
102
RTVSPropertyOp7
 70
     1
102
RTVSPropertyOp8
 70
     1
102
RTVSPropertyOp9
 70
     1
102
RTVSPropertyOp10
 70
     1
102
RTVSPropertyOp11
 70
     1
102
RTVSPropertyOp12
 70
     1
102
RTVSPropertyOp13
 70
     1
102
RTVSPropertyOp14
 70
     1
102
RTVSPropertyOp15
 70
     1
102
RTVSPropertyOp16
 70
     1
102
RTVSPropertyOp17
 70
     1
102
RTVSPropertyOp18
 70
     1
102
RTVSPropertyOp19
 70
     1
102
RTVSPropertyOp20
 70
     1
102
RTVSPropertyOp21
 70
     1
102
RTVSPropertyOp22
 70
     1
102
RTVSPropertyOp23
 70
     1
102
RTVSPropertyOp24
 70
     1
102
RTVSPropertyOp25
 70
     1
102
RTVSPropertyOp26
 70
     1
102
RTVSPropertyOp27
 70
     1
102
RTVSPropertyOp28
 70
     1
102
RTVSPropertyOp29
 70
     1
102
RTVSPropertyOp30
 70
     1
102
RTVSPropertyOp31
 70
     1
102
RTVSPropertyOp32
 70
     1
102
RTVSPropertyOp33
 70
     1
102
RTVSPropertyOp34
 70
     1
102
RTVSPropertyOp35
 70
     1
102
RTVSPropertyOp36
 70
     1
102
RTVSPropertyOp37
 70
     1
102
RTVSPropertyOp38
 70
     1
102
RTVSPropertyOp39
 70
     1
102
RTVSPropertyOp40
 70
     1
102
RTVSPropertyOp41
 70
     1
102
RTVSPropertyOp42
 70
     1
102
RTVSPropertyOp43
 70
     1
102
RTVSPropertyOp44
 70
     1
102
RTVSPropertyOp45
 70
     1
102
RTVSPropertyOp46
 70
     1
102
RTVSPropertyOp47
 70
     1
102
RTVSPropertyOp48
 70
     1
102
RTVSPropertyOp49
 70
     1
102
RTVSPropertyOp50
 70
     1
102
RTVSPropertyOp51
 70
     0
102
RTVSPropertyOp52
 70
     0
102
RTVSPropertyOp53
 70
     1
102
RTVSPropertyOp54
 70
     1
102
RTVSPropertyOp55
 70
     1
102
RTVSPropertyOp56
 70
     1
102
RTVSPropertyOp57
 70
     1
102
RTVSPost2010Prop28
280
     0
102
RTVSPost2010PropOp28
 70
     1
102
RTVSPost2010Prop29
280
     1
102
RTVSPost2010PropOp29
 70
     1
102
RTVSPost2010Prop30
280
     1
102
RTVSPost2010PropOp30
 70
     1
102
RTVSPost2010Prop31
280
     0
102
RTVSPost2010PropOp31
 70
     1
102
RTVSPost2010Prop32
280
     0
102
RTVSPost2010PropOp32
 70
     1
102
RTVSPost2010Prop33
280
     0
102
RTVSPost2010PropOp33
 70
     1
102
RTVSPost2010Prop34
280
     0
102
RTVSPost2010PropOp34
 70
     1
102
RTVSPost2010Prop35
280
     0
102
RTVSPost2010PropOp35
 70
     1
102
RTVSPost2010Prop36
280
     0
102
RTVSPost2010PropOp36
 70
     1
102
RTVSPost2010Prop37
 90
       50
102
RTVSPost2010PropOp37
 70
     1
102
RTVSPost2010Prop38
140
0.0
102
RTVSPost2010PropOp38
 70
     1
102
RTVSPost2010Prop39
140
1.0
102
RTVSPost2010PropOp39
 70
     1
102
RTVSPost2010Prop40
 90
        0
102
RTVSPost2010PropOp40
 70
     1
102
RTVSPost2010Prop41ColorIndex
 90
       18
102
RTVSPost2010Prop41ColorRGB
 90
        0
102
RTVSPost2010PropOp41
 70
     1
102
RTVSPost2010Prop42
 90
       50
102
RTVSPost2010PropOp42
 70
     1
102
RTVSPost2010Prop43
 90
        3
102
RTVSPost2010PropOp43
 70
     1
102
RTVSPost2010Prop44ColorIndex
 90
        5
102
RTVSPost2010Prop44ColorRGB
 90
      255
102
RTVSPost2010PropOp44
 70
     1
102
RTVSPost2010Prop45
280
     0
102
RTVSPost2010PropOp45
 70
     1
102
RTVSPost2010Prop46
 90
       50
102
RTVSPost2010PropOp46
 70
     1
102
RTVSPost2010Prop47
 90
       50
102
RTVSPost2010PropOp47
 70
     1
102
RTVSPost2010Prop48
 90
       50
102
RTVSPost2010PropOp48
 70
     1
102
RTVSPost2010Prop49
280
     0
102
RTVSPost2010PropOp49
 70
     1
102
RTVSPost2010Prop50
 90
       50
102
RTVSPost2010PropOp50
 70
     1
102
RTVSPost2010Prop51ColorIndex
 90
      256
102
RTVSPost2010Prop51ColorRGB
 90
-16777216
102
RTVSPost2010PropOp51
 70
     0
102
RTVSPost2010Prop52
140
1.0
102
RTVSPost2010PropOp52
 70
     0
102
RTVSPost2010Prop53
 90
        2
102
RTVSPost2010PropOp53
 70
     1
102
RTVSPost2010Prop54
  1
strokes_ogs.tif
102
RTVSPost2010PropOp54
 70
     1
102
RTVSPost2010Prop55
280
     0
102
RTVSPost2010PropOp55
 70
     1
102
RTVSPost2010Prop56
140
1.0
102
RTVSPost2010PropOp56
 70
     1
102
RTVSPost2010Prop57
140
1.0
102
RTVSPost2010PropOp57
 70
     1
  0
XRECORD
  5
39B
102
{ACAD_REACTORS
330
39A
102
}
330
39A
100
AcDbXrecord
280
     1
102
RTVSPropertyOp0
 70
     1
102
RTVSPropertyOp1
 70
     1
102
RTVSPropertyOp2
 70
     1
102
RTVSPropertyOp3
 70
     1
102
RTVSPropertyOp4
 70
     1
102
RTVSPropertyOp5
 70
     1
102
RTVSPropertyOp6
 70
     1
102
RTVSPropertyOp7
 70
     1
102
RTVSPropertyOp8
 70
     1
102
RTVSPropertyOp9
 70
     1
102
RTVSPropertyOp10
 70
     1
102
RTVSPropertyOp11
 70
     1
102
RTVSPropertyOp12
 70
     1
102
RTVSPropertyOp13
 70
     1
102
RTVSPropertyOp14
 70
     1
102
RTVSPropertyOp15
 70
     1
102
RTVSPropertyOp16
 70
     1
102
RTVSPropertyOp17
 70
     1
102
RTVSPropertyOp18
 70
     1
102
RTVSPropertyOp19
 70
     1
102
RTVSPropertyOp20
 70
     1
102
RTVSPropertyOp21
 70
     1
102
RTVSPropertyOp22
 70
     1
102
RTVSPropertyOp23
 70
     1
102
RTVSPropertyOp24
 70
     1
102
RTVSPropertyOp25
 70
     1
102
RTVSPropertyOp26
 70
     1
102
RTVSPropertyOp27
 70
     1
102
RTVSPropertyOp28
 70
     1
102
RTVSPropertyOp29
 70
     1
102
RTVSPropertyOp30
 70
     1
102
RTVSPropertyOp31
 70
     1
102
RTVSPropertyOp32
 70
     1
102
RTVSPropertyOp33
 70
     1
102
RTVSPropertyOp34
 70
     1
102
RTVSPropertyOp35
 70
     1
102
RTVSPropertyOp36
 70
     1
102
RTVSPropertyOp37
 70
     1
102
RTVSPropertyOp38
 70
     1
102
RTVSPropertyOp39
 70
     1
102
RTVSPropertyOp40
 70
     1
102
RTVSPropertyOp41
 70
     1
102
RTVSPropertyOp42
 70
     1
102
RTVSPropertyOp43
 70
     1
102
RTVSPropertyOp44
 70
     1
102
RTVSPropertyOp45
 70
     1
102
RTVSPropertyOp46
 70
     1
102
RTVSPropertyOp47
 70
     1
102
RTVSPropertyOp48
 70
     1
102
RTVSPropertyOp49
 70
     1
102
RTVSPropertyOp50
 70
     1
102
RTVSPropertyOp51
 70
     0
102
RTVSPropertyOp52
 70
     0
102
RTVSPropertyOp53
 70
     1
102
RTVSPropertyOp54
 70
     1
102
RTVSPropertyOp55
 70
     1
102
RTVSPropertyOp56
 70
     1
102
RTVSPropertyOp57
 70
     1
102
RTVSPost2010Prop28
280
     0
102
RTVSPost2010PropOp28
 70
     1
102
RTVSPost2010Prop29
280
     1
102
RTVSPost2010PropOp29
 70
     1
102
RTVSPost2010Prop30
280
     1
102
RTVSPost2010PropOp30
 70
     1
102
RTVSPost2010Prop31
280
     0
102
RTVSPost2010PropOp31
 70
     1
102
RTVSPost2010Prop32
280
     0
102
RTVSPost2010PropOp32
 70
     1
102
RTVSPost2010Prop33
280
     0
102
RTVSPost2010PropOp33
 70
     1
102
RTVSPost2010Prop34
280
     0
102
RTVSPost2010PropOp34
 70
     1
102
RTVSPost2010Prop35
280
     0
102
RTVSPost2010PropOp35
 70
     1
102
RTVSPost2010Prop36
280
     0
102
RTVSPost2010PropOp36
 70
     1
102
RTVSPost2010Prop37
 90
       50
102
RTVSPost2010PropOp37
 70
     1
102
RTVSPost2010Prop38
140
0.0
102
RTVSPost2010PropOp38
 70
     1
102
RTVSPost2010Prop39
140
1.0
102
RTVSPost2010PropOp39
 70
     1
102
RTVSPost2010Prop40
 90
        0
102
RTVSPost2010PropOp40
 70
     1
102
RTVSPost2010Prop41ColorIndex
 90
       18
102
RTVSPost2010Prop41ColorRGB
 90
        0
102
RTVSPost2010PropOp41
 70
     1
102
RTVSPost2010Prop42
 90
       50
102
RTVSPost2010PropOp42
 70
     1
102
RTVSPost2010Prop43
 90
        3
102
RTVSPost2010PropOp43
 70
     1
102
RTVSPost2010Prop44ColorIndex
 90
        5
102
RTVSPost2010Prop44ColorRGB
 90
      255
102
RTVSPost2010PropOp44
 70
     1
102
RTVSPost2010Prop45
280
     0
102
RTVSPost2010PropOp45
 70
     1
102
RTVSPost2010Prop46
 90
       50
102
RTVSPost2010PropOp46
 70
     1
102
RTVSPost2010Prop47
 90
       50
102
RTVSPost2010PropOp47
 70
     1
102
RTVSPost2010Prop48
 90
       50
102
RTVSPost2010PropOp48
 70
     1
102
RTVSPost2010Prop49
280
     0
102
RTVSPost2010PropOp49
 70
     1
102
RTVSPost2010Prop50
 90
       50
102
RTVSPost2010PropOp50
 70
     1
102
RTVSPost2010Prop51ColorIndex
 90
      256
102
RTVSPost2010Prop51ColorRGB
 90
-16777216
102
RTVSPost2010PropOp51
 70
     0
102
RTVSPost2010Prop52
140
1.0
102
RTVSPost2010PropOp52
 70
     0
102
RTVSPost2010Prop53
 90
        2
102
RTVSPost2010PropOp53
 70
     1
102
RTVSPost2010Prop54
  1
strokes_ogs.tif
102
RTVSPost2010PropOp54
 70
     1
102
RTVSPost2010Prop55
280
     0
102
RTVSPost2010PropOp55
 70
     1
102
RTVSPost2010Prop56
140
1.0
102
RTVSPost2010PropOp56
 70
     1
102
RTVSPost2010Prop57
140
1.0
102
RTVSPost2010PropOp57
 70
     1
  0
XRECORD
  5
39D
102
{ACAD_REACTORS
330
39C
102
}
330
39C
100
AcDbXrecord
280
     1
102
RTVSPropertyOp0
 70
     1
102
RTVSPropertyOp1
 70
     1
102
RTVSPropertyOp2
 70
     1
102
RTVSPropertyOp3
 70
     1
102
RTVSPropertyOp4
 70
     1
102
RTVSPropertyOp5
 70
     1
102
RTVSPropertyOp6
 70
     1
102
RTVSPropertyOp7
 70
     1
102
RTVSPropertyOp8
 70
     1
102
RTVSPropertyOp9
 70
     1
102
RTVSPropertyOp10
 70
     1
102
RTVSPropertyOp11
 70
     1
102
RTVSPropertyOp12
 70
     1
102
RTVSPropertyOp13
 70
     1
102
RTVSPropertyOp14
 70
     1
102
RTVSPropertyOp15
 70
     1
102
RTVSPropertyOp16
 70
     1
102
RTVSPropertyOp17
 70
     1
102
RTVSPropertyOp18
 70
     1
102
RTVSPropertyOp19
 70
     1
102
RTVSPropertyOp20
 70
     1
102
RTVSPropertyOp21
 70
     1
102
RTVSPropertyOp22
 70
     1
102
RTVSPropertyOp23
 70
     1
102
RTVSPropertyOp24
 70
     1
102
RTVSPropertyOp25
 70
     1
102
RTVSPropertyOp26
 70
     1
102
RTVSPropertyOp27
 70
     1
102
RTVSPropertyOp28
 70
     1
102
RTVSPropertyOp29
 70
     1
102
RTVSPropertyOp30
 70
     1
102
RTVSPropertyOp31
 70
     1
102
RTVSPropertyOp32
 70
     1
102
RTVSPropertyOp33
 70
     1
102
RTVSPropertyOp34
 70
     1
102
RTVSPropertyOp35
 70
     1
102
RTVSPropertyOp36
 70
     1
102
RTVSPropertyOp37
 70
     1
102
RTVSPropertyOp38
 70
     1
102
RTVSPropertyOp39
 70
     1
102
RTVSPropertyOp40
 70
     1
102
RTVSPropertyOp41
 70
     1
102
RTVSPropertyOp42
 70
     1
102
RTVSPropertyOp43
 70
     1
102
RTVSPropertyOp44
 70
     1
102
RTVSPropertyOp45
 70
     1
102
RTVSPropertyOp46
 70
     1
102
RTVSPropertyOp47
 70
     1
102
RTVSPropertyOp48
 70
     1
102
RTVSPropertyOp49
 70
     1
102
RTVSPropertyOp50
 70
     1
102
RTVSPropertyOp51
 70
     0
102
RTVSPropertyOp52
 70
     0
102
RTVSPropertyOp53
 70
     1
102
RTVSPropertyOp54
 70
     1
102
RTVSPropertyOp55
 70
     1
102
RTVSPropertyOp56
 70
     1
102
RTVSPropertyOp57
 70
     1
102
RTVSPost2010Prop28
280
     0
102
RTVSPost2010PropOp28
 70
     1
102
RTVSPost2010Prop29
280
     1
102
RTVSPost2010PropOp29
 70
     1
102
RTVSPost2010Prop30
280
     1
102
RTVSPost2010PropOp30
 70
     1
102
RTVSPost2010Prop31
280
     0
102
RTVSPost2010PropOp31
 70
     1
102
RTVSPost2010Prop32
280
     0
102
RTVSPost2010PropOp32
 70
     1
102
RTVSPost2010Prop33
280
     0
102
RTVSPost2010PropOp33
 70
     1
102
RTVSPost2010Prop34
280
     0
102
RTVSPost2010PropOp34
 70
     1
102
RTVSPost2010Prop35
280
     0
102
RTVSPost2010PropOp35
 70
     1
102
RTVSPost2010Prop36
280
     0
102
RTVSPost2010PropOp36
 70
     1
102
RTVSPost2010Prop37
 90
       50
102
RTVSPost2010PropOp37
 70
     1
102
RTVSPost2010Prop38
140
0.0
102
RTVSPost2010PropOp38
 70
     1
102
RTVSPost2010Prop39
140
1.0
102
RTVSPost2010PropOp39
 70
     1
102
RTVSPost2010Prop40
 90
        0
102
RTVSPost2010PropOp40
 70
     1
102
RTVSPost2010Prop41ColorIndex
 90
       18
102
RTVSPost2010Prop41ColorRGB
 90
        0
102
RTVSPost2010PropOp41
 70
     1
102
RTVSPost2010Prop42
 90
       50
102
RTVSPost2010PropOp42
 70
     1
102
RTVSPost2010Prop43
 90
        3
102
RTVSPost2010PropOp43
 70
     1
102
RTVSPost2010Prop44ColorIndex
 90
        5
102
RTVSPost2010Prop44ColorRGB
 90
      255
102
RTVSPost2010PropOp44
 70
     1
102
RTVSPost2010Prop45
280
     0
102
RTVSPost2010PropOp45
 70
     1
102
RTVSPost2010Prop46
 90
       50
102
RTVSPost2010PropOp46
 70
     1
102
RTVSPost2010Prop47
 90
       50
102
RTVSPost2010PropOp47
 70
     1
102
RTVSPost2010Prop48
 90
       50
102
RTVSPost2010PropOp48
 70
     1
102
RTVSPost2010Prop49
280
     0
102
RTVSPost2010PropOp49
 70
     1
102
RTVSPost2010Prop50
 90
       50
102
RTVSPost2010PropOp50
 70
     1
102
RTVSPost2010Prop51ColorIndex
 90
      256
102
RTVSPost2010Prop51ColorRGB
 90
-16777216
102
RTVSPost2010PropOp51
 70
     0
102
RTVSPost2010Prop52
140
1.0
102
RTVSPost2010PropOp52
 70
     0
102
RTVSPost2010Prop53
 90
        2
102
RTVSPost2010PropOp53
 70
     1
102
RTVSPost2010Prop54
  1
strokes_ogs.tif
102
RTVSPost2010PropOp54
 70
     1
102
RTVSPost2010Prop55
280
     0
102
RTVSPost2010PropOp55
 70
     1
102
RTVSPost2010Prop56
140
1.0
102
RTVSPost2010PropOp56
 70
     1
102
RTVSPost2010Prop57
140
1.0
102
RTVSPost2010PropOp57
 70
     1
  0
XRECORD
  5
3A3
102
{ACAD_REACTORS
330
3A2
102
}
330
3A2
100
AcDbXrecord
280
     1
102
RTVSPropertyOp0
 70
     1
102
RTVSPropertyOp1
 70
     1
102
RTVSPropertyOp2
 70
     1
102
RTVSPropertyOp3
 70
     1
102
RTVSPropertyOp4
 70
     1
102
RTVSPropertyOp5
 70
     1
102
RTVSPropertyOp6
 70
     1
102
RTVSPropertyOp7
 70
     1
102
RTVSPropertyOp8
 70
     1
102
RTVSPropertyOp9
 70
     1
102
RTVSPropertyOp10
 70
     1
102
RTVSPropertyOp11
 70
     1
102
RTVSPropertyOp12
 70
     1
102
RTVSPropertyOp13
 70
     1
102
RTVSPropertyOp14
 70
     1
102
RTVSPropertyOp15
 70
     1
102
RTVSPropertyOp16
 70
     1
102
RTVSPropertyOp17
 70
     1
102
RTVSPropertyOp18
 70
     1
102
RTVSPropertyOp19
 70
     1
102
RTVSPropertyOp20
 70
     1
102
RTVSPropertyOp21
 70
     1
102
RTVSPropertyOp22
 70
     1
102
RTVSPropertyOp23
 70
     1
102
RTVSPropertyOp24
 70
     1
102
RTVSPropertyOp25
 70
     1
102
RTVSPropertyOp26
 70
     1
102
RTVSPropertyOp27
 70
     1
102
RTVSPropertyOp28
 70
     1
102
RTVSPropertyOp29
 70
     1
102
RTVSPropertyOp30
 70
     1
102
RTVSPropertyOp31
 70
     1
102
RTVSPropertyOp32
 70
     1
102
RTVSPropertyOp33
 70
     1
102
RTVSPropertyOp34
 70
     1
102
RTVSPropertyOp35
 70
     1
102
RTVSPropertyOp36
 70
     1
102
RTVSPropertyOp37
 70
     1
102
RTVSPropertyOp38
 70
     1
102
RTVSPropertyOp39
 70
     1
102
RTVSPropertyOp40
 70
     1
102
RTVSPropertyOp41
 70
     1
102
RTVSPropertyOp42
 70
     1
102
RTVSPropertyOp43
 70
     1
102
RTVSPropertyOp44
 70
     1
102
RTVSPropertyOp45
 70
     1
102
RTVSPropertyOp46
 70
     1
102
RTVSPropertyOp47
 70
     1
102
RTVSPropertyOp48
 70
     1
102
RTVSPropertyOp49
 70
     1
102
RTVSPropertyOp50
 70
     1
102
RTVSPropertyOp51
 70
     0
102
RTVSPropertyOp52
 70
     0
102
RTVSPropertyOp53
 70
     1
102
RTVSPropertyOp54
 70
     1
102
RTVSPropertyOp55
 70
     1
102
RTVSPropertyOp56
 70
     1
102
RTVSPropertyOp57
 70
     1
102
RTVSPost2010Prop28
280
     0
102
RTVSPost2010PropOp28
 70
     1
102
RTVSPost2010Prop29
280
     1
102
RTVSPost2010PropOp29
 70
     1
102
RTVSPost2010Prop30
280
     1
102
RTVSPost2010PropOp30
 70
     1
102
RTVSPost2010Prop31
280
     0
102
RTVSPost2010PropOp31
 70
     1
102
RTVSPost2010Prop32
280
     0
102
RTVSPost2010PropOp32
 70
     1
102
RTVSPost2010Prop33
280
     0
102
RTVSPost2010PropOp33
 70
     1
102
RTVSPost2010Prop34
280
     0
102
RTVSPost2010PropOp34
 70
     1
102
RTVSPost2010Prop35
280
     0
102
RTVSPost2010PropOp35
 70
     1
102
RTVSPost2010Prop36
280
     0
102
RTVSPost2010PropOp36
 70
     1
102
RTVSPost2010Prop37
 90
       50
102
RTVSPost2010PropOp37
 70
     1
102
RTVSPost2010Prop38
140
0.0
102
RTVSPost2010PropOp38
 70
     1
102
RTVSPost2010Prop39
140
1.0
102
RTVSPost2010PropOp39
 70
     1
102
RTVSPost2010Prop40
 90
        0
102
RTVSPost2010PropOp40
 70
     1
102
RTVSPost2010Prop41ColorIndex
 90
       18
102
RTVSPost2010Prop41ColorRGB
 90
        0
102
RTVSPost2010PropOp41
 70
     1
102
RTVSPost2010Prop42
 90
       50
102
RTVSPost2010PropOp42
 70
     1
102
RTVSPost2010Prop43
 90
        3
102
RTVSPost2010PropOp43
 70
     1
102
RTVSPost2010Prop44ColorIndex
 90
        5
102
RTVSPost2010Prop44ColorRGB
 90
      255
102
RTVSPost2010PropOp44
 70
     1
102
RTVSPost2010Prop45
280
     0
102
RTVSPost2010PropOp45
 70
     1
102
RTVSPost2010Prop46
 90
       50
102
RTVSPost2010PropOp46
 70
     1
102
RTVSPost2010Prop47
 90
       50
102
RTVSPost2010PropOp47
 70
     1
102
RTVSPost2010Prop48
 90
       50
102
RTVSPost2010PropOp48
 70
     1
102
RTVSPost2010Prop49
280
     0
102
RTVSPost2010PropOp49
 70
     1
102
RTVSPost2010Prop50
 90
       50
102
RTVSPost2010PropOp50
 70
     1
102
RTVSPost2010Prop51ColorIndex
 90
      256
102
RTVSPost2010Prop51ColorRGB
 90
-16777216
102
RTVSPost2010PropOp51
 70
     0
102
RTVSPost2010Prop52
140
1.0
102
RTVSPost2010PropOp52
 70
     0
102
RTVSPost2010Prop53
 90
        2
102
RTVSPost2010PropOp53
 70
     1
102
RTVSPost2010Prop54
  1
strokes_ogs.tif
102
RTVSPost2010PropOp54
 70
     1
102
RTVSPost2010Prop55
280
     0
102
RTVSPost2010PropOp55
 70
     1
102
RTVSPost2010Prop56
140
1.0
102
RTVSPost2010PropOp56
 70
     1
102
RTVSPost2010Prop57
140
1.0
102
RTVSPost2010PropOp57
 70
     1
  0
XRECORD
  5
3B7
102
{ACAD_REACTORS
330
3B6
102
}
330
3B6
100
AcDbXrecord
280
     1
102
RTVSPropertyOp0
 70
     0
102
RTVSPropertyOp1
 70
     0
102
RTVSPropertyOp2
 70
     0
102
RTVSPropertyOp3
 70
     0
102
RTVSPropertyOp4
 70
     0
102
RTVSPropertyOp5
 70
     0
102
RTVSPropertyOp6
 70
     0
102
RTVSPropertyOp7
 70
     0
102
RTVSPropertyOp8
 70
     0
102
RTVSPropertyOp9
 70
     0
102
RTVSPropertyOp10
 70
     0
102
RTVSPropertyOp11
 70
     0
102
RTVSPropertyOp12
 70
     0
102
RTVSPropertyOp13
 70
     0
102
RTVSPropertyOp14
 70
     2
102
RTVSPropertyOp15
 70
     0
102
RTVSPropertyOp16
 70
     0
102
RTVSPropertyOp17
 70
     0
102
RTVSPropertyOp18
 70
     0
102
RTVSPropertyOp19
 70
     0
102
RTVSPropertyOp20
 70
     0
102
RTVSPropertyOp21
 70
     0
102
RTVSPropertyOp22
 70
     0
102
RTVSPropertyOp23
 70
     0
102
RTVSPropertyOp24
 70
     0
102
RTVSPropertyOp25
 70
     0
102
RTVSPropertyOp26
 70
     0
102
RTVSPropertyOp27
 70
     0
102
RTVSPropertyOp28
 70
     0
102
RTVSPropertyOp29
 70
     0
102
RTVSPropertyOp30
 70
     0
102
RTVSPropertyOp31
 70
     0
102
RTVSPropertyOp32
 70
     0
102
RTVSPropertyOp33
 70
     0
102
RTVSPropertyOp34
 70
     0
102
RTVSPropertyOp35
 70
     0
102
RTVSPropertyOp36
 70
     0
102
RTVSPropertyOp37
 70
     0
102
RTVSPropertyOp38
 70
     0
102
RTVSPropertyOp39
 70
     0
102
RTVSPropertyOp40
 70
     0
102
RTVSPropertyOp41
 70
     0
102
RTVSPropertyOp42
 70
     0
102
RTVSPropertyOp43
 70
     0
102
RTVSPropertyOp44
 70
     0
102
RTVSPropertyOp45
 70
     0
102
RTVSPropertyOp46
 70
     0
102
RTVSPropertyOp47
 70
     0
102
RTVSPropertyOp48
 70
     0
102
RTVSPropertyOp49
 70
     0
102
RTVSPropertyOp50
 70
     0
102
RTVSPropertyOp51
 70
     0
102
RTVSPropertyOp52
 70
     0
102
RTVSPropertyOp53
 70
     0
102
RTVSPropertyOp54
 70
     0
102
RTVSPropertyOp55
 70
     0
102
RTVSPropertyOp56
 70
     0
102
RTVSPropertyOp57
 70
     0
102
RTVSPost2010Prop28
280
     0
102
RTVSPost2010PropOp28
 70
     0
102
RTVSPost2010Prop29
280
     1
102
RTVSPost2010PropOp29
 70
     0
102
RTVSPost2010Prop30
280
     1
102
RTVSPost2010PropOp30
 70
     0
102
RTVSPost2010Prop31
280
     0
102
RTVSPost2010PropOp31
 70
     0
102
RTVSPost2010Prop32
280
     0
102
RTVSPost2010PropOp32
 70
     0
102
RTVSPost2010Prop33
280
     0
102
RTVSPost2010PropOp33
 70
     0
102
RTVSPost2010Prop34
280
     0
102
RTVSPost2010PropOp34
 70
     0
102
RTVSPost2010Prop35
280
     0
102
RTVSPost2010PropOp35
 70
     0
102
RTVSPost2010Prop36
280
     0
102
RTVSPost2010PropOp36
 70
     0
102
RTVSPost2010Prop37
 90
       50
102
RTVSPost2010PropOp37
 70
     0
102
RTVSPost2010Prop38
140
0.0
102
RTVSPost2010PropOp38
 70
     0
102
RTVSPost2010Prop39
140
1.0
102
RTVSPost2010PropOp39
 70
     0
102
RTVSPost2010Prop40
 90
        0
102
RTVSPost2010PropOp40
 70
     0
102
RTVSPost2010Prop41ColorIndex
 90
       18
102
RTVSPost2010Prop41ColorRGB
 90
        0
102
RTVSPost2010PropOp41
 70
     0
102
RTVSPost2010Prop42
 90
       50
102
RTVSPost2010PropOp42
 70
     0
102
RTVSPost2010Prop43
 90
        3
102
RTVSPost2010PropOp43
 70
     0
102
RTVSPost2010Prop44ColorIndex
 90
        5
102
RTVSPost2010Prop44ColorRGB
 90
      255
102
RTVSPost2010PropOp44
 70
     0
102
RTVSPost2010Prop45
280
     0
102
RTVSPost2010PropOp45
 70
     0
102
RTVSPost2010Prop46
 90
       50
102
RTVSPost2010PropOp46
 70
     0
102
RTVSPost2010Prop47
 90
       50
102
RTVSPost2010PropOp47
 70
     0
102
RTVSPost2010Prop48
 90
       50
102
RTVSPost2010PropOp48
 70
     0
102
RTVSPost2010Prop49
280
     0
102
RTVSPost2010PropOp49
 70
     0
102
RTVSPost2010Prop50
 90
       50
102
RTVSPost2010PropOp50
 70
     0
102
RTVSPost2010Prop51ColorIndex
 90
      256
102
RTVSPost2010Prop51ColorRGB
 90
-16777216
102
RTVSPost2010PropOp51
 70
     0
102
RTVSPost2010Prop52
140
1.0
102
RTVSPost2010PropOp52
 70
     0
102
RTVSPost2010Prop53
 90
        2
102
RTVSPost2010PropOp53
 70
     0
102
RTVSPost2010Prop54
  1
strokes_ogs.tif
102
RTVSPost2010PropOp54
 70
     0
102
RTVSPost2010Prop55
280
     0
102
RTVSPost2010PropOp55
 70
     0
102
RTVSPost2010Prop56
140
1.0
102
RTVSPost2010PropOp56
 70
     0
102
RTVSPost2010Prop57
140
1.0
102
RTVSPost2010PropOp57
 70
     0
  0
XRECORD
  5
3B1
102
{ACAD_REACTORS
330
3B0
102
}
330
3B0
100
AcDbXrecord
280
     1
102
RTVSPropertyOp0
 70
     1
102
RTVSPropertyOp1
 70
     1
102
RTVSPropertyOp2
 70
     1
102
RTVSPropertyOp3
 70
     1
102
RTVSPropertyOp4
 70
     1
102
RTVSPropertyOp5
 70
     1
102
RTVSPropertyOp6
 70
     1
102
RTVSPropertyOp7
 70
     1
102
RTVSPropertyOp8
 70
     1
102
RTVSPropertyOp9
 70
     1
102
RTVSPropertyOp10
 70
     1
102
RTVSPropertyOp11
 70
     1
102
RTVSPropertyOp12
 70
     1
102
RTVSPropertyOp13
 70
     1
102
RTVSPropertyOp14
 70
     1
102
RTVSPropertyOp15
 70
     1
102
RTVSPropertyOp16
 70
     1
102
RTVSPropertyOp17
 70
     1
102
RTVSPropertyOp18
 70
     1
102
RTVSPropertyOp19
 70
     1
102
RTVSPropertyOp20
 70
     1
102
RTVSPropertyOp21
 70
     1
102
RTVSPropertyOp22
 70
     1
102
RTVSPropertyOp23
 70
     1
102
RTVSPropertyOp24
 70
     1
102
RTVSPropertyOp25
 70
     1
102
RTVSPropertyOp26
 70
     1
102
RTVSPropertyOp27
 70
     1
102
RTVSPropertyOp28
 70
     1
102
RTVSPropertyOp29
 70
     1
102
RTVSPropertyOp30
 70
     1
102
RTVSPropertyOp31
 70
     1
102
RTVSPropertyOp32
 70
     1
102
RTVSPropertyOp33
 70
     1
102
RTVSPropertyOp34
 70
     1
102
RTVSPropertyOp35
 70
     1
102
RTVSPropertyOp36
 70
     1
102
RTVSPropertyOp37
 70
     1
102
RTVSPropertyOp38
 70
     1
102
RTVSPropertyOp39
 70
     1
102
RTVSPropertyOp40
 70
     1
102
RTVSPropertyOp41
 70
     1
102
RTVSPropertyOp42
 70
     1
102
RTVSPropertyOp43
 70
     1
102
RTVSPropertyOp44
 70
     1
102
RTVSPropertyOp45
 70
     1
102
RTVSPropertyOp46
 70
     1
102
RTVSPropertyOp47
 70
     1
102
RTVSPropertyOp48
 70
     1
102
RTVSPropertyOp49
 70
     1
102
RTVSPropertyOp50
 70
     1
102
RTVSPropertyOp51
 70
     0
102
RTVSPropertyOp52
 70
     0
102
RTVSPropertyOp53
 70
     1
102
RTVSPropertyOp54
 70
     1
102
RTVSPropertyOp55
 70
     1
102
RTVSPropertyOp56
 70
     1
102
RTVSPropertyOp57
 70
     1
102
RTVSPost2010Prop28
280
     0
102
RTVSPost2010PropOp28
 70
     1
102
RTVSPost2010Prop29
280
     1
102
RTVSPost2010PropOp29
 70
     1
102
RTVSPost2010Prop30
280
     1
102
RTVSPost2010PropOp30
 70
     1
102
RTVSPost2010Prop31
280
     0
102
RTVSPost2010PropOp31
 70
     1
102
RTVSPost2010Prop32
280
     0
102
RTVSPost2010PropOp32
 70
     1
102
RTVSPost2010Prop33
280
     0
102
RTVSPost2010PropOp33
 70
     1
102
RTVSPost2010Prop34
280
     0
102
RTVSPost2010PropOp34
 70
     1
102
RTVSPost2010Prop35
280
     0
102
RTVSPost2010PropOp35
 70
     1
102
RTVSPost2010Prop36
280
     0
102
RTVSPost2010PropOp36
 70
     1
102
RTVSPost2010Prop37
 90
       50
102
RTVSPost2010PropOp37
 70
     1
102
RTVSPost2010Prop38
140
0.0
102
RTVSPost2010PropOp38
 70
     1
102
RTVSPost2010Prop39
140
1.0
102
RTVSPost2010PropOp39
 70
     1
102
RTVSPost2010Prop40
 90
        0
102
RTVSPost2010PropOp40
 70
     1
102
RTVSPost2010Prop41ColorIndex
 90
       18
102
RTVSPost2010Prop41ColorRGB
 90
        0
102
RTVSPost2010PropOp41
 70
     1
102
RTVSPost2010Prop42
 90
       50
102
RTVSPost2010PropOp42
 70
     1
102
RTVSPost2010Prop43
 90
        3
102
RTVSPost2010PropOp43
 70
     1
102
RTVSPost2010Prop44ColorIndex
 90
        5
102
RTVSPost2010Prop44ColorRGB
 90
      255
102
RTVSPost2010PropOp44
 70
     1
102
RTVSPost2010Prop45
280
     0
102
RTVSPost2010PropOp45
 70
     1
102
RTVSPost2010Prop46
 90
       50
102
RTVSPost2010PropOp46
 70
     1
102
RTVSPost2010Prop47
 90
       50
102
RTVSPost2010PropOp47
 70
     1
102
RTVSPost2010Prop48
 90
       50
102
RTVSPost2010PropOp48
 70
     1
102
RTVSPost2010Prop49
280
     0
102
RTVSPost2010PropOp49
 70
     1
102
RTVSPost2010Prop50
 90
       50
102
RTVSPost2010PropOp50
 70
     1
102
RTVSPost2010Prop51ColorIndex
 90
      256
102
RTVSPost2010Prop51ColorRGB
 90
-16777216
102
RTVSPost2010PropOp51
 70
     0
102
RTVSPost2010Prop52
140
1.0
102
RTVSPost2010PropOp52
 70
     0
102
RTVSPost2010Prop53
 90
        2
102
RTVSPost2010PropOp53
 70
     1
102
RTVSPost2010Prop54
  1
strokes_ogs.tif
102
RTVSPost2010PropOp54
 70
     1
102
RTVSPost2010Prop55
280
     0
102
RTVSPost2010PropOp55
 70
     1
102
RTVSPost2010Prop56
140
1.0
102
RTVSPost2010PropOp56
 70
     1
102
RTVSPost2010Prop57
140
1.0
102
RTVSPost2010PropOp57
 70
     1
  0
XRECORD
  5
3B9
102
{ACAD_REACTORS
330
3B8
102
}
330
3B8
100
AcDbXrecord
280
     1
102
RTVSPropertyOp0
 70
     0
102
RTVSPropertyOp1
 70
     0
102
RTVSPropertyOp2
 70
     0
102
RTVSPropertyOp3
 70
     0
102
RTVSPropertyOp4
 70
     0
102
RTVSPropertyOp5
 70
     0
102
RTVSPropertyOp6
 70
     0
102
RTVSPropertyOp7
 70
     0
102
RTVSPropertyOp8
 70
     0
102
RTVSPropertyOp9
 70
     0
102
RTVSPropertyOp10
 70
     0
102
RTVSPropertyOp11
 70
     0
102
RTVSPropertyOp12
 70
     0
102
RTVSPropertyOp13
 70
     0
102
RTVSPropertyOp14
 70
     2
102
RTVSPropertyOp15
 70
     0
102
RTVSPropertyOp16
 70
     0
102
RTVSPropertyOp17
 70
     0
102
RTVSPropertyOp18
 70
     0
102
RTVSPropertyOp19
 70
     0
102
RTVSPropertyOp20
 70
     0
102
RTVSPropertyOp21
 70
     0
102
RTVSPropertyOp22
 70
     0
102
RTVSPropertyOp23
 70
     0
102
RTVSPropertyOp24
 70
     0
102
RTVSPropertyOp25
 70
     0
102
RTVSPropertyOp26
 70
     0
102
RTVSPropertyOp27
 70
     0
102
RTVSPropertyOp28
 70
     0
102
RTVSPropertyOp29
 70
     0
102
RTVSPropertyOp30
 70
     0
102
RTVSPropertyOp31
 70
     0
102
RTVSPropertyOp32
 70
     0
102
RTVSPropertyOp33
 70
     0
102
RTVSPropertyOp34
 70
     0
102
RTVSPropertyOp35
 70
     0
102
RTVSPropertyOp36
 70
     0
102
RTVSPropertyOp37
 70
     0
102
RTVSPropertyOp38
 70
     0
102
RTVSPropertyOp39
 70
     0
102
RTVSPropertyOp40
 70
     0
102
RTVSPropertyOp41
 70
     0
102
RTVSPropertyOp42
 70
     0
102
RTVSPropertyOp43
 70
     0
102
RTVSPropertyOp44
 70
     0
102
RTVSPropertyOp45
 70
     0
102
RTVSPropertyOp46
 70
     0
102
RTVSPropertyOp47
 70
     0
102
RTVSPropertyOp48
 70
     0
102
RTVSPropertyOp49
 70
     0
102
RTVSPropertyOp50
 70
     0
102
RTVSPropertyOp51
 70
     0
102
RTVSPropertyOp52
 70
     0
102
RTVSPropertyOp53
 70
     0
102
RTVSPropertyOp54
 70
     0
102
RTVSPropertyOp55
 70
     0
102
RTVSPropertyOp56
 70
     0
102
RTVSPropertyOp57
 70
     0
102
RTVSPost2010Prop28
280
     0
102
RTVSPost2010PropOp28
 70
     0
102
RTVSPost2010Prop29
280
     1
102
RTVSPost2010PropOp29
 70
     0
102
RTVSPost2010Prop30
280
     1
102
RTVSPost2010PropOp30
 70
     0
102
RTVSPost2010Prop31
280
     0
102
RTVSPost2010PropOp31
 70
     0
102
RTVSPost2010Prop32
280
     0
102
RTVSPost2010PropOp32
 70
     0
102
RTVSPost2010Prop33
280
     0
102
RTVSPost2010PropOp33
 70
     0
102
RTVSPost2010Prop34
280
     0
102
RTVSPost2010PropOp34
 70
     0
102
RTVSPost2010Prop35
280
     0
102
RTVSPost2010PropOp35
 70
     0
102
RTVSPost2010Prop36
280
     0
102
RTVSPost2010PropOp36
 70
     0
102
RTVSPost2010Prop37
 90
       50
102
RTVSPost2010PropOp37
 70
     0
102
RTVSPost2010Prop38
140
0.0
102
RTVSPost2010PropOp38
 70
     0
102
RTVSPost2010Prop39
140
1.0
102
RTVSPost2010PropOp39
 70
     0
102
RTVSPost2010Prop40
 90
        0
102
RTVSPost2010PropOp40
 70
     0
102
RTVSPost2010Prop41ColorIndex
 90
       18
102
RTVSPost2010Prop41ColorRGB
 90
        0
102
RTVSPost2010PropOp41
 70
     0
102
RTVSPost2010Prop42
 90
       50
102
RTVSPost2010PropOp42
 70
     0
102
RTVSPost2010Prop43
 90
        3
102
RTVSPost2010PropOp43
 70
     0
102
RTVSPost2010Prop44ColorIndex
 90
        5
102
RTVSPost2010Prop44ColorRGB
 90
      255
102
RTVSPost2010PropOp44
 70
     0
102
RTVSPost2010Prop45
280
     0
102
RTVSPost2010PropOp45
 70
     0
102
RTVSPost2010Prop46
 90
       50
102
RTVSPost2010PropOp46
 70
     0
102
RTVSPost2010Prop47
 90
       50
102
RTVSPost2010PropOp47
 70
     0
102
RTVSPost2010Prop48
 90
       50
102
RTVSPost2010PropOp48
 70
     0
102
RTVSPost2010Prop49
280
     0
102
RTVSPost2010PropOp49
 70
     0
102
RTVSPost2010Prop50
 90
       50
102
RTVSPost2010PropOp50
 70
     0
102
RTVSPost2010Prop51ColorIndex
 90
      256
102
RTVSPost2010Prop51ColorRGB
 90
-16777216
102
RTVSPost2010PropOp51
 70
     0
102
RTVSPost2010Prop52
140
1.0
102
RTVSPost2010PropOp52
 70
     0
102
RTVSPost2010Prop53
 90
        2
102
RTVSPost2010PropOp53
 70
     0
102
RTVSPost2010Prop54
  1
strokes_ogs.tif
102
RTVSPost2010PropOp54
 70
     0
102
RTVSPost2010Prop55
280
     0
102
RTVSPost2010PropOp55
 70
     0
102
RTVSPost2010Prop56
140
1.0
102
RTVSPost2010PropOp56
 70
     0
102
RTVSPost2010Prop57
140
1.0
102
RTVSPost2010PropOp57
 70
     0
  0
XRECORD
  5
3A7
102
{ACAD_REACTORS
330
3A6
102
}
330
3A6
100
AcDbXrecord
280
     1
102
RTVSPropertyOp0
 70
     1
102
RTVSPropertyOp1
 70
     1
102
RTVSPropertyOp2
 70
     1
102
RTVSPropertyOp3
 70
     1
102
RTVSPropertyOp4
 70
     1
102
RTVSPropertyOp5
 70
     1
102
RTVSPropertyOp6
 70
     1
102
RTVSPropertyOp7
 70
     1
102
RTVSPropertyOp8
 70
     1
102
RTVSPropertyOp9
 70
     1
102
RTVSPropertyOp10
 70
     1
102
RTVSPropertyOp11
 70
     1
102
RTVSPropertyOp12
 70
     1
102
RTVSPropertyOp13
 70
     1
102
RTVSPropertyOp14
 70
     1
102
RTVSPropertyOp15
 70
     1
102
RTVSPropertyOp16
 70
     1
102
RTVSPropertyOp17
 70
     1
102
RTVSPropertyOp18
 70
     1
102
RTVSPropertyOp19
 70
     1
102
RTVSPropertyOp20
 70
     1
102
RTVSPropertyOp21
 70
     1
102
RTVSPropertyOp22
 70
     1
102
RTVSPropertyOp23
 70
     1
102
RTVSPropertyOp24
 70
     1
102
RTVSPropertyOp25
 70
     1
102
RTVSPropertyOp26
 70
     1
102
RTVSPropertyOp27
 70
     1
102
RTVSPropertyOp28
 70
     1
102
RTVSPropertyOp29
 70
     1
102
RTVSPropertyOp30
 70
     1
102
RTVSPropertyOp31
 70
     1
102
RTVSPropertyOp32
 70
     1
102
RTVSPropertyOp33
 70
     1
102
RTVSPropertyOp34
 70
     1
102
RTVSPropertyOp35
 70
     1
102
RTVSPropertyOp36
 70
     1
102
RTVSPropertyOp37
 70
     1
102
RTVSPropertyOp38
 70
     1
102
RTVSPropertyOp39
 70
     1
102
RTVSPropertyOp40
 70
     1
102
RTVSPropertyOp41
 70
     1
102
RTVSPropertyOp42
 70
     1
102
RTVSPropertyOp43
 70
     1
102
RTVSPropertyOp44
 70
     1
102
RTVSPropertyOp45
 70
     1
102
RTVSPropertyOp46
 70
     1
102
RTVSPropertyOp47
 70
     1
102
RTVSPropertyOp48
 70
     1
102
RTVSPropertyOp49
 70
     1
102
RTVSPropertyOp50
 70
     1
102
RTVSPropertyOp51
 70
     0
102
RTVSPropertyOp52
 70
     0
102
RTVSPropertyOp53
 70
     1
102
RTVSPropertyOp54
 70
     1
102
RTVSPropertyOp55
 70
     1
102
RTVSPropertyOp56
 70
     1
102
RTVSPropertyOp57
 70
     1
102
RTVSPost2010Prop28
280
     0
102
RTVSPost2010PropOp28
 70
     1
102
RTVSPost2010Prop29
280
     1
102
RTVSPost2010PropOp29
 70
     1
102
RTVSPost2010Prop30
280
     1
102
RTVSPost2010PropOp30
 70
     1
102
RTVSPost2010Prop31
280
     0
102
RTVSPost2010PropOp31
 70
     1
102
RTVSPost2010Prop32
280
     0
102
RTVSPost2010PropOp32
 70
     1
102
RTVSPost2010Prop33
280
     0
102
RTVSPost2010PropOp33
 70
     1
102
RTVSPost2010Prop34
280
     0
102
RTVSPost2010PropOp34
 70
     1
102
RTVSPost2010Prop35
280
     0
102
RTVSPost2010PropOp35
 70
     1
102
RTVSPost2010Prop36
280
     0
102
RTVSPost2010PropOp36
 70
     1
102
RTVSPost2010Prop37
 90
       50
102
RTVSPost2010PropOp37
 70
     1
102
RTVSPost2010Prop38
140
0.0
102
RTVSPost2010PropOp38
 70
     1
102
RTVSPost2010Prop39
140
1.0
102
RTVSPost2010PropOp39
 70
     1
102
RTVSPost2010Prop40
 90
        0
102
RTVSPost2010PropOp40
 70
     1
102
RTVSPost2010Prop41ColorIndex
 90
       18
102
RTVSPost2010Prop41ColorRGB
 90
        0
102
RTVSPost2010PropOp41
 70
     1
102
RTVSPost2010Prop42
 90
       50
102
RTVSPost2010PropOp42
 70
     1
102
RTVSPost2010Prop43
 90
        3
102
RTVSPost2010PropOp43
 70
     1
102
RTVSPost2010Prop44ColorIndex
 90
        5
102
RTVSPost2010Prop44ColorRGB
 90
      255
102
RTVSPost2010PropOp44
 70
     1
102
RTVSPost2010Prop45
280
     0
102
RTVSPost2010PropOp45
 70
     1
102
RTVSPost2010Prop46
 90
       50
102
RTVSPost2010PropOp46
 70
     1
102
RTVSPost2010Prop47
 90
       50
102
RTVSPost2010PropOp47
 70
     1
102
RTVSPost2010Prop48
 90
       50
102
RTVSPost2010PropOp48
 70
     1
102
RTVSPost2010Prop49
280
     0
102
RTVSPost2010PropOp49
 70
     1
102
RTVSPost2010Prop50
 90
       50
102
RTVSPost2010PropOp50
 70
     1
102
RTVSPost2010Prop51ColorIndex
 90
      256
102
RTVSPost2010Prop51ColorRGB
 90
-16777216
102
RTVSPost2010PropOp51
 70
     0
102
RTVSPost2010Prop52
140
1.0
102
RTVSPost2010PropOp52
 70
     0
102
RTVSPost2010Prop53
 90
        2
102
RTVSPost2010PropOp53
 70
     1
102
RTVSPost2010Prop54
  1
strokes_ogs.tif
102
RTVSPost2010PropOp54
 70
     1
102
RTVSPost2010Prop55
280
     0
102
RTVSPost2010PropOp55
 70
     1
102
RTVSPost2010Prop56
140
1.0
102
RTVSPost2010PropOp56
 70
     1
102
RTVSPost2010Prop57
140
1.0
102
RTVSPost2010PropOp57
 70
     1
  0
XRECORD
  5
3C5
102
{ACAD_REACTORS
330
3C4
102
}
330
3C4
100
AcDbXrecord
280
     1
102
RTVSPropertyOp0
 70
     1
102
RTVSPropertyOp1
 70
     1
102
RTVSPropertyOp2
 70
     1
102
RTVSPropertyOp3
 70
     1
102
RTVSPropertyOp4
 70
     1
102
RTVSPropertyOp5
 70
     1
102
RTVSPropertyOp6
 70
     1
102
RTVSPropertyOp7
 70
     1
102
RTVSPropertyOp8
 70
     1
102
RTVSPropertyOp9
 70
     1
102
RTVSPropertyOp10
 70
     1
102
RTVSPropertyOp11
 70
     1
102
RTVSPropertyOp12
 70
     1
102
RTVSPropertyOp13
 70
     1
102
RTVSPropertyOp14
 70
     1
102
RTVSPropertyOp15
 70
     1
102
RTVSPropertyOp16
 70
     1
102
RTVSPropertyOp17
 70
     1
102
RTVSPropertyOp18
 70
     1
102
RTVSPropertyOp19
 70
     1
102
RTVSPropertyOp20
 70
     1
102
RTVSPropertyOp21
 70
     1
102
RTVSPropertyOp22
 70
     1
102
RTVSPropertyOp23
 70
     1
102
RTVSPropertyOp24
 70
     1
102
RTVSPropertyOp25
 70
     1
102
RTVSPropertyOp26
 70
     1
102
RTVSPropertyOp27
 70
     1
102
RTVSPropertyOp28
 70
     1
102
RTVSPropertyOp29
 70
     1
102
RTVSPropertyOp30
 70
     1
102
RTVSPropertyOp31
 70
     1
102
RTVSPropertyOp32
 70
     1
102
RTVSPropertyOp33
 70
     1
102
RTVSPropertyOp34
 70
     1
102
RTVSPropertyOp35
 70
     1
102
RTVSPropertyOp36
 70
     1
102
RTVSPropertyOp37
 70
     1
102
RTVSPropertyOp38
 70
     1
102
RTVSPropertyOp39
 70
     1
102
RTVSPropertyOp40
 70
     1
102
RTVSPropertyOp41
 70
     1
102
RTVSPropertyOp42
 70
     1
102
RTVSPropertyOp43
 70
     1
102
RTVSPropertyOp44
 70
     1
102
RTVSPropertyOp45
 70
     1
102
RTVSPropertyOp46
 70
     1
102
RTVSPropertyOp47
 70
     1
102
RTVSPropertyOp48
 70
     1
102
RTVSPropertyOp49
 70
     1
102
RTVSPropertyOp50
 70
     1
102
RTVSPropertyOp51
 70
     0
102
RTVSPropertyOp52
 70
     0
102
RTVSPropertyOp53
 70
     1
102
RTVSPropertyOp54
 70
     1
102
RTVSPropertyOp55
 70
     1
102
RTVSPropertyOp56
 70
     1
102
RTVSPropertyOp57
 70
     1
102
RTVSPost2010Prop28
280
     0
102
RTVSPost2010PropOp28
 70
     1
102
RTVSPost2010Prop29
280
     1
102
RTVSPost2010PropOp29
 70
     1
102
RTVSPost2010Prop30
280
     1
102
RTVSPost2010PropOp30
 70
     1
102
RTVSPost2010Prop31
280
     0
102
RTVSPost2010PropOp31
 70
     1
102
RTVSPost2010Prop32
280
     0
102
RTVSPost2010PropOp32
 70
     1
102
RTVSPost2010Prop33
280
     0
102
RTVSPost2010PropOp33
 70
     1
102
RTVSPost2010Prop34
280
     0
102
RTVSPost2010PropOp34
 70
     1
102
RTVSPost2010Prop35
280
     0
102
RTVSPost2010PropOp35
 70
     1
102
RTVSPost2010Prop36
280
     0
102
RTVSPost2010PropOp36
 70
     1
102
RTVSPost2010Prop37
 90
       50
102
RTVSPost2010PropOp37
 70
     1
102
RTVSPost2010Prop38
140
0.0
102
RTVSPost2010PropOp38
 70
     1
102
RTVSPost2010Prop39
140
1.0
102
RTVSPost2010PropOp39
 70
     1
102
RTVSPost2010Prop40
 90
        0
102
RTVSPost2010PropOp40
 70
     1
102
RTVSPost2010Prop41ColorIndex
 90
       18
102
RTVSPost2010Prop41ColorRGB
 90
        0
102
RTVSPost2010PropOp41
 70
     1
102
RTVSPost2010Prop42
 90
       50
102
RTVSPost2010PropOp42
 70
     1
102
RTVSPost2010Prop43
 90
        3
102
RTVSPost2010PropOp43
 70
     1
102
RTVSPost2010Prop44ColorIndex
 90
        5
102
RTVSPost2010Prop44ColorRGB
 90
      255
102
RTVSPost2010PropOp44
 70
     1
102
RTVSPost2010Prop45
280
     0
102
RTVSPost2010PropOp45
 70
     1
102
RTVSPost2010Prop46
 90
       50
102
RTVSPost2010PropOp46
 70
     1
102
RTVSPost2010Prop47
 90
       50
102
RTVSPost2010PropOp47
 70
     1
102
RTVSPost2010Prop48
 90
       50
102
RTVSPost2010PropOp48
 70
     1
102
RTVSPost2010Prop49
280
     0
102
RTVSPost2010PropOp49
 70
     1
102
RTVSPost2010Prop50
 90
       50
102
RTVSPost2010PropOp50
 70
     1
102
RTVSPost2010Prop51ColorIndex
 90
      256
102
RTVSPost2010Prop51ColorRGB
 90
-16777216
102
RTVSPost2010PropOp51
 70
     0
102
RTVSPost2010Prop52
140
1.0
102
RTVSPost2010PropOp52
 70
     0
102
RTVSPost2010Prop53
 90
        2
102
RTVSPost2010PropOp53
 70
     1
102
RTVSPost2010Prop54
  1
strokes_ogs.tif
102
RTVSPost2010PropOp54
 70
     1
102
RTVSPost2010Prop55
280
     0
102
RTVSPost2010PropOp55
 70
     1
102
RTVSPost2010Prop56
140
1.0
102
RTVSPost2010PropOp56
 70
     1
102
RTVSPost2010Prop57
140
1.0
102
RTVSPost2010PropOp57
 70
     1
  0
XRECORD
  5
3C3
102
{ACAD_REACTORS
330
3C2
102
}
330
3C2
100
AcDbXrecord
280
     1
102
RTVSPropertyOp0
 70
     1
102
RTVSPropertyOp1
 70
     1
102
RTVSPropertyOp2
 70
     1
102
RTVSPropertyOp3
 70
     1
102
RTVSPropertyOp4
 70
     1
102
RTVSPropertyOp5
 70
     1
102
RTVSPropertyOp6
 70
     1
102
RTVSPropertyOp7
 70
     1
102
RTVSPropertyOp8
 70
     1
102
RTVSPropertyOp9
 70
     1
102
RTVSPropertyOp10
 70
     1
102
RTVSPropertyOp11
 70
     1
102
RTVSPropertyOp12
 70
     1
102
RTVSPropertyOp13
 70
     1
102
RTVSPropertyOp14
 70
     1
102
RTVSPropertyOp15
 70
     1
102
RTVSPropertyOp16
 70
     1
102
RTVSPropertyOp17
 70
     1
102
RTVSPropertyOp18
 70
     1
102
RTVSPropertyOp19
 70
     1
102
RTVSPropertyOp20
 70
     1
102
RTVSPropertyOp21
 70
     1
102
RTVSPropertyOp22
 70
     1
102
RTVSPropertyOp23
 70
     1
102
RTVSPropertyOp24
 70
     1
102
RTVSPropertyOp25
 70
     1
102
RTVSPropertyOp26
 70
     1
102
RTVSPropertyOp27
 70
     1
102
RTVSPropertyOp28
 70
     1
102
RTVSPropertyOp29
 70
     1
102
RTVSPropertyOp30
 70
     1
102
RTVSPropertyOp31
 70
     1
102
RTVSPropertyOp32
 70
     1
102
RTVSPropertyOp33
 70
     1
102
RTVSPropertyOp34
 70
     1
102
RTVSPropertyOp35
 70
     1
102
RTVSPropertyOp36
 70
     1
102
RTVSPropertyOp37
 70
     1
102
RTVSPropertyOp38
 70
     1
102
RTVSPropertyOp39
 70
     1
102
RTVSPropertyOp40
 70
     1
102
RTVSPropertyOp41
 70
     1
102
RTVSPropertyOp42
 70
     1
102
RTVSPropertyOp43
 70
     1
102
RTVSPropertyOp44
 70
     1
102
RTVSPropertyOp45
 70
     1
102
RTVSPropertyOp46
 70
     1
102
RTVSPropertyOp47
 70
     1
102
RTVSPropertyOp48
 70
     1
102
RTVSPropertyOp49
 70
     1
102
RTVSPropertyOp50
 70
     1
102
RTVSPropertyOp51
 70
     0
102
RTVSPropertyOp52
 70
     0
102
RTVSPropertyOp53
 70
     1
102
RTVSPropertyOp54
 70
     1
102
RTVSPropertyOp55
 70
     1
102
RTVSPropertyOp56
 70
     1
102
RTVSPropertyOp57
 70
     1
102
RTVSPost2010Prop28
280
     0
102
RTVSPost2010PropOp28
 70
     1
102
RTVSPost2010Prop29
280
     1
102
RTVSPost2010PropOp29
 70
     1
102
RTVSPost2010Prop30
280
     1
102
RTVSPost2010PropOp30
 70
     1
102
RTVSPost2010Prop31
280
     0
102
RTVSPost2010PropOp31
 70
     1
102
RTVSPost2010Prop32
280
     0
102
RTVSPost2010PropOp32
 70
     1
102
RTVSPost2010Prop33
280
     0
102
RTVSPost2010PropOp33
 70
     1
102
RTVSPost2010Prop34
280
     0
102
RTVSPost2010PropOp34
 70
     1
102
RTVSPost2010Prop35
280
     0
102
RTVSPost2010PropOp35
 70
     1
102
RTVSPost2010Prop36
280
     0
102
RTVSPost2010PropOp36
 70
     1
102
RTVSPost2010Prop37
 90
       50
102
RTVSPost2010PropOp37
 70
     1
102
RTVSPost2010Prop38
140
0.0
102
RTVSPost2010PropOp38
 70
     1
102
RTVSPost2010Prop39
140
1.0
102
RTVSPost2010PropOp39
 70
     1
102
RTVSPost2010Prop40
 90
        0
102
RTVSPost2010PropOp40
 70
     1
102
RTVSPost2010Prop41ColorIndex
 90
       18
102
RTVSPost2010Prop41ColorRGB
 90
        0
102
RTVSPost2010PropOp41
 70
     1
102
RTVSPost2010Prop42
 90
       50
102
RTVSPost2010PropOp42
 70
     1
102
RTVSPost2010Prop43
 90
        3
102
RTVSPost2010PropOp43
 70
     1
102
RTVSPost2010Prop44ColorIndex
 90
        5
102
RTVSPost2010Prop44ColorRGB
 90
      255
102
RTVSPost2010PropOp44
 70
     1
102
RTVSPost2010Prop45
280
     0
102
RTVSPost2010PropOp45
 70
     1
102
RTVSPost2010Prop46
 90
       50
102
RTVSPost2010PropOp46
 70
     1
102
RTVSPost2010Prop47
 90
       50
102
RTVSPost2010PropOp47
 70
     1
102
RTVSPost2010Prop48
 90
       50
102
RTVSPost2010PropOp48
 70
     1
102
RTVSPost2010Prop49
280
     0
102
RTVSPost2010PropOp49
 70
     1
102
RTVSPost2010Prop50
 90
       50
102
RTVSPost2010PropOp50
 70
     1
102
RTVSPost2010Prop51ColorIndex
 90
      256
102
RTVSPost2010Prop51ColorRGB
 90
-16777216
102
RTVSPost2010PropOp51
 70
     0
102
RTVSPost2010Prop52
140
1.0
102
RTVSPost2010PropOp52
 70
     0
102
RTVSPost2010Prop53
 90
        2
102
RTVSPost2010PropOp53
 70
     1
102
RTVSPost2010Prop54
  1
strokes_ogs.tif
102
RTVSPost2010PropOp54
 70
     1
102
RTVSPost2010Prop55
280
     0
102
RTVSPost2010PropOp55
 70
     1
102
RTVSPost2010Prop56
140
1.0
102
RTVSPost2010PropOp56
 70
     1
102
RTVSPost2010Prop57
140
1.0
102
RTVSPost2010PropOp57
 70
     1
  0
XRECORD
  5
3BD
102
{ACAD_REACTORS
330
3BC
102
}
330
3BC
100
AcDbXrecord
280
     1
102
RTVSPropertyOp0
 70
     1
102
RTVSPropertyOp1
 70
     1
102
RTVSPropertyOp2
 70
     1
102
RTVSPropertyOp3
 70
     1
102
RTVSPropertyOp4
 70
     1
102
RTVSPropertyOp5
 70
     1
102
RTVSPropertyOp6
 70
     1
102
RTVSPropertyOp7
 70
     1
102
RTVSPropertyOp8
 70
     1
102
RTVSPropertyOp9
 70
     1
102
RTVSPropertyOp10
 70
     1
102
RTVSPropertyOp11
 70
     1
102
RTVSPropertyOp12
 70
     1
102
RTVSPropertyOp13
 70
     1
102
RTVSPropertyOp14
 70
     1
102
RTVSPropertyOp15
 70
     1
102
RTVSPropertyOp16
 70
     1
102
RTVSPropertyOp17
 70
     1
102
RTVSPropertyOp18
 70
     1
102
RTVSPropertyOp19
 70
     1
102
RTVSPropertyOp20
 70
     1
102
RTVSPropertyOp21
 70
     1
102
RTVSPropertyOp22
 70
     1
102
RTVSPropertyOp23
 70
     1
102
RTVSPropertyOp24
 70
     1
102
RTVSPropertyOp25
 70
     1
102
RTVSPropertyOp26
 70
     1
102
RTVSPropertyOp27
 70
     1
102
RTVSPropertyOp28
 70
     1
102
RTVSPropertyOp29
 70
     1
102
RTVSPropertyOp30
 70
     1
102
RTVSPropertyOp31
 70
     1
102
RTVSPropertyOp32
 70
     1
102
RTVSPropertyOp33
 70
     1
102
RTVSPropertyOp34
 70
     1
102
RTVSPropertyOp35
 70
     1
102
RTVSPropertyOp36
 70
     1
102
RTVSPropertyOp37
 70
     1
102
RTVSPropertyOp38
 70
     1
102
RTVSPropertyOp39
 70
     1
102
RTVSPropertyOp40
 70
     1
102
RTVSPropertyOp41
 70
     1
102
RTVSPropertyOp42
 70
     1
102
RTVSPropertyOp43
 70
     1
102
RTVSPropertyOp44
 70
     1
102
RTVSPropertyOp45
 70
     1
102
RTVSPropertyOp46
 70
     1
102
RTVSPropertyOp47
 70
     1
102
RTVSPropertyOp48
 70
     1
102
RTVSPropertyOp49
 70
     1
102
RTVSPropertyOp50
 70
     1
102
RTVSPropertyOp51
 70
     0
102
RTVSPropertyOp52
 70
     0
102
RTVSPropertyOp53
 70
     1
102
RTVSPropertyOp54
 70
     1
102
RTVSPropertyOp55
 70
     1
102
RTVSPropertyOp56
 70
     1
102
RTVSPropertyOp57
 70
     1
102
RTVSPost2010Prop28
280
     0
102
RTVSPost2010PropOp28
 70
     1
102
RTVSPost2010Prop29
280
     1
102
RTVSPost2010PropOp29
 70
     1
102
RTVSPost2010Prop30
280
     1
102
RTVSPost2010PropOp30
 70
     1
102
RTVSPost2010Prop31
280
     0
102
RTVSPost2010PropOp31
 70
     1
102
RTVSPost2010Prop32
280
     0
102
RTVSPost2010PropOp32
 70
     1
102
RTVSPost2010Prop33
280
     0
102
RTVSPost2010PropOp33
 70
     1
102
RTVSPost2010Prop34
280
     0
102
RTVSPost2010PropOp34
 70
     1
102
RTVSPost2010Prop35
280
     0
102
RTVSPost2010PropOp35
 70
     1
102
RTVSPost2010Prop36
280
     0
102
RTVSPost2010PropOp36
 70
     1
102
RTVSPost2010Prop37
 90
       50
102
RTVSPost2010PropOp37
 70
     1
102
RTVSPost2010Prop38
140
0.0
102
RTVSPost2010PropOp38
 70
     1
102
RTVSPost2010Prop39
140
1.0
102
RTVSPost2010PropOp39
 70
     1
102
RTVSPost2010Prop40
 90
        0
102
RTVSPost2010PropOp40
 70
     1
102
RTVSPost2010Prop41ColorIndex
 90
       18
102
RTVSPost2010Prop41ColorRGB
 90
        0
102
RTVSPost2010PropOp41
 70
     1
102
RTVSPost2010Prop42
 90
       50
102
RTVSPost2010PropOp42
 70
     1
102
RTVSPost2010Prop43
 90
        3
102
RTVSPost2010PropOp43
 70
     1
102
RTVSPost2010Prop44ColorIndex
 90
        5
102
RTVSPost2010Prop44ColorRGB
 90
      255
102
RTVSPost2010PropOp44
 70
     1
102
RTVSPost2010Prop45
280
     0
102
RTVSPost2010PropOp45
 70
     1
102
RTVSPost2010Prop46
 90
       50
102
RTVSPost2010PropOp46
 70
     1
102
RTVSPost2010Prop47
 90
       50
102
RTVSPost2010PropOp47
 70
     1
102
RTVSPost2010Prop48
 90
       50
102
RTVSPost2010PropOp48
 70
     1
102
RTVSPost2010Prop49
280
     0
102
RTVSPost2010PropOp49
 70
     1
102
RTVSPost2010Prop50
 90
       50
102
RTVSPost2010PropOp50
 70
     1
102
RTVSPost2010Prop51ColorIndex
 90
      256
102
RTVSPost2010Prop51ColorRGB
 90
-16777216
102
RTVSPost2010PropOp51
 70
     0
102
RTVSPost2010Prop52
140
1.0
102
RTVSPost2010PropOp52
 70
     0
102
RTVSPost2010Prop53
 90
        2
102
RTVSPost2010PropOp53
 70
     1
102
RTVSPost2010Prop54
  1
strokes_ogs.tif
102
RTVSPost2010PropOp54
 70
     1
102
RTVSPost2010Prop55
280
     0
102
RTVSPost2010PropOp55
 70
     1
102
RTVSPost2010Prop56
140
1.0
102
RTVSPost2010PropOp56
 70
     1
102
RTVSPost2010Prop57
140
1.0
102
RTVSPost2010PropOp57
 70
     1
  0
XRECORD
  5
3BF
102
{ACAD_REACTORS
330
3BE
102
}
330
3BE
100
AcDbXrecord
280
     1
102
RTVSPropertyOp0
 70
     1
102
RTVSPropertyOp1
 70
     1
102
RTVSPropertyOp2
 70
     1
102
RTVSPropertyOp3
 70
     1
102
RTVSPropertyOp4
 70
     1
102
RTVSPropertyOp5
 70
     1
102
RTVSPropertyOp6
 70
     1
102
RTVSPropertyOp7
 70
     1
102
RTVSPropertyOp8
 70
     1
102
RTVSPropertyOp9
 70
     1
102
RTVSPropertyOp10
 70
     1
102
RTVSPropertyOp11
 70
     1
102
RTVSPropertyOp12
 70
     1
102
RTVSPropertyOp13
 70
     1
102
RTVSPropertyOp14
 70
     1
102
RTVSPropertyOp15
 70
     1
102
RTVSPropertyOp16
 70
     1
102
RTVSPropertyOp17
 70
     1
102
RTVSPropertyOp18
 70
     1
102
RTVSPropertyOp19
 70
     1
102
RTVSPropertyOp20
 70
     1
102
RTVSPropertyOp21
 70
     1
102
RTVSPropertyOp22
 70
     1
102
RTVSPropertyOp23
 70
     1
102
RTVSPropertyOp24
 70
     1
102
RTVSPropertyOp25
 70
     1
102
RTVSPropertyOp26
 70
     1
102
RTVSPropertyOp27
 70
     1
102
RTVSPropertyOp28
 70
     1
102
RTVSPropertyOp29
 70
     1
102
RTVSPropertyOp30
 70
     1
102
RTVSPropertyOp31
 70
     1
102
RTVSPropertyOp32
 70
     1
102
RTVSPropertyOp33
 70
     1
102
RTVSPropertyOp34
 70
     1
102
RTVSPropertyOp35
 70
     1
102
RTVSPropertyOp36
 70
     1
102
RTVSPropertyOp37
 70
     1
102
RTVSPropertyOp38
 70
     1
102
RTVSPropertyOp39
 70
     1
102
RTVSPropertyOp40
 70
     1
102
RTVSPropertyOp41
 70
     1
102
RTVSPropertyOp42
 70
     1
102
RTVSPropertyOp43
 70
     1
102
RTVSPropertyOp44
 70
     1
102
RTVSPropertyOp45
 70
     1
102
RTVSPropertyOp46
 70
     1
102
RTVSPropertyOp47
 70
     1
102
RTVSPropertyOp48
 70
     1
102
RTVSPropertyOp49
 70
     1
102
RTVSPropertyOp50
 70
     1
102
RTVSPropertyOp51
 70
     0
102
RTVSPropertyOp52
 70
     0
102
RTVSPropertyOp53
 70
     1
102
RTVSPropertyOp54
 70
     1
102
RTVSPropertyOp55
 70
     1
102
RTVSPropertyOp56
 70
     1
102
RTVSPropertyOp57
 70
     1
102
RTVSPost2010Prop28
280
     0
102
RTVSPost2010PropOp28
 70
     1
102
RTVSPost2010Prop29
280
     1
102
RTVSPost2010PropOp29
 70
     1
102
RTVSPost2010Prop30
280
     1
102
RTVSPost2010PropOp30
 70
     1
102
RTVSPost2010Prop31
280
     0
102
RTVSPost2010PropOp31
 70
     1
102
RTVSPost2010Prop32
280
     0
102
RTVSPost2010PropOp32
 70
     1
102
RTVSPost2010Prop33
280
     0
102
RTVSPost2010PropOp33
 70
     1
102
RTVSPost2010Prop34
280
     0
102
RTVSPost2010PropOp34
 70
     1
102
RTVSPost2010Prop35
280
     0
102
RTVSPost2010PropOp35
 70
     1
102
RTVSPost2010Prop36
280
     0
102
RTVSPost2010PropOp36
 70
     1
102
RTVSPost2010Prop37
 90
       50
102
RTVSPost2010PropOp37
 70
     1
102
RTVSPost2010Prop38
140
0.0
102
RTVSPost2010PropOp38
 70
     1
102
RTVSPost2010Prop39
140
1.0
102
RTVSPost2010PropOp39
 70
     1
102
RTVSPost2010Prop40
 90
        0
102
RTVSPost2010PropOp40
 70
     1
102
RTVSPost2010Prop41ColorIndex
 90
       18
102
RTVSPost2010Prop41ColorRGB
 90
        0
102
RTVSPost2010PropOp41
 70
     1
102
RTVSPost2010Prop42
 90
       50
102
RTVSPost2010PropOp42
 70
     1
102
RTVSPost2010Prop43
 90
        3
102
RTVSPost2010PropOp43
 70
     1
102
RTVSPost2010Prop44ColorIndex
 90
        5
102
RTVSPost2010Prop44ColorRGB
 90
      255
102
RTVSPost2010PropOp44
 70
     1
102
RTVSPost2010Prop45
280
     0
102
RTVSPost2010PropOp45
 70
     1
102
RTVSPost2010Prop46
 90
       50
102
RTVSPost2010PropOp46
 70
     1
102
RTVSPost2010Prop47
 90
       50
102
RTVSPost2010PropOp47
 70
     1
102
RTVSPost2010Prop48
 90
       50
102
RTVSPost2010PropOp48
 70
     1
102
RTVSPost2010Prop49
280
     0
102
RTVSPost2010PropOp49
 70
     1
102
RTVSPost2010Prop50
 90
       50
102
RTVSPost2010PropOp50
 70
     1
102
RTVSPost2010Prop51ColorIndex
 90
      256
102
RTVSPost2010Prop51ColorRGB
 90
-16777216
102
RTVSPost2010PropOp51
 70
     0
102
RTVSPost2010Prop52
140
1.0
102
RTVSPost2010PropOp52
 70
     0
102
RTVSPost2010Prop53
 90
        2
102
RTVSPost2010PropOp53
 70
     1
102
RTVSPost2010Prop54
  1
strokes_ogs.tif
102
RTVSPost2010PropOp54
 70
     1
102
RTVSPost2010Prop55
280
     0
102
RTVSPost2010PropOp55
 70
     1
102
RTVSPost2010Prop56
140
1.0
102
RTVSPost2010PropOp56
 70
     1
102
RTVSPost2010Prop57
140
1.0
102
RTVSPost2010PropOp57
 70
     1
  0
XRECORD
  5
3AF
102
{ACAD_REACTORS
330
3AE
102
}
330
3AE
100
AcDbXrecord
280
     1
102
RTVSPropertyOp0
 70
     1
102
RTVSPropertyOp1
 70
     1
102
RTVSPropertyOp2
 70
     1
102
RTVSPropertyOp3
 70
     1
102
RTVSPropertyOp4
 70
     1
102
RTVSPropertyOp5
 70
     1
102
RTVSPropertyOp6
 70
     1
102
RTVSPropertyOp7
 70
     1
102
RTVSPropertyOp8
 70
     1
102
RTVSPropertyOp9
 70
     1
102
RTVSPropertyOp10
 70
     1
102
RTVSPropertyOp11
 70
     1
102
RTVSPropertyOp12
 70
     1
102
RTVSPropertyOp13
 70
     1
102
RTVSPropertyOp14
 70
     1
102
RTVSPropertyOp15
 70
     1
102
RTVSPropertyOp16
 70
     1
102
RTVSPropertyOp17
 70
     1
102
RTVSPropertyOp18
 70
     1
102
RTVSPropertyOp19
 70
     1
102
RTVSPropertyOp20
 70
     1
102
RTVSPropertyOp21
 70
     1
102
RTVSPropertyOp22
 70
     1
102
RTVSPropertyOp23
 70
     1
102
RTVSPropertyOp24
 70
     1
102
RTVSPropertyOp25
 70
     1
102
RTVSPropertyOp26
 70
     1
102
RTVSPropertyOp27
 70
     1
102
RTVSPropertyOp28
 70
     1
102
RTVSPropertyOp29
 70
     1
102
RTVSPropertyOp30
 70
     1
102
RTVSPropertyOp31
 70
     1
102
RTVSPropertyOp32
 70
     1
102
RTVSPropertyOp33
 70
     1
102
RTVSPropertyOp34
 70
     1
102
RTVSPropertyOp35
 70
     1
102
RTVSPropertyOp36
 70
     1
102
RTVSPropertyOp37
 70
     1
102
RTVSPropertyOp38
 70
     1
102
RTVSPropertyOp39
 70
     1
102
RTVSPropertyOp40
 70
     1
102
RTVSPropertyOp41
 70
     1
102
RTVSPropertyOp42
 70
     1
102
RTVSPropertyOp43
 70
     1
102
RTVSPropertyOp44
 70
     1
102
RTVSPropertyOp45
 70
     1
102
RTVSPropertyOp46
 70
     1
102
RTVSPropertyOp47
 70
     1
102
RTVSPropertyOp48
 70
     1
102
RTVSPropertyOp49
 70
     1
102
RTVSPropertyOp50
 70
     1
102
RTVSPropertyOp51
 70
     0
102
RTVSPropertyOp52
 70
     0
102
RTVSPropertyOp53
 70
     1
102
RTVSPropertyOp54
 70
     1
102
RTVSPropertyOp55
 70
     1
102
RTVSPropertyOp56
 70
     1
102
RTVSPropertyOp57
 70
     1
102
RTVSPost2010Prop28
280
     0
102
RTVSPost2010PropOp28
 70
     1
102
RTVSPost2010Prop29
280
     1
102
RTVSPost2010PropOp29
 70
     1
102
RTVSPost2010Prop30
280
     1
102
RTVSPost2010PropOp30
 70
     1
102
RTVSPost2010Prop31
280
     0
102
RTVSPost2010PropOp31
 70
     1
102
RTVSPost2010Prop32
280
     0
102
RTVSPost2010PropOp32
 70
     1
102
RTVSPost2010Prop33
280
     0
102
RTVSPost2010PropOp33
 70
     1
102
RTVSPost2010Prop34
280
     0
102
RTVSPost2010PropOp34
 70
     1
102
RTVSPost2010Prop35
280
     0
102
RTVSPost2010PropOp35
 70
     1
102
RTVSPost2010Prop36
280
     0
102
RTVSPost2010PropOp36
 70
     1
102
RTVSPost2010Prop37
 90
       50
102
RTVSPost2010PropOp37
 70
     1
102
RTVSPost2010Prop38
140
0.0
102
RTVSPost2010PropOp38
 70
     1
102
RTVSPost2010Prop39
140
1.0
102
RTVSPost2010PropOp39
 70
     1
102
RTVSPost2010Prop40
 90
        0
102
RTVSPost2010PropOp40
 70
     1
102
RTVSPost2010Prop41ColorIndex
 90
       18
102
RTVSPost2010Prop41ColorRGB
 90
        0
102
RTVSPost2010PropOp41
 70
     1
102
RTVSPost2010Prop42
 90
       50
102
RTVSPost2010PropOp42
 70
     1
102
RTVSPost2010Prop43
 90
        3
102
RTVSPost2010PropOp43
 70
     1
102
RTVSPost2010Prop44ColorIndex
 90
        5
102
RTVSPost2010Prop44ColorRGB
 90
      255
102
RTVSPost2010PropOp44
 70
     1
102
RTVSPost2010Prop45
280
     0
102
RTVSPost2010PropOp45
 70
     1
102
RTVSPost2010Prop46
 90
       50
102
RTVSPost2010PropOp46
 70
     1
102
RTVSPost2010Prop47
 90
       50
102
RTVSPost2010PropOp47
 70
     1
102
RTVSPost2010Prop48
 90
       50
102
RTVSPost2010PropOp48
 70
     1
102
RTVSPost2010Prop49
280
     0
102
RTVSPost2010PropOp49
 70
     1
102
RTVSPost2010Prop50
 90
       50
102
RTVSPost2010PropOp50
 70
     1
102
RTVSPost2010Prop51ColorIndex
 90
      256
102
RTVSPost2010Prop51ColorRGB
 90
-16777216
102
RTVSPost2010PropOp51
 70
     0
102
RTVSPost2010Prop52
140
1.0
102
RTVSPost2010PropOp52
 70
     0
102
RTVSPost2010Prop53
 90
        2
102
RTVSPost2010PropOp53
 70
     1
102
RTVSPost2010Prop54
  1
strokes_ogs.tif
102
RTVSPost2010PropOp54
 70
     1
102
RTVSPost2010Prop55
280
     0
102
RTVSPost2010PropOp55
 70
     1
102
RTVSPost2010Prop56
140
1.0
102
RTVSPost2010PropOp56
 70
     1
102
RTVSPost2010Prop57
140
1.0
102
RTVSPost2010PropOp57
 70
     1
  0
XRECORD
  5
3A1
102
{ACAD_REACTORS
330
3A0
102
}
330
3A0
100
AcDbXrecord
280
     1
102
RTVSPropertyOp0
 70
     1
102
RTVSPropertyOp1
 70
     1
102
RTVSPropertyOp2
 70
     1
102
RTVSPropertyOp3
 70
     1
102
RTVSPropertyOp4
 70
     1
102
RTVSPropertyOp5
 70
     1
102
RTVSPropertyOp6
 70
     1
102
RTVSPropertyOp7
 70
     1
102
RTVSPropertyOp8
 70
     1
102
RTVSPropertyOp9
 70
     1
102
RTVSPropertyOp10
 70
     1
102
RTVSPropertyOp11
 70
     1
102
RTVSPropertyOp12
 70
     1
102
RTVSPropertyOp13
 70
     1
102
RTVSPropertyOp14
 70
     1
102
RTVSPropertyOp15
 70
     1
102
RTVSPropertyOp16
 70
     1
102
RTVSPropertyOp17
 70
     1
102
RTVSPropertyOp18
 70
     1
102
RTVSPropertyOp19
 70
     1
102
RTVSPropertyOp20
 70
     1
102
RTVSPropertyOp21
 70
     1
102
RTVSPropertyOp22
 70
     1
102
RTVSPropertyOp23
 70
     1
102
RTVSPropertyOp24
 70
     1
102
RTVSPropertyOp25
 70
     1
102
RTVSPropertyOp26
 70
     1
102
RTVSPropertyOp27
 70
     1
102
RTVSPropertyOp28
 70
     1
102
RTVSPropertyOp29
 70
     1
102
RTVSPropertyOp30
 70
     1
102
RTVSPropertyOp31
 70
     1
102
RTVSPropertyOp32
 70
     1
102
RTVSPropertyOp33
 70
     1
102
RTVSPropertyOp34
 70
     1
102
RTVSPropertyOp35
 70
     1
102
RTVSPropertyOp36
 70
     1
102
RTVSPropertyOp37
 70
     1
102
RTVSPropertyOp38
 70
     1
102
RTVSPropertyOp39
 70
     1
102
RTVSPropertyOp40
 70
     1
102
RTVSPropertyOp41
 70
     1
102
RTVSPropertyOp42
 70
     1
102
RTVSPropertyOp43
 70
     1
102
RTVSPropertyOp44
 70
     1
102
RTVSPropertyOp45
 70
     1
102
RTVSPropertyOp46
 70
     1
102
RTVSPropertyOp47
 70
     1
102
RTVSPropertyOp48
 70
     1
102
RTVSPropertyOp49
 70
     1
102
RTVSPropertyOp50
 70
     1
102
RTVSPropertyOp51
 70
     0
102
RTVSPropertyOp52
 70
     0
102
RTVSPropertyOp53
 70
     1
102
RTVSPropertyOp54
 70
     1
102
RTVSPropertyOp55
 70
     1
102
RTVSPropertyOp56
 70
     1
102
RTVSPropertyOp57
 70
     1
102
RTVSPost2010Prop28
280
     0
102
RTVSPost2010PropOp28
 70
     1
102
RTVSPost2010Prop29
280
     1
102
RTVSPost2010PropOp29
 70
     1
102
RTVSPost2010Prop30
280
     1
102
RTVSPost2010PropOp30
 70
     1
102
RTVSPost2010Prop31
280
     0
102
RTVSPost2010PropOp31
 70
     1
102
RTVSPost2010Prop32
280
     0
102
RTVSPost2010PropOp32
 70
     1
102
RTVSPost2010Prop33
280
     0
102
RTVSPost2010PropOp33
 70
     1
102
RTVSPost2010Prop34
280
     0
102
RTVSPost2010PropOp34
 70
     1
102
RTVSPost2010Prop35
280
     0
102
RTVSPost2010PropOp35
 70
     1
102
RTVSPost2010Prop36
280
     0
102
RTVSPost2010PropOp36
 70
     1
102
RTVSPost2010Prop37
 90
       50
102
RTVSPost2010PropOp37
 70
     1
102
RTVSPost2010Prop38
140
0.0
102
RTVSPost2010PropOp38
 70
     1
102
RTVSPost2010Prop39
140
1.0
102
RTVSPost2010PropOp39
 70
     1
102
RTVSPost2010Prop40
 90
        0
102
RTVSPost2010PropOp40
 70
     1
102
RTVSPost2010Prop41ColorIndex
 90
       18
102
RTVSPost2010Prop41ColorRGB
 90
        0
102
RTVSPost2010PropOp41
 70
     1
102
RTVSPost2010Prop42
 90
       50
102
RTVSPost2010PropOp42
 70
     1
102
RTVSPost2010Prop43
 90
        3
102
RTVSPost2010PropOp43
 70
     1
102
RTVSPost2010Prop44ColorIndex
 90
        5
102
RTVSPost2010Prop44ColorRGB
 90
      255
102
RTVSPost2010PropOp44
 70
     1
102
RTVSPost2010Prop45
280
     0
102
RTVSPost2010PropOp45
 70
     1
102
RTVSPost2010Prop46
 90
       50
102
RTVSPost2010PropOp46
 70
     1
102
RTVSPost2010Prop47
 90
       50
102
RTVSPost2010PropOp47
 70
     1
102
RTVSPost2010Prop48
 90
       50
102
RTVSPost2010PropOp48
 70
     1
102
RTVSPost2010Prop49
280
     0
102
RTVSPost2010PropOp49
 70
     1
102
RTVSPost2010Prop50
 90
       50
102
RTVSPost2010PropOp50
 70
     1
102
RTVSPost2010Prop51ColorIndex
 90
      256
102
RTVSPost2010Prop51ColorRGB
 90
-16777216
102
RTVSPost2010PropOp51
 70
     0
102
RTVSPost2010Prop52
140
1.0
102
RTVSPost2010PropOp52
 70
     0
102
RTVSPost2010Prop53
 90
        2
102
RTVSPost2010PropOp53
 70
     1
102
RTVSPost2010Prop54
  1
strokes_ogs.tif
102
RTVSPost2010PropOp54
 70
     1
102
RTVSPost2010Prop55
280
     0
102
RTVSPost2010PropOp55
 70
     1
102
RTVSPost2010Prop56
140
1.0
102
RTVSPost2010PropOp56
 70
     1
102
RTVSPost2010Prop57
140
1.0
102
RTVSPost2010PropOp57
 70
     1
  0
XRECORD
  5
3C1
102
{ACAD_REACTORS
330
3C0
102
}
330
3C0
100
AcDbXrecord
280
     1
102
RTVSPropertyOp0
 70
     1
102
RTVSPropertyOp1
 70
     1
102
RTVSPropertyOp2
 70
     1
102
RTVSPropertyOp3
 70
     1
102
RTVSPropertyOp4
 70
     1
102
RTVSPropertyOp5
 70
     1
102
RTVSPropertyOp6
 70
     1
102
RTVSPropertyOp7
 70
     1
102
RTVSPropertyOp8
 70
     1
102
RTVSPropertyOp9
 70
     1
102
RTVSPropertyOp10
 70
     1
102
RTVSPropertyOp11
 70
     1
102
RTVSPropertyOp12
 70
     1
102
RTVSPropertyOp13
 70
     1
102
RTVSPropertyOp14
 70
     1
102
RTVSPropertyOp15
 70
     1
102
RTVSPropertyOp16
 70
     1
102
RTVSPropertyOp17
 70
     1
102
RTVSPropertyOp18
 70
     1
102
RTVSPropertyOp19
 70
     1
102
RTVSPropertyOp20
 70
     1
102
RTVSPropertyOp21
 70
     1
102
RTVSPropertyOp22
 70
     1
102
RTVSPropertyOp23
 70
     1
102
RTVSPropertyOp24
 70
     1
102
RTVSPropertyOp25
 70
     1
102
RTVSPropertyOp26
 70
     1
102
RTVSPropertyOp27
 70
     1
102
RTVSPropertyOp28
 70
     1
102
RTVSPropertyOp29
 70
     1
102
RTVSPropertyOp30
 70
     1
102
RTVSPropertyOp31
 70
     1
102
RTVSPropertyOp32
 70
     1
102
RTVSPropertyOp33
 70
     1
102
RTVSPropertyOp34
 70
     1
102
RTVSPropertyOp35
 70
     1
102
RTVSPropertyOp36
 70
     1
102
RTVSPropertyOp37
 70
     1
102
RTVSPropertyOp38
 70
     1
102
RTVSPropertyOp39
 70
     1
102
RTVSPropertyOp40
 70
     1
102
RTVSPropertyOp41
 70
     1
102
RTVSPropertyOp42
 70
     1
102
RTVSPropertyOp43
 70
     1
102
RTVSPropertyOp44
 70
     1
102
RTVSPropertyOp45
 70
     1
102
RTVSPropertyOp46
 70
     1
102
RTVSPropertyOp47
 70
     1
102
RTVSPropertyOp48
 70
     1
102
RTVSPropertyOp49
 70
     1
102
RTVSPropertyOp50
 70
     1
102
RTVSPropertyOp51
 70
     0
102
RTVSPropertyOp52
 70
     0
102
RTVSPropertyOp53
 70
     1
102
RTVSPropertyOp54
 70
     1
102
RTVSPropertyOp55
 70
     1
102
RTVSPropertyOp56
 70
     1
102
RTVSPropertyOp57
 70
     1
102
RTVSPost2010Prop28
280
     0
102
RTVSPost2010PropOp28
 70
     1
102
RTVSPost2010Prop29
280
     1
102
RTVSPost2010PropOp29
 70
     1
102
RTVSPost2010Prop30
280
     1
102
RTVSPost2010PropOp30
 70
     1
102
RTVSPost2010Prop31
280
     0
102
RTVSPost2010PropOp31
 70
     1
102
RTVSPost2010Prop32
280
     0
102
RTVSPost2010PropOp32
 70
     1
102
RTVSPost2010Prop33
280
     0
102
RTVSPost2010PropOp33
 70
     1
102
RTVSPost2010Prop34
280
     0
102
RTVSPost2010PropOp34
 70
     1
102
RTVSPost2010Prop35
280
     0
102
RTVSPost2010PropOp35
 70
     1
102
RTVSPost2010Prop36
280
     0
102
RTVSPost2010PropOp36
 70
     1
102
RTVSPost2010Prop37
 90
       50
102
RTVSPost2010PropOp37
 70
     1
102
RTVSPost2010Prop38
140
0.0
102
RTVSPost2010PropOp38
 70
     1
102
RTVSPost2010Prop39
140
1.0
102
RTVSPost2010PropOp39
 70
     1
102
RTVSPost2010Prop40
 90
        0
102
RTVSPost2010PropOp40
 70
     1
102
RTVSPost2010Prop41ColorIndex
 90
       18
102
RTVSPost2010Prop41ColorRGB
 90
        0
102
RTVSPost2010PropOp41
 70
     1
102
RTVSPost2010Prop42
 90
       50
102
RTVSPost2010PropOp42
 70
     1
102
RTVSPost2010Prop43
 90
        3
102
RTVSPost2010PropOp43
 70
     1
102
RTVSPost2010Prop44ColorIndex
 90
        5
102
RTVSPost2010Prop44ColorRGB
 90
      255
102
RTVSPost2010PropOp44
 70
     1
102
RTVSPost2010Prop45
280
     0
102
RTVSPost2010PropOp45
 70
     1
102
RTVSPost2010Prop46
 90
       50
102
RTVSPost2010PropOp46
 70
     1
102
RTVSPost2010Prop47
 90
       50
102
RTVSPost2010PropOp47
 70
     1
102
RTVSPost2010Prop48
 90
       50
102
RTVSPost2010PropOp48
 70
     1
102
RTVSPost2010Prop49
280
     0
102
RTVSPost2010PropOp49
 70
     1
102
RTVSPost2010Prop50
 90
       50
102
RTVSPost2010PropOp50
 70
     1
102
RTVSPost2010Prop51ColorIndex
 90
      256
102
RTVSPost2010Prop51ColorRGB
 90
-16777216
102
RTVSPost2010PropOp51
 70
     0
102
RTVSPost2010Prop52
140
1.0
102
RTVSPost2010PropOp52
 70
     0
102
RTVSPost2010Prop53
 90
        2
102
RTVSPost2010PropOp53
 70
     1
102
RTVSPost2010Prop54
  1
strokes_ogs.tif
102
RTVSPost2010PropOp54
 70
     1
102
RTVSPost2010Prop55
280
     0
102
RTVSPost2010PropOp55
 70
     1
102
RTVSPost2010Prop56
140
1.0
102
RTVSPost2010PropOp56
 70
     1
102
RTVSPost2010Prop57
140
1.0
102
RTVSPost2010PropOp57
 70
     1
  0
ENDSEC
  0
EOF
